  0
SECTION
  2
HEADER
  9
$ACADVER
  1
AC1032
  9
$ACADMAINTVER
 90
       77
  9
$DWGCODEPAGE
  3
ANSI_1252
  9
$TITLE
  1
751G
  9
$SUBJECT
  1
Adjustable Incline Bench
  9
$AUTHOR
  1
Pulse Fitness
  9
$LASTSAVEDBY
  1
Darren.Clowes
  9
$REQUIREDVERSIONS
160
                 0
  9
$INSBASE
 10
0.0
 20
0.0
 30
0.0
  9
$EXTMIN
 10
1968.058520921899
 20
6255.377676206121
 30
-0.0338494472175626
  9
$EXTMAX
 10
2494.001762018408
 20
7864.298368849384
 30
0.0225697417513402
  9
$LIMMIN
 10
0.0
 20
0.0
  9
$LIMMAX
 10
420.0
 20
297.0
  9
$ORTHOMODE
 70
     1
  9
$REGENMODE
 70
     1
  9
$FILLMODE
 70
     1
  9
$QTEXTMODE
 70
     0
  9
$MIRRTEXT
 70
     0
  9
$LTSCALE
 40
1.0
  9
$ATTMODE
 70
     1
  9
$TEXTSIZE
 40
2.5
  9
$TRACEWID
 40
1.0
  9
$TEXTSTYLE
  7
Standard
  9
$CLAYER
  8
0
  9
$CELTYPE
  6
ByLayer
  9
$CECOLOR
 62
   256
  9
$CELTSCALE
 40
1.0
  9
$DISPSILH
 70
     0
  9
$DIMSCALE
 40
1.0
  9
$DIMASZ
 40
2.5
  9
$DIMEXO
 40
0.625
  9
$DIMDLI
 40
3.75
  9
$DIMRND
 40
0.0
  9
$DIMDLE
 40
0.0
  9
$DIMEXE
 40
1.25
  9
$DIMTP
 40
0.0
  9
$DIMTM
 40
0.0
  9
$DIMTXT
 40
2.5
  9
$DIMCEN
 40
2.5
  9
$DIMTSZ
 40
0.0
  9
$DIMTOL
 70
     0
  9
$DIMLIM
 70
     0
  9
$DIMTIH
 70
     0
  9
$DIMTOH
 70
     0
  9
$DIMSE1
 70
     0
  9
$DIMSE2
 70
     0
  9
$DIMTAD
 70
     1
  9
$DIMZIN
 70
     8
  9
$DIMBLK
  1

  9
$DIMASO
 70
     1
  9
$DIMSHO
 70
     1
  9
$DIMPOST
  1

  9
$DIMAPOST
  1

  9
$DIMALT
 70
     0
  9
$DIMALTD
 70
     3
  9
$DIMALTF
 40
0.03937007874016
  9
$DIMLFAC
 40
1.0
  9
$DIMTOFL
 70
     1
  9
$DIMTVP
 40
0.0
  9
$DIMTIX
 70
     0
  9
$DIMSOXD
 70
     0
  9
$DIMSAH
 70
     0
  9
$DIMBLK1
  1

  9
$DIMBLK2
  1

  9
$DIMSTYLE
  2
ISO-25
  9
$DIMCLRD
 70
     0
  9
$DIMCLRE
 70
     0
  9
$DIMCLRT
 70
     0
  9
$DIMTFAC
 40
1.0
  9
$DIMGAP
 40
0.625
  9
$DIMJUST
 70
     0
  9
$DIMSD1
 70
     0
  9
$DIMSD2
 70
     0
  9
$DIMTOLJ
 70
     0
  9
$DIMTZIN
 70
     8
  9
$DIMALTZ
 70
     0
  9
$DIMALTTZ
 70
     0
  9
$DIMUPT
 70
     0
  9
$DIMDEC
 70
     2
  9
$DIMTDEC
 70
     2
  9
$DIMALTU
 70
     2
  9
$DIMALTTD
 70
     3
  9
$DIMTXSTY
  7
Standard
  9
$DIMAUNIT
 70
     0
  9
$DIMADEC
 70
     0
  9
$DIMALTRND
 40
0.0
  9
$DIMAZIN
 70
     0
  9
$DIMDSEP
 70
    44
  9
$DIMATFIT
 70
     3
  9
$DIMFRAC
 70
     0
  9
$DIMLDRBLK
  1

  9
$DIMLUNIT
 70
     2
  9
$DIMLWD
 70
    -2
  9
$DIMLWE
 70
    -2
  9
$DIMTMOVE
 70
     0
  9
$DIMFXL
 40
1.0
  9
$DIMFXLON
 70
     0
  9
$DIMJOGANG
 40
0.7853981633974483
  9
$DIMTFILL
 70
     0
  9
$DIMTFILLCLR
 70
     0
  9
$DIMARCSYM
 70
     0
  9
$DIMLTYPE
  6

  9
$DIMLTEX1
  6

  9
$DIMLTEX2
  6

  9
$DIMTXTDIRECTION
 70
     0
  9
$LUNITS
 70
     2
  9
$LUPREC
 70
     4
  9
$SKETCHINC
 40
1.0
  9
$FILLETRAD
 40
0.0
  9
$AUNITS
 70
     0
  9
$AUPREC
 70
     0
  9
$MENU
  1
.
  9
$ELEVATION
 40
0.0
  9
$PELEVATION
 40
0.0
  9
$THICKNESS
 40
0.0
  9
$LIMCHECK
 70
     0
  9
$CHAMFERA
 40
0.0
  9
$CHAMFERB
 40
0.0
  9
$CHAMFERC
 40
0.0
  9
$CHAMFERD
 40
0.0
  9
$SKPOLY
 70
     0
  9
$TDCREATE
 40
2460608.599803241
  9
$TDUCREATE
 40
2460608.558136574
  9
$TDUPDATE
 40
2460700.512858796
  9
$TDUUPDATE
 40
2460700.512858796
  9
$TDINDWG
 40
5.1467129630
  9
$TDUSRTIMER
 40
5.1467129630
  9
$USRTIMER
 70
     1
  9
$ANGBASE
 50
0.0
  9
$ANGDIR
 70
     0
  9
$PDMODE
 70
     0
  9
$PDSIZE
 40
0.0
  9
$PLINEWID
 40
0.0
  9
$SPLFRAME
 70
     0
  9
$SPLINETYPE
 70
     6
  9
$SPLINESEGS
 70
     8
  9
$HANDSEED
  5
352BC
  9
$SURFTAB1
 70
     6
  9
$SURFTAB2
 70
     6
  9
$SURFTYPE
 70
     6
  9
$SURFU
 70
     6
  9
$SURFV
 70
     6
  9
$UCSBASE
  2

  9
$UCSNAME
  2

  9
$UCSORG
 10
0.0
 20
0.0
 30
0.0
  9
$UCSXDIR
 10
1.0
 20
0.0
 30
0.0
  9
$UCSYDIR
 10
0.0
 20
1.0
 30
0.0
  9
$UCSORTHOREF
  2

  9
$UCSORTHOVIEW
 70
     0
  9
$UCSORGTOP
 10
0.0
 20
0.0
 30
0.0
  9
$UCSORGBOTTOM
 10
0.0
 20
0.0
 30
0.0
  9
$UCSORGLEFT
 10
0.0
 20
0.0
 30
0.0
  9
$UCSORGRIGHT
 10
0.0
 20
0.0
 30
0.0
  9
$UCSORGFRONT
 10
0.0
 20
0.0
 30
0.0
  9
$UCSORGBACK
 10
0.0
 20
0.0
 30
0.0
  9
$PUCSBASE
  2

  9
$PUCSNAME
  2

  9
$PUCSORG
 10
0.0
 20
0.0
 30
0.0
  9
$PUCSXDIR
 10
1.0
 20
0.0
 30
0.0
  9
$PUCSYDIR
 10
0.0
 20
1.0
 30
0.0
  9
$PUCSORTHOREF
  2

  9
$PUCSORTHOVIEW
 70
     0
  9
$PUCSORGTOP
 10
0.0
 20
0.0
 30
0.0
  9
$PUCSORGBOTTOM
 10
0.0
 20
0.0
 30
0.0
  9
$PUCSORGLEFT
 10
0.0
 20
0.0
 30
0.0
  9
$PUCSORGRIGHT
 10
0.0
 20
0.0
 30
0.0
  9
$PUCSORGFRONT
 10
0.0
 20
0.0
 30
0.0
  9
$PUCSORGBACK
 10
0.0
 20
0.0
 30
0.0
  9
$USERI1
 70
     0
  9
$USERI2
 70
     0
  9
$USERI3
 70
     0
  9
$USERI4
 70
     0
  9
$USERI5
 70
     0
  9
$USERR1
 40
0.0
  9
$USERR2
 40
0.0
  9
$USERR3
 40
0.0
  9
$USERR4
 40
0.0
  9
$USERR5
 40
0.0
  9
$WORLDVIEW
 70
     1
  9
$SHADEDGE
 70
     3
  9
$SHADEDIF
 70
    70
  9
$TILEMODE
 70
     1
  9
$MAXACTVP
 70
    64
  9
$PINSBASE
 10
0.0
 20
0.0
 30
0.0
  9
$PLIMCHECK
 70
     0
  9
$PEXTMIN
 10
25.69999999999999
 20
19.5
 30
0.0
  9
$PEXTMAX
 10
231.3
 20
175.5
 30
0.0
  9
$PLIMMIN
 10
-20.0
 20
-7.5
  9
$PLIMMAX
 10
277.0
 20
202.5
  9
$UNITMODE
 70
     0
  9
$VISRETAIN
 70
     1
  9
$PLINEGEN
 70
     0
  9
$PSLTSCALE
 70
     1
  9
$TREEDEPTH
 70
  3020
  9
$CMLSTYLE
  2
Standard
  9
$CMLJUST
 70
     0
  9
$CMLSCALE
 40
20.0
  9
$PROXYGRAPHICS
 70
     1
  9
$MEASUREMENT
 70
     1
  9
$CELWEIGHT
370
    -1
  9
$ENDCAPS
280
     0
  9
$JOINSTYLE
280
     0
  9
$LWDISPLAY
290
     0
  9
$INSUNITS
 70
     4
  9
$HYPERLINKBASE
  1

  9
$STYLESHEET
  1

  9
$XEDIT
290
     1
  9
$CEPSNTYPE
380
     0
  9
$PSTYLEMODE
290
     1
  9
$FINGERPRINTGUID
  2
{54537EB9-599D-7646-99BF-BB5F0EA5D2E8}
  9
$VERSIONGUID
  2
{202549FC-ED34-6A4E-BBAD-B9D8CF9C2338}
  9
$EXTNAMES
290
     1
  9
$PSVPSCALE
 40
0.0
  9
$OLESTARTUP
290
     0
  9
$SORTENTS
280
   127
  9
$INDEXCTL
280
     0
  9
$HIDETEXT
280
     1
  9
$XCLIPFRAME
280
     2
  9
$HALOGAP
280
     0
  9
$OBSCOLOR
 70
   257
  9
$OBSLTYPE
280
     0
  9
$INTERSECTIONDISPLAY
280
     0
  9
$INTERSECTIONCOLOR
 70
   257
  9
$DIMASSOC
280
     2
  9
$PROJECTNAME
  1

  9
$CAMERADISPLAY
290
     0
  9
$LENSLENGTH
 40
50.0
  9
$CAMERAHEIGHT
 40
0.0
  9
$STEPSPERSEC
 40
2.0
  9
$STEPSIZE
 40
6.0
  9
$3DDWFPREC
 40
2.0
  9
$PSOLWIDTH
 40
5.0
  9
$PSOLHEIGHT
 40
80.0
  9
$LOFTANG1
 40
1.570796326794896
  9
$LOFTANG2
 40
1.570796326794896
  9
$LOFTMAG1
 40
0.0
  9
$LOFTMAG2
 40
0.0
  9
$LOFTPARAM
 70
     7
  9
$LOFTNORMALS
280
     1
  9
$LATITUDE
 40
37.795
  9
$LONGITUDE
 40
-122.394
  9
$NORTHDIRECTION
 40
0.0
  9
$TIMEZONE
 70
 -8000
  9
$LIGHTGLYPHDISPLAY
280
     1
  9
$TILEMODELIGHTSYNCH
280
     1
  9
$CMATERIAL
347
EC
  9
$SOLIDHIST
280
     0
  9
$SHOWHIST
280
     1
  9
$DWFFRAME
280
     2
  9
$DGNFRAME
280
     0
  9
$REALWORLDSCALE
290
     1
  9
$INTERFERECOLOR
 62
     1
  9
$INTERFEREOBJVS
345
F9
  9
$INTERFEREVPVS
346
F6
  9
$CSHADOW
280
     0
  9
$SHADOWPLANELOCATION
 40
0.0
  0
ENDSEC
  0
SECTION
  2
CLASSES
  0
CLASS
  1
ACDBDICTIONARYWDFLT
  2
AcDbDictionaryWithDefault
  3
ObjectDBX Classes
 90
        0
 91
        1
280
     0
281
     0
  0
CLASS
  1
DICTIONARYVAR
  2
AcDbDictionaryVar
  3
ObjectDBX Classes
 90
        0
 91
       13
280
     0
281
     0
  0
CLASS
  1
TABLESTYLE
  2
AcDbTableStyle
  3
ObjectDBX Classes
 90
     4095
 91
        1
280
     0
281
     0
  0
CLASS
  1
MATERIAL
  2
AcDbMaterial
  3
ObjectDBX Classes
 90
     1153
 91
        3
280
     0
281
     0
  0
CLASS
  1
VISUALSTYLE
  2
AcDbVisualStyle
  3
ObjectDBX Classes
 90
     4095
 91
       24
280
     0
281
     0
  0
CLASS
  1
SCALE
  2
AcDbScale
  3
ObjectDBX Classes
 90
     1153
 91
       17
280
     0
281
     0
  0
CLASS
  1
MLEADERSTYLE
  2
AcDbMLeaderStyle
  3
ACDB_MLEADERSTYLE_CLASS
 90
     4095
 91
        2
280
     0
281
     0
  0
CLASS
  1
CELLSTYLEMAP
  2
AcDbCellStyleMap
  3
ObjectDBX Classes
 90
     1152
 91
        1
280
     0
281
     0
  0
CLASS
  1
EXACXREFPANELOBJECT
  2
ExAcXREFPanelObject
  3
EXAC_ESW
 90
     1025
 91
        0
280
     0
281
     0
  0
CLASS
  1
NPOCOLLECTION
  2
AcDbImpNonPersistentObjectsCollection
  3
ObjectDBX Classes
 90
     1153
 91
        0
280
     0
281
     0
  0
CLASS
  1
LAYER_INDEX
  2
AcDbLayerIndex
  3
ObjectDBX Classes
 90
        0
 91
        0
280
     0
281
     0
  0
CLASS
  1
SPATIAL_INDEX
  2
AcDbSpatialIndex
  3
ObjectDBX Classes
 90
        0
 91
        0
280
     0
281
     0
  0
CLASS
  1
IDBUFFER
  2
AcDbIdBuffer
  3
ObjectDBX Classes
 90
        0
 91
        0
280
     0
281
     0
  0
CLASS
  1
ACDBSECTIONVIEWSTYLE
  2
AcDbSectionViewStyle
  3
ObjectDBX Classes
 90
     1025
 91
        1
280
     0
281
     0
  0
CLASS
  1
ACDBDETAILVIEWSTYLE
  2
AcDbDetailViewStyle
  3
ObjectDBX Classes
 90
     1025
 91
        1
280
     0
281
     0
  0
CLASS
  1
SORTENTSTABLE
  2
AcDbSortentsTable
  3
ObjectDBX Classes
 90
        0
 91
        1
280
     0
281
     0
  0
CLASS
  1
ACDB_MTEXTATTRIBUTEOBJECTCONTEXTDATA_CLASS
  2
AcDbMTextAttributeObjectContextData
  3
ObjectDBX Classes
 90
     1153
 91
       82
280
     0
281
     0
  0
CLASS
  1
ACAD_EVALUATION_GRAPH
  2
AcDbEvalGraph
  3
ObjectDBX Classes
 90
     1153
 91
        0
280
     0
281
     0
  0
CLASS
  1
ACAECUSTOBJ
  2
AcAeEditorObj
  3
AcAeEditorObj
 90
     1024
 91
        0
280
     0
281
     0
  0
CLASS
  1
ACDB_DYNAMICBLOCKPURGEPREVENTER_VERSION
  2
AcDbDynamicBlockPurgePreventer
  3
ObjectDBX Classes
 90
     1153
 91
        0
280
     0
281
     0
  0
ENDSEC
  0
SECTION
  2
TABLES
  0
TABLE
  2
VPORT
  5
8
330
0
100
AcDbSymbolTable
 70
     1
  0
VPORT
  5
EA
330
8
100
AcDbSymbolTableRecord
100
AcDbViewportTableRecord
  2
*Active
 70
     0
 10
0.0
 20
0.0
 11
1.0
 21
1.0
 12
2231.030141470153
 22
7059.838022527753
 13
0.0
 23
0.0
 14
10.0
 24
10.0
 15
10.0
 25
10.0
 16
0.0
 26
0.0
 36
1.0
 17
0.0
 27
0.0
 37
0.0
 40
1619.09300471477
 41
1.964135021097046
 42
50.0
 43
0.0
 44
0.0
 50
0.0
 51
0.0
 71
     0
 72
  1000
 73
     1
 74
     3
 75
     0
 76
     1
 77
     0
 78
     0
281
     0
 65
     1
110
0.0
120
0.0
130
0.0
111
1.0
121
0.0
131
0.0
112
0.0
122
1.0
132
0.0
 79
     0
146
0.0
348
F5
 60
     3
 61
     5
292
     1
282
     1
141
0.0
142
0.0
 63
   250
421
  3355443
1001
ACAD_NAV_VCDISPLAY
1070
     3
  0
ENDTAB
  0
TABLE
  2
LTYPE
  5
5
330
0
100
AcDbSymbolTable
 70
     1
  0
LTYPE
  5
14
330
5
100
AcDbSymbolTableRecord
100
AcDbLinetypeTableRecord
  2
ByBlock
 70
     0
  3

 72
    65
 73
     0
 40
0.0
  0
LTYPE
  5
15
330
5
100
AcDbSymbolTableRecord
100
AcDbLinetypeTableRecord
  2
ByLayer
 70
     0
  3

 72
    65
 73
     0
 40
0.0
  0
LTYPE
  5
16
330
5
100
AcDbSymbolTableRecord
100
AcDbLinetypeTableRecord
  2
Continuous
 70
     0
  3
Solid line
 72
    65
 73
     0
 40
0.0
  0
ENDTAB
  0
TABLE
  2
LAYER
  5
2
102
{ACAD_XDICTIONARY
360
1FF
102
}
330
0
100
AcDbSymbolTable
 70
     1
  0
LAYER
  5
10
102
{ACAD_XDICTIONARY
360
13C
102
}
330
2
100
AcDbSymbolTableRecord
100
AcDbLayerTableRecord
  2
0
 70
     0
 62
     7
  6
Continuous
370
    -3
390
F
347
EE
348
0
  0
ENDTAB
  0
TABLE
  2
STYLE
  5
3
330
0
100
AcDbSymbolTable
 70
     2
  0
STYLE
  5
11
330
3
100
AcDbSymbolTableRecord
100
AcDbTextStyleTableRecord
  2
Standard
 70
     0
 40
0.0
 41
1.0
 50
0.0
 71
     0
 42
2.5
  3
arial.ttf
  4

1001
ACAD
1000
Arial
1071
       34
  0
STYLE
  5
132
330
3
100
AcDbSymbolTableRecord
100
AcDbTextStyleTableRecord
  2
Annotative
 70
     0
 40
0.0
 41
1.0
 50
0.0
 71
     0
 42
2.5
  3
arial.ttf
  4

1001
AcadAnnotative
1000
AnnotativeData
1002
{
1070
     1
1070
     1
1002
}
1001
ACAD
1000
Arial
1071
       34
  0
ENDTAB
  0
TABLE
  2
VIEW
  5
6
330
0
100
AcDbSymbolTable
 70
     0
  0
ENDTAB
  0
TABLE
  2
UCS
  5
7
330
0
100
AcDbSymbolTable
 70
     0
  0
ENDTAB
  0
TABLE
  2
APPID
  5
9
330
0
100
AcDbSymbolTable
 70
    14
  0
APPID
  5
12
330
9
100
AcDbSymbolTableRecord
100
AcDbRegAppTableRecord
  2
ACAD
 70
     0
  0
APPID
  5
9E
330
9
100
AcDbSymbolTableRecord
100
AcDbRegAppTableRecord
  2
ACAD_PSEXT
 70
     0
  0
APPID
  5
133
330
9
100
AcDbSymbolTableRecord
100
AcDbRegAppTableRecord
  2
AcadAnnoPO
 70
     0
  0
APPID
  5
134
330
9
100
AcDbSymbolTableRecord
100
AcDbRegAppTableRecord
  2
AcadAnnotative
 70
     0
  0
APPID
  5
135
330
9
100
AcDbSymbolTableRecord
100
AcDbRegAppTableRecord
  2
ACAD_DSTYLE_DIMJAG
 70
     0
  0
APPID
  5
136
330
9
100
AcDbSymbolTableRecord
100
AcDbRegAppTableRecord
  2
ACAD_DSTYLE_DIMTALN
 70
     0
  0
APPID
  5
165
330
9
100
AcDbSymbolTableRecord
100
AcDbRegAppTableRecord
  2
ACAD_MLEADERVER
 70
     0
  0
APPID
  5
217
330
9
100
AcDbSymbolTableRecord
100
AcDbRegAppTableRecord
  2
ACAD_NAV_VCDISPLAY
 70
     0
  0
APPID
  5
10CD0
330
9
100
AcDbSymbolTableRecord
100
AcDbRegAppTableRecord
  2
ACAD_EXEMPT_FROM_CAD_STANDARDS
 70
     0
  0
APPID
  5
20098
330
9
100
AcDbSymbolTableRecord
100
AcDbRegAppTableRecord
  2
GradientColor1ACI
 70
     0
  0
APPID
  5
20099
330
9
100
AcDbSymbolTableRecord
100
AcDbRegAppTableRecord
  2
GradientColor2ACI
 70
     0
  0
APPID
  5
245F8
330
9
100
AcDbSymbolTableRecord
100
AcDbRegAppTableRecord
  2
ACAUTHENVIRON
 70
     0
  0
APPID
  5
27F21
330
9
100
AcDbSymbolTableRecord
100
AcDbRegAppTableRecord
  2
AcDbDynamicBlockTrueName
 70
     0
  0
APPID
  5
27F22
330
9
100
AcDbSymbolTableRecord
100
AcDbRegAppTableRecord
  2
AcDbDynamicBlockGUID
 70
     0
  0
ENDTAB
  0
TABLE
  2
DIMSTYLE
  5
A
330
0
100
AcDbSymbolTable
 70
     3
100
AcDbDimStyleTable
 71
     1
340
27
  0
DIMSTYLE
105
1B0
330
A
100
AcDbSymbolTableRecord
100
AcDbDimStyleTableRecord
  2
Standard
 70
     0
340
11
  0
DIMSTYLE
105
27
330
A
100
AcDbSymbolTableRecord
100
AcDbDimStyleTableRecord
  2
ISO-25
 70
     0
 41
2.5
 42
0.625
 43
3.75
 44
1.25
 73
     0
 74
     0
 77
     1
 78
     8
140
2.5
141
2.5
143
0.03937007874016
147
0.625
171
     3
172
     1
271
     2
272
     2
274
     3
278
    44
283
     0
284
     8
340
11
  0
ENDTAB
  0
TABLE
  2
BLOCK_RECORD
  5
1
330
0
100
AcDbSymbolTable
 70
    44
  0
BLOCK_RECORD
  5
1F
102
{ACAD_XDICTIONARY
360
1CE
102
}
330
1
100
AcDbSymbolTableRecord
100
AcDbBlockTableRecord
  2
*Model_Space
340
22
 70
     0
280
     1
281
     0
  0
BLOCK_RECORD
  5
D2
330
1
100
AcDbSymbolTableRecord
100
AcDbBlockTableRecord
  2
*Paper_Space
340
D3
 70
     0
280
     1
281
     0
  0
BLOCK_RECORD
  5
D6
330
1
100
AcDbSymbolTableRecord
100
AcDbBlockTableRecord
  2
*Paper_Space0
340
D7
 70
     0
280
     1
281
     0
  0
BLOCK_RECORD
  5
15759
102
{ACAD_XDICTIONARY
360
2FB23
102
}
330
1
100
AcDbSymbolTableRecord
100
AcDbBlockTableRecord
  2
751G - Adjustable Incline Bench
340
0
310
28000000200000002000000001002000000000000010000001000000010000000000000000000000302821FF302821FF302821FF302821FF302821FF302821FF302821FF302821FF302821FF302821FF302821FF302821FF302821FF302821FF302821FF302821FF302821FF302821FF302821FF302821FF302821FF302821
310
FF302821FF302821FF302821FF302821FF302821FF302821FF302821FF302821FF302821FF302821FF302821FF302821FF302821FF302821FF302821FF302821FF302821FF302821FF302821FF302821FF302821FF302821FF302821FFFFFFFFFFFFFFFFFFFFFFFFFFFFFFFFFFFFFFFFFFFFFFFFFF302821FF302821FF3028
310
21FF302821FF302821FF302821FF302821FF302821FF302821FF302821FF302821FF302821FF302821FF302821FF302821FF302821FF302821FF302821FF302821FF302821FF302821FF302821FF302821FF302821FF302821FF302821FF302821FFFFFFFFFFFFFFFFFFFFFFFFFFFFFFFFFF302821FF302821FF302821FF30
310
2821FF302821FF302821FF302821FF302821FF302821FF302821FF302821FF302821FF302821FF302821FF302821FF302821FF302821FF302821FF302821FF302821FF302821FF302821FF302821FF302821FF302821FF302821FF302821FFFFFFFFFFFFFFFFFFFFFFFFFFFFFFFFFFFFFFFFFFFFFFFFFF302821FF302821FF
310
302821FF302821FF302821FF302821FF302821FF302821FF302821FF302821FF302821FF302821FF302821FF302821FF302821FF302821FF302821FF302821FF302821FF302821FF302821FF302821FF302821FF302821FF302821FF302821FF302821FF302821FF302821FF302821FF302821FF302821FF302821FF302821
310
FF302821FF302821FF302821FF302821FF302821FF302821FF302821FF302821FF302821FF302821FF302821FF302821FF302821FF302821FF302821FF302821FF302821FF302821FF302821FF302821FF302821FF302821FF302821FF302821FF302821FF302821FF302821FF302821FF302821FF302821FF302821FF3028
310
21FF302821FF302821FF302821FF302821FF302821FF302821FF302821FF302821FF302821FF302821FF302821FF302821FF302821FF302821FF302821FF302821FF302821FF302821FF302821FF302821FF302821FF302821FF302821FF302821FF302821FF302821FF302821FF302821FF302821FF302821FF302821FF30
310
2821FF302821FF302821FF302821FF302821FF302821FF302821FF302821FF302821FF302821FF302821FF302821FF302821FF302821FF302821FF302821FF302821FF302821FF302821FF302821FF302821FF302821FF302821FF302821FF302821FF302821FFFFFFFFFFFFFFFFFFFFFFFFFFFFFFFFFF302821FF302821FF
310
302821FF302821FF302821FF302821FF302821FF302821FF302821FF302821FF302821FF302821FF302821FF302821FF302821FF302821FF302821FF302821FF302821FF302821FF302821FF302821FF302821FF302821FF302821FFFFFFFFFFFFFFFFFFFFFFFFFFFFFFFFFF302821FF302821FFFFFFFFFFFFFFFFFFFFFFFF
310
FFFFFFFFFF302821FF302821FF302821FF302821FF302821FF302821FF302821FF302821FF302821FF302821FF302821FF302821FF302821FF302821FF302821FF302821FF302821FF302821FF302821FF302821FF302821FF302821FFFFFFFFFFFFFFFFFFFFFFFFFFFFFFFFFF302821FF302821FFFFFFFFFFFFFFFFFFFFFF
310
FFFFFFFFFFFF302821FF302821FF302821FF302821FF302821FF302821FF302821FF302821FF302821FF302821FF302821FF302821FF302821FF302821FF302821FF302821FF302821FF302821FF302821FF302821FF302821FF302821FFFFFFFFFFFFFFFFFFFFFFFFFF302821FF302821FF302821FF302821FFFFFFFFFFFF
310
FFFFFFFFFFFFFF302821FF302821FF302821FF302821FF302821FF302821FF302821FF302821FF302821FF302821FF302821FF302821FF302821FF302821FF302821FF302821FF302821FF302821FF302821FF302821FF302821FF302821FFFFFFFFFFFFFFFFFFFFFFFFFF302821FF302821FF302821FF302821FFFFFFFFFF
310
FFFFFFFFFFFFFFFF302821FF302821FF302821FF302821FF302821FF302821FF302821FF302821FF302821FF302821FF302821FF302821FF302821FF302821FF302821FF302821FF302821FF302821FF302821FF302821FF302821FF302821FF302821FF302821FFFFFFFFFFFFFFFFFFFFFFFFFFFFFFFFFFFFFFFFFFFFFFFF
310
FF302821FF302821FF302821FF302821FF302821FF302821FF302821FF302821FF302821FF302821FF302821FF302821FF302821FF302821FF302821FF302821FF302821FF302821FF302821FF302821FF302821FF302821FF302821FF302821FF302821FF302821FFFFFFFFFFFFFFFFFFFFFFFFFFFFFFFFFFFFFFFFFFFFFF
310
FFFF302821FF302821FF302821FF302821FF302821FF302821FF302821FF302821FF302821FF302821FF302821FF302821FF302821FF302821FF302821FF302821FF302821FF302821FF302821FF302821FF302821FF302821FF302821FF302821FF302821FF302821FFFFFFFFFF302821FF302821FF302821FF302821FFFF
310
FFFFFF302821FF302821FF302821FF302821FF302821FF302821FF302821FF302821FF302821FF302821FF302821FF302821FF302821FF302821FF302821FF302821FF302821FF302821FF302821FF302821FF302821FF302821FF302821FF302821FF302821FF302821FFFFFFFFFF302821FF302821FF302821FF302821FF
310
FFFFFFFF302821FF302821FF302821FF302821FF302821FF302821FF302821FF302821FF302821FF302821FF302821FF302821FF302821FF302821FF302821FF302821FF302821FF302821FF302821FF302821FF302821FF302821FF302821FF302821FF302821FF302821FFFFFFFFFF302821FF302821FF302821FF302821
310
FFFFFFFFFF302821FF302821FF302821FF302821FF302821FF302821FF302821FF302821FF302821FF302821FF302821FF302821FF302821FF302821FF302821FF302821FF302821FF302821FF302821FF302821FF302821FF302821FF302821FF302821FF302821FF302821FFFFFFFFFF302821FF302821FF302821FF3028
310
21FFFFFFFFFF302821FF302821FF302821FF302821FF302821FF302821FF302821FF302821FF302821FF302821FF302821FF302821FF302821FF302821FF302821FF302821FF302821FF302821FF302821FF302821FF302821FF302821FF302821FF302821FF302821FF302821FFFFFFFFFF302821FF302821FF302821FF30
310
2821FFFFFFFFFF302821FF302821FF302821FF302821FF302821FF302821FF302821FF302821FF302821FF302821FF302821FF302821FF302821FF302821FF302821FF302821FF302821FF302821FF302821FF302821FF302821FF302821FF302821FF302821FF302821FF302821FFFFFFFFFF302821FF302821FF302821FF
310
302821FFFFFFFFFF302821FF302821FF302821FF302821FF302821FF302821FF302821FF302821FF302821FF302821FF302821FF302821FF302821FF302821FF302821FF302821FF302821FF302821FF302821FF302821FF302821FF302821FF302821FF302821FF302821FF302821FFFFFFFFFF302821FF302821FF302821
310
FF302821FFFFFFFFFF302821FF302821FF302821FF302821FF302821FF302821FF302821FF302821FF302821FF302821FF302821FF302821FF302821FF302821FF302821FF302821FF302821FF302821FF302821FF302821FF302821FF302821FF302821FF302821FF302821FF302821FFFFFFFFFF302821FF302821FF3028
310
21FF302821FFFFFFFFFF302821FF302821FF302821FF302821FF302821FF302821FF302821FF302821FF302821FF302821FF302821FF302821FF302821FF302821FF302821FF302821FF302821FF302821FF302821FF302821FF302821FF302821FF302821FF302821FF302821FF302821FFFFFFFFFF302821FF302821FF30
310
2821FF302821FFFFFFFFFF302821FF302821FF302821FF302821FF302821FF302821FF302821FF302821FF302821FF302821FF302821FF302821FF302821FF302821FF302821FF302821FF302821FF302821FF302821FF302821FF302821FF302821FF302821FF302821FF302821FF302821FFFFFFFFFF302821FF302821FF
310
302821FF302821FFFFFFFFFF302821FF302821FF302821FF302821FF302821FF302821FF302821FF302821FF302821FF302821FF302821FF302821FF302821FF302821FF302821FF302821FF302821FF302821FF302821FF302821FF302821FF302821FF302821FF302821FF302821FF302821FFFFFFFFFFFFFFFFFFFFFFFF
310
FFFFFFFFFFFFFFFFFFFFFFFFFF302821FF302821FF302821FF302821FF302821FF302821FF302821FF302821FF302821FF302821FF302821FF302821FF302821FF302821FF302821FF302821FF302821FF302821FF302821FF302821FF302821FF302821FF302821FF302821FF302821FF302821FFFFFFFFFF302821FF3028
310
21FF302821FF302821FFFFFFFFFF302821FF302821FF302821FF302821FF302821FF302821FF302821FF302821FF302821FF302821FF302821FF302821FF302821FF302821FF302821FF302821FF302821FF302821FF302821FF302821FF302821FF302821FF302821FF302821FFFFFFFFFFFFFFFFFFFFFFFFFF302821FF30
310
2821FF302821FF302821FFFFFFFFFFFFFFFFFFFFFFFFFF302821FF302821FF302821FF302821FF302821FF302821FF302821FF302821FF302821FF302821FF302821FF302821FF302821FF302821FF302821FF302821FF302821FF302821FF302821FF302821FF302821FF302821FFFFFFFFFFFFFFFFFFFFFFFFFF302821FF
310
302821FF302821FF302821FFFFFFFFFFFFFFFFFFFFFFFFFF302821FF302821FF302821FF302821FF302821FF302821FF302821FF302821FF302821FF302821FF302821FF302821FF302821FF302821FF302821FF302821FF302821FF302821FF302821FF302821FF302821FF302821FFFFFFFFFFFFFFFFFFFFFFFFFF302821
310
FF302821FF302821FF302821FFFFFFFFFFFFFFFFFFFFFFFFFF302821FF302821FF302821FF302821FF302821FF302821FF302821FF302821FF302821FF302821FF302821FF302821FF302821FF302821FF302821FF302821FF302821FF302821FF302821FF302821FF302821FF302821FF302821FFFFFFFFFFFFFFFFFFFFFF
310
FFFFFFFFFFFFFFFFFFFFFFFFFFFFFFFFFFFFFFFFFFFF302821FF302821FF302821FF302821FF302821FF302821FF302821FF302821FF302821FF302821FF302821FF302821FF302821FF302821FF302821FF302821FF302821FF302821FF302821FF302821FF302821FF302821FF302821FF302821FFFFFFFFFFFFFFFFFF30
310
2821FF302821FF302821FF302821FFFFFFFFFFFFFFFFFF302821FF302821FF302821FF302821FF302821FF302821FF302821FF302821FF302821FF302821FF302821FF302821FF302821FF302821FF302821FF302821FF302821FF302821FF302821FF302821FF302821FF302821FF302821FF302821FF302821FF302821FF
310
302821FF302821FF302821FF302821FF302821FF302821FF302821FF302821FF302821FF302821FF302821FF302821FF302821FF302821FF302821FF302821FF302821FF302821FF
102
{BLKREFS
331
159B5
102
}
 70
     4
280
     1
281
     0
1001
AcDbDynamicBlockGUID
1000
{5A1BD63C-E7DF-9B4D-96F9-DC91D14C4698}
  0
ENDTAB
  0
ENDSEC
  0
SECTION
  2
BLOCKS
  0
BLOCK
  5
20
330
1F
100
AcDbEntity
  8
0
100
AcDbBlockBegin
  2
*Model_Space
 70
     0
 10
0.0
 20
0.0
 30
0.0
  3
*Model_Space
  1

  0
ENDBLK
  5
21
330
1F
100
AcDbEntity
  8
0
100
AcDbBlockEnd
  0
BLOCK
  5
D4
330
D2
100
AcDbEntity
 67
     1
  8
0
100
AcDbBlockBegin
  2
*Paper_Space
 70
     0
 10
0.0
 20
0.0
 30
0.0
  3
*Paper_Space
  1

  0
ENDBLK
  5
D5
330
D2
100
AcDbEntity
 67
     1
  8
0
100
AcDbBlockEnd
  0
BLOCK
  5
D8
330
D6
100
AcDbEntity
 67
     1
  8
0
100
AcDbBlockBegin
  2
*Paper_Space0
 70
     0
 10
0.0
 20
0.0
 30
0.0
  3
*Paper_Space0
  1

  0
ENDBLK
  5
D9
330
D6
100
AcDbEntity
 67
     1
  8
0
100
AcDbBlockEnd
  0
BLOCK
  5
1575A
330
15759
100
AcDbEntity
  8
0
100
AcDbBlockBegin
  2
751G - Adjustable Incline Bench
 70
     2
 10
0.0
 20
0.0
 30
0.0
  3
751G - Adjustable Incline Bench
  1

  0
LINE
  5
2F8CA
330
15759
100
AcDbEntity
  8
0
100
AcDbLine
 10
51.41186693024337
 20
-317.8249129647775
 30
0.0
 11
51.19505503487289
 21
-317.8249129647775
 31
0.0
  0
LINE
  5
2F8CB
330
15759
100
AcDbEntity
  8
0
100
AcDbLine
 10
-38.80494854140579
 20
-317.8249129647775
 30
0.0
 11
-39.02176043677627
 21
-317.8249129647775
 31
0.0
  0
LINE
  5
2F8CC
330
15759
100
AcDbEntity
  8
0
100
AcDbLine
 10
-69.02176162886917
 20
-317.8249129647775
 30
0.0
 11
-70.6858637063533
 21
-317.8249129647775
 31
0.0
  0
LINE
  5
2F8CD
330
15759
100
AcDbEntity
  8
0
100
AcDbLine
 10
-73.1546210377246
 20
-317.8249129647775
 30
0.0
 11
-73.41986915755569
 21
-317.8249129647775
 31
0.0
  0
LINE
  5
2F8CE
330
15759
100
AcDbEntity
  8
0
100
AcDbLine
 10
-73.41986915755569
 20
-329.8249074811502
 30
0.0
 11
-71.68114206481277
 21
-329.8249074811502
 31
0.0
  0
LINE
  5
2F8CF
330
15759
100
AcDbEntity
  8
0
100
AcDbLine
 10
-69.17840263533889
 20
-329.8249074811502
 30
0.0
 11
-69.02176162886917
 21
-329.8249074811502
 31
0.0
  0
LINE
  5
2F8D0
330
15759
100
AcDbEntity
  8
0
100
AcDbLine
 10
-39.02176043677627
 20
-329.8249074811502
 30
0.0
 11
-38.80494854140579
 21
-329.8249074811502
 31
0.0
  0
LINE
  5
2F8D1
330
15759
100
AcDbEntity
  8
0
100
AcDbLine
 10
51.19505503487289
 20
-329.8249074811502
 30
0.0
 11
51.41186693024337
 21
-329.8249074811502
 31
0.0
  0
ARC
  5
2F8D2
330
15759
100
AcDbEntity
  8
0
100
AcDbCircle
 10
117.8450532467323
 20
606.0112154801791
 30
0.0
 40
0.4999999999999432
100
AcDbArc
 50
270.0
 51
0.0
  0
ARC
  5
2F8D3
330
15759
100
AcDbEntity
  8
0
100
AcDbCircle
 10
117.8450532467323
 20
590.1612154801805
 30
0.0
 40
0.5
100
AcDbArc
 50
0.0
 51
90.0
  0
LINE
  5
2F8D4
330
15759
100
AcDbEntity
  8
0
100
AcDbLine
 10
117.4700556070784
 20
590.6611701851325
 30
0.0
 11
117.8450507791021
 21
590.6611701851325
 31
0.0
  0
LINE
  5
2F8D5
330
15759
100
AcDbEntity
  8
0
100
AcDbLine
 10
117.8450507791021
 20
605.5111905937629
 30
0.0
 11
117.4700556070784
 21
605.5111905937629
 31
0.0
  0
ARC
  5
2F8D6
330
15759
100
AcDbEntity
  8
0
100
AcDbCircle
 10
117.4700532467322
 20
598.0862154801798
 30
0.0
 40
7.425000000000181
100
AcDbArc
 50
90.0
 51
270.0
  0
LINE
  5
2F8D7
330
15759
100
AcDbEntity
  8
0
100
AcDbLine
 10
118.4239981443861
 20
606.7229530220465
 30
0.0
 11
118.3450517923811
 21
606.5862199669318
 31
0.0
  0
LINE
  5
2F8D8
330
15759
100
AcDbEntity
  8
0
100
AcDbLine
 10
126.0950563223341
 20
606.5862199669318
 30
0.0
 11
126.0161099703291
 21
606.7229530220465
 31
0.0
  0
LINE
  5
2F8D9
330
15759
100
AcDbEntity
  8
0
100
AcDbLine
 10
118.3450517923811
 20
589.5862600212531
 30
0.0
 11
118.4239981443861
 21
589.4495269661383
 31
0.0
  0
LINE
  5
2F8DA
330
15759
100
AcDbEntity
  8
0
100
AcDbLine
 10
126.0161099703291
 20
589.4495269661383
 30
0.0
 11
126.0950563223341
 21
589.5862600212531
 31
0.0
  0
ARC
  5
2F8DB
330
15759
100
AcDbEntity
  8
0
100
AcDbCircle
 10
-105.454946753267
 20
590.1612194836452
 30
0.0
 40
0.5000000000002274
100
AcDbArc
 50
90.0
 51
180.0
  0
ARC
  5
2F8DC
330
15759
100
AcDbEntity
  8
0
100
AcDbCircle
 10
-105.454946753267
 20
606.0112194836437
 30
0.0
 40
0.5
100
AcDbArc
 50
180.0
 51
270.0
  0
ARC
  5
2F8DD
330
15759
100
AcDbEntity
  8
0
100
AcDbCircle
 10
-105.079946753267
 20
598.0862194836445
 30
0.0
 40
7.425000000000181
100
AcDbArc
 50
270.0
 51
90.0
  0
LINE
  5
2F8DE
330
15759
100
AcDbEntity
  8
0
100
AcDbLine
 10
-105.0799491136094
 20
605.5111905937629
 30
0.0
 11
-105.4549442856332
 21
605.5111905937629
 31
0.0
  0
LINE
  5
2F8DF
330
15759
100
AcDbEntity
  8
0
100
AcDbLine
 10
-105.4549442856332
 20
590.6611701851325
 30
0.0
 11
-105.0799491136094
 21
590.6611701851325
 31
0.0
  0
LINE
  5
2F8E0
330
15759
100
AcDbEntity
  8
0
100
AcDbLine
 10
-105.9549452989122
 20
606.5862199669318
 30
0.0
 11
-106.0338916509172
 21
606.7229530220465
 31
0.0
  0
LINE
  5
2F8E1
330
15759
100
AcDbEntity
  8
0
100
AcDbLine
 10
-113.6260034768602
 20
606.7229530220465
 30
0.0
 11
-113.7049498288652
 21
606.5862199669318
 31
0.0
  0
LINE
  5
2F8E2
330
15759
100
AcDbEntity
  8
0
100
AcDbLine
 10
-106.0338916509172
 20
589.4495269661383
 30
0.0
 11
-105.9549452989122
 21
589.5862600212531
 31
0.0
  0
LINE
  5
2F8E3
330
15759
100
AcDbEntity
  8
0
100
AcDbLine
 10
-113.7049498288652
 20
589.5862600212531
 30
0.0
 11
-113.6260034768602
 21
589.4495269661383
 31
0.0
  0
LINE
  5
2F8E4
330
15759
100
AcDbEntity
  8
0
100
AcDbLine
 10
-181.0549499719163
 20
606.0862562065558
 30
0.0
 11
-193.1549461810609
 21
606.0862562065558
 31
0.0
  0
LINE
  5
2F8E5
330
15759
100
AcDbEntity
  8
0
100
AcDbLine
 10
-193.1549461810609
 20
590.0862237816291
 30
0.0
 11
-181.0549499719163
 21
590.0862237816291
 31
0.0
  0
LINE
  5
2F8E6
330
15759
100
AcDbEntity
  8
0
100
AcDbLine
 10
-193.1549461810609
 20
606.0862562065558
 30
0.0
 11
-193.9049514262697
 21
605.3361913567023
 31
0.0
  0
LINE
  5
2F8E7
330
15759
100
AcDbEntity
  8
0
100
AcDbLine
 10
-193.9049514262697
 20
590.836169422193
 30
0.0
 11
-193.1549461810609
 21
590.0862237816291
 31
0.0
  0
LINE
  5
2F8E8
330
15759
100
AcDbEntity
  8
0
100
AcDbLine
 10
-143.80495271373
 20
593.086244762464
 30
0.0
 11
-140.9549417226335
 21
593.086244762464
 31
0.0
  0
LINE
  5
2F8E9
330
15759
100
AcDbEntity
  8
0
100
AcDbLine
 10
-140.9549417226335
 20
603.0862352257209
 30
0.0
 11
-143.80495271373
 21
603.0862352257209
 31
0.0
  0
LINE
  5
2F8EA
330
15759
100
AcDbEntity
  8
0
100
AcDbLine
 10
205.5450526745299
 20
590.0862237816291
 30
0.0
 11
206.2950579197386
 21
590.836169422193
 31
0.0
  0
LINE
  5
2F8EB
330
15759
100
AcDbEntity
  8
0
100
AcDbLine
 10
206.2950579197386
 20
605.3361913567023
 30
0.0
 11
205.5450526745299
 21
606.0862562065558
 31
0.0
  0
LINE
  5
2F8EC
330
15759
100
AcDbEntity
  8
0
100
AcDbLine
 10
-156.6549541680833
 20
590.0862237816291
 30
0.0
 11
-153.8049431769868
 21
590.0862237816291
 31
0.0
  0
LINE
  5
2F8ED
330
15759
100
AcDbEntity
  8
0
100
AcDbLine
 10
-153.8049431769868
 20
606.0862562065558
 30
0.0
 11
-156.6549541680833
 21
606.0862562065558
 31
0.0
  0
LINE
  5
2F8EE
330
15759
100
AcDbEntity
  8
0
100
AcDbLine
 10
-116.5549459188005
 20
590.0862237816291
 30
0.0
 11
-113.7049498288652
 21
590.0862237816291
 31
0.0
  0
LINE
  5
2F8EF
330
15759
100
AcDbEntity
  8
0
100
AcDbLine
 10
-113.7049498288652
 20
606.0862562065558
 30
0.0
 11
-116.5549459188005
 21
606.0862562065558
 31
0.0
  0
LINE
  5
2F8F0
330
15759
100
AcDbEntity
  8
0
100
AcDbLine
 10
193.4450564653852
 20
590.0862237816291
 30
0.0
 11
205.5450526745299
 21
590.0862237816291
 31
0.0
  0
LINE
  5
2F8F1
330
15759
100
AcDbEntity
  8
0
100
AcDbLine
 10
205.5450526745299
 20
606.0862562065558
 30
0.0
 11
193.4450564653852
 21
606.0862562065558
 31
0.0
  0
LINE
  5
2F8F2
330
15759
100
AcDbEntity
  8
0
100
AcDbLine
 10
126.0950563223341
 20
590.0862237816291
 30
0.0
 11
128.9450524122694
 21
590.0862237816291
 31
0.0
  0
LINE
  5
2F8F3
330
15759
100
AcDbEntity
  8
0
100
AcDbLine
 10
128.9450524122694
 20
606.0862562065558
 30
0.0
 11
126.0950563223341
 21
606.0862562065558
 31
0.0
  0
LINE
  5
2F8F4
330
15759
100
AcDbEntity
  8
0
100
AcDbLine
 10
153.3450482161024
 20
590.0862237816291
 30
0.0
 11
156.1950592071989
 21
590.0862237816291
 31
0.0
  0
LINE
  5
2F8F5
330
15759
100
AcDbEntity
  8
0
100
AcDbLine
 10
156.1950592071989
 20
606.0862562065558
 30
0.0
 11
153.3450482161024
 21
606.0862562065558
 31
0.0
  0
LINE
  5
2F8F6
330
15759
100
AcDbEntity
  8
0
100
AcDbLine
 10
166.1950496704557
 20
590.0862237816291
 30
0.0
 11
169.0450606615522
 21
590.0862237816291
 31
0.0
  0
LINE
  5
2F8F7
330
15759
100
AcDbEntity
  8
0
100
AcDbLine
 10
169.0450606615522
 20
606.0862562065558
 30
0.0
 11
166.1950496704557
 21
606.0862562065558
 31
0.0
  0
LINE
  5
2F8F8
330
15759
100
AcDbEntity
  8
0
100
AcDbLine
 10
-249.1534503428957
 20
443.7509796028571
 30
0.0
 11
-244.8049338786623
 21
443.675102890058
 31
0.0
  0
SPLINE
  5
2F8F9
330
15759
100
AcDbEntity
  8
0
100
AcDbSpline
210
0.0
220
0.0
230
1.0
 70
     8
 71
     3
 72
    11
 73
     7
 74
     0
 42
0.000000001
 43
0.0000000001
 40
0.0
 40
0.0
 40
0.0
 40
0.0
 40
0.2308177992436626
 40
0.4782066468924519
 40
0.8133640579569844
 40
1.0
 40
1.0
 40
1.0
 40
1.0
 10
-251.1554213492891
 20
444.9256083374457
 30
0.0
 10
-251.0537796152421
 20
444.7689109681705
 30
0.0
 10
-250.8431990058452
 20
444.4442664919551
 30
0.0
 10
-250.3080516882292
 20
444.0538966259737
 30
0.0
 10
-249.7291717682783
 20
443.7882318337433
 30
0.0
 10
-249.3066828641058
 20
443.7834909364755
 30
0.0
 10
-249.1555663077852
 20
443.781795204206
 30
0.0
  0
LINE
  5
2F8FA
330
15759
100
AcDbEntity
  8
0
100
AcDbLine
 10
-244.8049338786623
 20
553.675057590528
 30
0.0
 11
-249.1585167377016
 21
553.5991212730841
 31
0.0
  0
SPLINE
  5
2F8FB
330
15759
100
AcDbEntity
  8
0
100
AcDbSpline
210
0.0
220
0.0
230
1.0
 70
     8
 71
     3
 72
    12
 73
     8
 74
     0
 42
0.000000001
 43
0.0000000001
 40
0.0
 40
0.0
 40
0.0
 40
0.0
 40
0.2136826355189727
 40
0.4945406021080824
 40
0.7350825579171284
 40
0.9366301813840667
 40
1.0
 40
1.0
 40
1.0
 40
1.0
 10
-249.1629870860597
 20
553.5734912758307
 30
0.0
 10
-249.3202708702447
 20
553.5685473443009
 30
0.0
 10
-249.6842836836549
 20
553.5571052593113
 30
0.0
 10
-250.1945750355444
 20
553.3516247163316
 30
0.0
 10
-250.6368499794589
 20
553.0599226173944
 30
0.0
 10
-250.9102677143528
 20
552.8040019640393
 30
0.0
 10
-251.0226750103066
 20
552.6459430708964
 30
0.0
 10
-251.049563500168
 20
552.6081344490485
 30
0.0
  0
LINE
  5
2F8FC
330
15759
100
AcDbEntity
  8
0
100
AcDbLine
 10
-243.8049467532656
 20
552.675130069776
 30
0.0
 11
-244.8049338786623
 21
552.675130069776
 31
0.0
  0
LINE
  5
2F8FD
330
15759
100
AcDbEntity
  8
0
100
AcDbLine
 10
-244.8049338786623
 20
444.6750900154547
 30
0.0
 11
-243.8049467532656
 21
444.6750900154547
 31
0.0
  0
LINE
  5
2F8FE
330
15759
100
AcDbEntity
  8
0
100
AcDbLine
 10
257.1950403721312
 20
443.675102890058
 30
0.0
 11
261.5435568363646
 21
443.7509796028571
 31
0.0
  0
SPLINE
  5
2F8FF
330
15759
100
AcDbEntity
  8
0
100
AcDbSpline
210
0.0
220
0.0
230
1.0
 70
     8
 71
     3
 72
    12
 73
     8
 74
     0
 42
0.000000001
 43
0.0000000001
 40
0.0
 40
0.0
 40
0.0
 40
0.0
 40
0.2174309949070317
 40
0.499768635404273
 40
0.7415859370968481
 40
0.9442212791495768
 40
1.0
 40
1.0
 40
1.0
 40
1.0
 10
261.5474013359526
 20
443.7761923675971
 30
0.0
 10
261.7066009889786
 20
443.7811799383707
 30
0.0
 10
262.0725239494277
 20
443.7926439499315
 30
0.0
 10
262.5847644195273
 20
443.9984166465401
 30
0.0
 10
263.0267848759067
 20
444.2903978767098
 30
0.0
 10
263.2965168251612
 20
444.541891759105
 30
0.0
 10
263.4058240179729
 20
444.69507378263
 30
0.0
 10
263.4294179947356
 20
444.7281381493048
 30
0.0
  0
LINE
  5
2F900
330
15759
100
AcDbEntity
  8
0
100
AcDbLine
 10
261.5486232311705
 20
553.5991212730841
 30
0.0
 11
257.1950403721312
 21
553.675057590528
 31
0.0
  0
SPLINE
  5
2F901
330
15759
100
AcDbEntity
  8
0
100
AcDbSpline
210
0.0
220
0.0
230
1.0
 70
     8
 71
     3
 72
    11
 73
     7
 74
     0
 42
0.000000001
 43
0.0000000001
 40
0.0
 40
0.0
 40
0.0
 40
0.0
 40
0.2357359685391348
 40
0.4822758430371623
 40
0.8162739278314649
 40
1.0
 40
1.0
 40
1.0
 40
1.0
 10
263.5536638767699
 20
552.4134656792121
 30
0.0
 10
263.4496128644169
 20
552.5741580524845
 30
0.0
 10
263.2367421259696
 20
552.9029074167374
 30
0.0
 10
262.6982880751675
 20
553.2963831133675
 30
0.0
 10
262.1210116018446
 20
553.5614111502545
 30
0.0
 10
261.7004147056978
 20
553.5662798727316
 30
0.0
 10
261.5511564285735
 20
553.5680076485114
 30
0.0
  0
LINE
  5
2F902
330
15759
100
AcDbEntity
  8
0
100
AcDbLine
 10
257.1950403721312
 20
552.675130069776
 30
0.0
 11
256.1950532467345
 21
552.675130069776
 31
0.0
  0
LINE
  5
2F903
330
15759
100
AcDbEntity
  8
0
100
AcDbLine
 10
256.1950532467345
 20
444.6750900154547
 30
0.0
 11
257.1950403721312
 21
444.6750900154547
 31
0.0
  0
LINE
  5
2F904
330
15759
100
AcDbEntity
  8
0
100
AcDbLine
 10
-249.1534503428966
 20
-556.2490129465622
 30
0.0
 11
-244.8049338786632
 21
-556.3249120111031
 31
0.0
  0
SPLINE
  5
2F905
330
15759
100
AcDbEntity
  8
0
100
AcDbSpline
210
0.0
220
0.0
230
1.0
 70
     8
 71
     3
 72
    11
 73
     7
 74
     0
 42
0.000000001
 43
0.0000000001
 40
0.0
 40
0.0
 40
0.0
 40
0.0
 40
0.2308203026193039
 40
0.4782122133509238
 40
0.8133660489774038
 40
1.0
 40
1.0
 40
1.0
 40
1.0
 10
-251.15542134929
 20
-555.0743693108124
 30
0.0
 10
-251.0537793107951
 20
-555.2310708691329
 30
0.0
 10
-250.8431979033276
 20
-555.5557242821487
 30
0.0
 10
-250.3080605341902
 20
-555.9461225425256
 30
0.0
 10
-249.7291711195767
 20
-556.2117821790998
 30
0.0
 10
-249.3066826932054
 20
-556.216523730658
 30
0.0
 10
-249.1555663077861
 20
-556.2182196969551
 30
0.0
  0
LINE
  5
2F906
330
15759
100
AcDbEntity
  8
0
100
AcDbLine
 10
-244.8049338786632
 20
-446.3249144697947
 30
0.0
 11
-249.1585167377025
 21
-446.4009048039478
 31
0.0
  0
SPLINE
  5
2F907
330
15759
100
AcDbEntity
  8
0
100
AcDbSpline
210
0.0
220
0.0
230
1.0
 70
     8
 71
     3
 72
    12
 73
     8
 74
     0
 42
0.000000001
 43
0.0000000001
 40
0.0
 40
0.0
 40
0.0
 40
0.0
 40
0.213683642277464
 40
0.4945382652079925
 40
0.7350719382673391
 40
0.9366370950173603
 40
1.0
 40
1.0
 40
1.0
 40
1.0
 10
-249.1629870860606
 20
-446.426493823008
 30
0.0
 10
-249.3202709090192
 20
-446.4314525662776
 30
0.0
 10
-249.6842803770424
 20
-446.4429288228057
 30
0.0
 10
-250.194561450372
 20
-446.648382592819
 30
0.0
 10
-250.6368863557554
 20
-446.9400374135729
 30
0.0
 10
-250.9102453958303
 20
-447.196019035091
 30
0.0
 10
-251.0226739396794
 20
-447.3540715463459
 30
0.0
 10
-251.0495635001689
 20
-447.391873001532
 30
0.0
  0
LINE
  5
2F908
330
15759
100
AcDbEntity
  8
0
100
AcDbLine
 10
-244.8049338786632
 20
-555.3249174351257
 30
0.0
 11
-243.8049467532664
 21
-555.3249174351257
 31
0.0
  0
LINE
  5
2F909
330
15759
100
AcDbEntity
  8
0
100
AcDbLine
 10
-243.8049467532664
 20
-447.3249146337074
 30
0.0
 11
-244.8049338786632
 21
-447.3249146337074
 31
0.0
  0
SPLINE
  5
2F90A
330
15759
100
AcDbEntity
  8
0
100
AcDbSpline
210
0.0
220
0.0
230
1.0
 70
     8
 71
     3
 72
    12
 73
     8
 74
     0
 42
0.000000001
 43
0.0000000001
 40
0.0
 40
0.0
 40
0.0
 40
0.0
 40
0.2174293209669089
 40
0.4997736741466582
 40
0.7415831683077963
 40
0.9442158643000468
 40
1.0
 40
1.0
 40
1.0
 40
1.0
 10
261.5474013359517
 20
-556.2238001818222
 30
0.0
 10
261.706602573372
 20
-556.2188312857179
 30
0.0
 10
262.0725356821231
 20
-556.2074099951023
 30
0.0
 10
262.5847457773261
 20
-556.0015496606393
 30
0.0
 10
263.0267876333592
 20
-555.7096199185471
 30
0.0
 10
263.2965283428521
 20
-555.4581317654956
 30
0.0
 10
263.4058243870013
 20
-555.3049388703039
 30
0.0
 10
263.4294179947346
 20
-555.2718693012757
 30
0.0
  0
LINE
  5
2F90B
330
15759
100
AcDbEntity
  8
0
100
AcDbLine
 10
257.1950403721303
 20
-556.3249120111031
 30
0.0
 11
261.5435568363637
 21
-556.2490129465622
 31
0.0
  0
SPLINE
  5
2F90C
330
15759
100
AcDbEntity
  8
0
100
AcDbSpline
210
0.0
220
0.0
230
1.0
 70
     8
 71
     3
 72
    11
 73
     7
 74
     0
 42
0.000000001
 43
0.0000000001
 40
0.0
 40
0.0
 40
0.0
 40
0.0
 40
0.2357166785516477
 40
0.4822629379588298
 40
0.8162726285638379
 40
1.0
 40
1.0
 40
1.0
 40
1.0
 10
263.5536638767689
 20
-447.5865287328524
 30
0.0
 10
263.4496085810233
 20
-447.4258601523324
 30
0.0
 10
263.2367173552366
 20
-447.0971413609586
 30
0.0
 10
262.6982864940719
 20
-446.7036552393255
 30
0.0
 10
262.1210217513935
 20
-446.4385593754014
 30
0.0
 10
261.7004153971493
 20
-446.4336780150443
 30
0.0
 10
261.5511564285725
 20
-446.4319457853598
 30
0.0
  0
LINE
  5
2F90D
330
15759
100
AcDbEntity
  8
0
100
AcDbLine
 10
261.5486232311696
 20
-446.4009048039478
 30
0.0
 11
257.1950403721303
 21
-446.3249144697947
 31
0.0
  0
LINE
  5
2F90E
330
15759
100
AcDbEntity
  8
0
100
AcDbLine
 10
256.1950532467335
 20
-555.3249174351257
 30
0.0
 11
257.1950403721303
 21
-555.3249174351257
 31
0.0
  0
LINE
  5
2F90F
330
15759
100
AcDbEntity
  8
0
100
AcDbLine
 10
257.1950403721303
 20
-447.3249146337074
 30
0.0
 11
256.1950532467335
 21
-447.3249146337074
 31
0.0
  0
LINE
  5
2F910
330
15759
100
AcDbEntity
  8
0
100
AcDbLine
 10
-73.41986915755569
 20
-312.3249092692895
 30
0.0
 11
-84.81986841845809
 21
-312.3249092692895
 31
0.0
  0
LINE
  5
2F911
330
15759
100
AcDbEntity
  8
0
100
AcDbLine
 10
-84.81986841845809
 20
-335.3249111766381
 30
0.0
 11
-73.41986915755569
 21
-335.3249111766381
 31
0.0
  0
LINE
  5
2F912
330
15759
100
AcDbEntity
  8
0
100
AcDbLine
 10
-84.81986841845809
 20
-312.3249092692895
 30
0.0
 11
-85.41987112450897
 21
-312.8249177331491
 31
0.0
  0
LINE
  5
2F913
330
15759
100
AcDbEntity
  8
0
100
AcDbLine
 10
-85.41987112450897
 20
-334.8249176139398
 30
0.0
 11
-84.81986841845809
 21
-335.3249111766381
 31
0.0
  0
ARC
  5
2F914
330
15759
100
AcDbEntity
  8
0
100
AcDbCircle
 10
-85.41987138413333
 20
-323.8249137992425
 30
0.0
 40
11.0
100
AcDbArc
 50
90.0
 51
270.0
  0
LINE
  5
2F915
330
15759
100
AcDbEntity
  8
0
100
AcDbLine
 10
-38.30494752812683
 20
-313.8499090070291
 30
0.0
 11
-38.80494854140579
 21
-314.3499174708886
 31
0.0
  0
LINE
  5
2F916
330
15759
100
AcDbEntity
  8
0
100
AcDbLine
 10
-38.80494854140579
 20
-333.2999178762002
 30
0.0
 11
-38.30494752812683
 21
-333.7999114388986
 31
0.0
  0
LINE
  5
2F917
330
15759
100
AcDbEntity
  8
0
100
AcDbLine
 10
50.69505402159393
 20
-333.7999114388986
 30
0.0
 11
51.19505503487289
 21
-333.2999178762002
 31
0.0
  0
LINE
  5
2F918
330
15759
100
AcDbEntity
  8
0
100
AcDbLine
 10
51.19505503487289
 20
-314.3499174708886
 30
0.0
 11
50.69505402159393
 21
-313.8499090070291
 31
0.0
  0
LINE
  5
2F919
330
15759
100
AcDbEntity
  8
0
100
AcDbLine
 10
-37.80494651484787
 20
-307.8249076003594
 30
0.0
 11
-38.30494752812683
 21
-307.8249076003594
 31
0.0
  0
LINE
  5
2F91A
330
15759
100
AcDbEntity
  8
0
100
AcDbLine
 10
-38.30494752812683
 20
-339.8249128455682
 30
0.0
 11
-37.80494651484787
 21
-339.8249128455682
 31
0.0
  0
LINE
  5
2F91B
330
15759
100
AcDbEntity
  8
0
100
AcDbLine
 10
50.19505300831497
 20
-339.8249128455682
 30
0.0
 11
50.69505402159393
 21
-339.8249128455682
 31
0.0
  0
LINE
  5
2F91C
330
15759
100
AcDbEntity
  8
0
100
AcDbLine
 10
50.69505402159393
 20
-307.8249076003594
 30
0.0
 11
50.19505300831497
 21
-307.8249076003594
 31
0.0
  0
LINE
  5
2F91D
330
15759
100
AcDbEntity
  8
0
100
AcDbLine
 10
57.91186892699897
 20
-313.8499090070291
 30
0.0
 11
57.41186791372001
 21
-314.3499174708886
 31
0.0
  0
LINE
  5
2F91E
330
15759
100
AcDbEntity
  8
0
100
AcDbLine
 10
57.41186791372001
 20
-333.2999178762002
 30
0.0
 11
57.91186892699897
 21
-333.7999114388986
 31
0.0
  0
LINE
  5
2F91F
330
15759
100
AcDbEntity
  8
0
100
AcDbLine
 10
78.4118694932431
 20
-333.7999114388986
 30
0.0
 11
78.91187050652206
 21
-333.2999178762002
 31
0.0
  0
LINE
  5
2F920
330
15759
100
AcDbEntity
  8
0
100
AcDbLine
 10
78.91187050652206
 20
-314.3499174708886
 30
0.0
 11
78.4118694932431
 21
-313.8499090070291
 31
0.0
  0
LINE
  5
2F921
330
15759
100
AcDbEntity
  8
0
100
AcDbLine
 10
78.4118694932431
 20
-313.8499090070291
 30
0.0
 11
78.19505014729202
 21
-313.8499090070291
 31
0.0
  0
LINE
  5
2F922
330
15759
100
AcDbEntity
  8
0
100
AcDbLine
 10
58.19505431961715
 20
-313.8499090070291
 30
0.0
 11
57.91186892699897
 21
-313.8499090070291
 31
0.0
  0
LINE
  5
2F923
330
15759
100
AcDbEntity
  8
0
100
AcDbLine
 10
57.91186892699897
 20
-333.7999114388986
 30
0.0
 11
58.19505431961715
 21
-333.7999114388986
 31
0.0
  0
LINE
  5
2F924
330
15759
100
AcDbEntity
  8
0
100
AcDbLine
 10
78.19505014729202
 20
-333.7999114388986
 30
0.0
 11
78.4118694932431
 21
-333.7999114388986
 31
0.0
  0
LINE
  5
2F925
330
15759
100
AcDbEntity
  8
0
100
AcDbLine
 10
-66.021762999776
 20
-313.8499090070291
 30
0.0
 11
-66.52176401305496
 21
-314.3499174708886
 31
0.0
  0
LINE
  5
2F926
330
15759
100
AcDbEntity
  8
0
100
AcDbLine
 10
-66.52176401305496
 20
-333.2999178762002
 30
0.0
 11
-66.021762999776
 21
-333.7999114388986
 31
0.0
  0
LINE
  5
2F927
330
15759
100
AcDbEntity
  8
0
100
AcDbLine
 10
-45.52176243353187
 20
-313.8499090070291
 30
0.0
 11
-45.80494782615005
 21
-313.8499090070291
 31
0.0
  0
LINE
  5
2F928
330
15759
100
AcDbEntity
  8
0
100
AcDbLine
 10
-65.80494365382492
 20
-313.8499090070291
 30
0.0
 11
-66.021762999776
 21
-313.8499090070291
 31
0.0
  0
LINE
  5
2F929
330
15759
100
AcDbEntity
  8
0
100
AcDbLine
 10
-66.021762999776
 20
-333.7999114388986
 30
0.0
 11
-65.80494365382492
 21
-333.7999114388986
 31
0.0
  0
LINE
  5
2F92A
330
15759
100
AcDbEntity
  8
0
100
AcDbLine
 10
-45.80494782615005
 20
-333.7999114388986
 30
0.0
 11
-45.52176243353187
 21
-333.7999114388986
 31
0.0
  0
LINE
  5
2F92B
330
15759
100
AcDbEntity
  8
0
100
AcDbLine
 10
-45.52176243353187
 20
-333.7999114388986
 30
0.0
 11
-45.02176142025291
 21
-333.2999178762002
 31
0.0
  0
LINE
  5
2F92C
330
15759
100
AcDbEntity
  8
0
100
AcDbLine
 10
-45.02176142025291
 20
-314.3499174708886
 30
0.0
 11
-45.52176243353187
 21
-313.8499090070291
 31
0.0
  0
ARC
  5
2F92D
330
15759
100
AcDbEntity
  8
0
100
AcDbCircle
 10
-168.8549467532684
 20
582.3671249382169
 30
0.0
 40
16.28090909090893
100
AcDbArc
 50
221.4664231348643
 51
318.5335768651357
  0
ARC
  5
2F92E
330
15759
100
AcDbEntity
  8
0
100
AcDbCircle
 10
-168.8549467532684
 20
613.8053067563996
 30
0.0
 40
16.28090909090923
100
AcDbArc
 50
41.46642313486428
 51
138.5335768651357
  0
ARC
  5
2F92F
330
15759
100
AcDbEntity
  8
0
100
AcDbCircle
 10
181.2450532467337
 20
613.8053063892694
 30
0.0
 40
16.28090909090926
100
AcDbArc
 50
41.46642313486428
 51
138.5335768651357
  0
ARC
  5
2F930
330
15759
100
AcDbEntity
  8
0
100
AcDbCircle
 10
181.2450532467337
 20
582.3671245710865
 30
0.0
 40
16.28090909090895
100
AcDbArc
 50
221.4664231348643
 51
318.5335768651357
  0
ARC
  5
2F931
330
15759
100
AcDbEntity
  8
0
100
AcDbCircle
 10
-128.7549467532662
 20
582.3671242699965
 30
0.0
 40
16.28090909090891
100
AcDbArc
 50
221.4664231348643
 51
318.5335768651357
  0
ARC
  5
2F932
330
15759
100
AcDbEntity
  8
0
100
AcDbCircle
 10
-128.7549467532662
 20
613.8053060881757
 30
0.0
 40
16.28090909090921
100
AcDbArc
 50
41.46642313486428
 51
138.5335768651357
  0
ARC
  5
2F933
330
15759
100
AcDbEntity
  8
0
100
AcDbCircle
 10
141.1450532467315
 20
613.8053063892694
 30
0.0
 40
16.28090909090926
100
AcDbArc
 50
41.46642313486428
 51
138.5335768651357
  0
ARC
  5
2F934
330
15759
100
AcDbEntity
  8
0
100
AcDbCircle
 10
141.1450532467315
 20
582.3671245710865
 30
0.0
 40
16.28090909090895
100
AcDbArc
 50
221.4664231348643
 51
318.5335768651357
  0
LINE
  5
2F935
330
15759
100
AcDbEntity
  8
0
100
AcDbLine
 10
155.1950571806401
 20
-242.4574771518273
 30
0.0
 11
155.1950571806401
 21
-202.4574854964776
 31
0.0
  0
LINE
  5
2F936
330
15759
100
AcDbEntity
  8
0
100
AcDbLine
 10
-46.30494511413871
 20
-303.824914395289
 30
0.0
 11
-64.80494907784759
 21
-303.824914395289
 31
0.0
  0
LINE
  5
2F937
330
15759
100
AcDbEntity
  8
0
100
AcDbLine
 10
-64.80494907784759
 20
-343.8249209517999
 30
0.0
 11
-46.30494511413871
 21
-343.8249209517999
 31
0.0
  0
LINE
  5
2F938
330
15759
100
AcDbEntity
  8
0
100
AcDbLine
 10
-64.80494907784759
 20
-303.824914395289
 30
0.0
 11
-65.80494365382492
 21
-304.8249164218469
 31
0.0
  0
LINE
  5
2F939
330
15759
100
AcDbEntity
  8
0
100
AcDbLine
 10
-65.80494365382492
 20
-342.824918925242
 30
0.0
 11
-64.80494907784759
 21
-343.8249209517999
 31
0.0
  0
LINE
  5
2F93A
330
15759
100
AcDbEntity
  8
0
100
AcDbLine
 10
-46.30494511413871
 20
-343.8249209517999
 30
0.0
 11
-45.80494782615005
 21
-343.3249124879403
 31
0.0
  0
LINE
  5
2F93B
330
15759
100
AcDbEntity
  8
0
100
AcDbLine
 10
-45.80494782615005
 20
-304.3249079579873
 30
0.0
 11
-46.30494511413871
 21
-303.824914395289
 31
0.0
  0
LINE
  5
2F93C
330
15759
100
AcDbEntity
  8
0
100
AcDbLine
 10
77.19505557131469
 20
-343.8249209517999
 30
0.0
 11
78.19505014729202
 21
-342.824918925242
 31
0.0
  0
LINE
  5
2F93D
330
15759
100
AcDbEntity
  8
0
100
AcDbLine
 10
78.19505014729202
 20
-304.8249164218469
 30
0.0
 11
77.19505557131469
 21
-303.824914395289
 31
0.0
  0
LINE
  5
2F93E
330
15759
100
AcDbEntity
  8
0
100
AcDbLine
 10
58.69505160760581
 20
-303.824914395289
 30
0.0
 11
58.19505431961715
 21
-304.3249079579873
 31
0.0
  0
LINE
  5
2F93F
330
15759
100
AcDbEntity
  8
0
100
AcDbLine
 10
58.19505431961715
 20
-343.3249124879403
 30
0.0
 11
58.69505160760581
 21
-343.8249209517999
 31
0.0
  0
LINE
  5
2F940
330
15759
100
AcDbEntity
  8
0
100
AcDbLine
 10
58.69505160760581
 20
-343.8249209517999
 30
0.0
 11
77.19505557131469
 21
-343.8249209517999
 31
0.0
  0
LINE
  5
2F941
330
15759
100
AcDbEntity
  8
0
100
AcDbLine
 10
77.19505557131469
 20
-303.824914395289
 30
0.0
 11
58.69505160760581
 21
-303.824914395289
 31
0.0
  0
LINE
  5
2F942
330
15759
100
AcDbEntity
  8
0
100
AcDbLine
 10
-45.02176142025291
 20
-343.8249209517999
 30
0.0
 11
-39.02176043677627
 21
-343.8249209517999
 31
0.0
  0
LINE
  5
2F943
330
15759
100
AcDbEntity
  8
0
100
AcDbLine
 10
51.41186693024337
 20
-343.8249209517999
 30
0.0
 11
57.41186791372001
 21
-343.8249209517999
 31
0.0
  0
LINE
  5
2F944
330
15759
100
AcDbEntity
  8
0
100
AcDbLine
 10
-153.8049431769868
 20
537.321092784925
 30
0.0
 11
-143.80495271373
 21
537.321092784925
 31
0.0
  0
LINE
  5
2F945
330
15759
100
AcDbEntity
  8
0
100
AcDbLine
 10
-143.80495271373
 20
620.0861951713996
 30
0.0
 11
-153.8049431769868
 21
620.0861951713996
 31
0.0
  0
LINE
  5
2F946
330
15759
100
AcDbEntity
  8
0
100
AcDbLine
 10
156.1950592071989
 20
537.321092784925
 30
0.0
 11
166.1950496704557
 21
537.321092784925
 31
0.0
  0
LINE
  5
2F947
330
15759
100
AcDbEntity
  8
0
100
AcDbLine
 10
166.1950496704557
 20
620.0861951713996
 30
0.0
 11
156.1950592071989
 21
620.0861951713996
 31
0.0
  0
LINE
  5
2F948
330
15759
100
AcDbEntity
  8
0
100
AcDbLine
 10
-36.80494821358025
 20
-303.824914395289
 30
0.0
 11
-37.80494651484787
 21
-304.8249164218469
 31
0.0
  0
LINE
  5
2F949
330
15759
100
AcDbEntity
  8
0
100
AcDbLine
 10
-37.80494651484787
 20
-342.824918925242
 30
0.0
 11
-36.80494821358025
 21
-343.8249209517999
 31
0.0
  0
LINE
  5
2F94A
330
15759
100
AcDbEntity
  8
0
100
AcDbLine
 10
49.19505470704734
 20
-343.8249209517999
 30
0.0
 11
50.19505300831497
 21
-342.824918925242
 31
0.0
  0
LINE
  5
2F94B
330
15759
100
AcDbEntity
  8
0
100
AcDbLine
 10
50.19505300831497
 20
-304.8249164218469
 30
0.0
 11
49.19505470704734
 21
-303.824914395289
 31
0.0
  0
LINE
  5
2F94C
330
15759
100
AcDbEntity
  8
0
100
AcDbLine
 10
-36.80494821358025
 20
-343.8249209517999
 30
0.0
 11
49.19505470704734
 21
-343.8249209517999
 31
0.0
  0
LINE
  5
2F94D
330
15759
100
AcDbEntity
  8
0
100
AcDbLine
 10
49.19505470704734
 20
-303.824914395289
 30
0.0
 11
-36.80494821358025
 21
-303.824914395289
 31
0.0
  0
LINE
  5
2F94E
330
15759
100
AcDbEntity
  8
0
100
AcDbLine
 10
-33.80494585919678
 20
-293.8580939168496
 30
0.0
 11
-33.80494585919678
 21
-303.824914395289
 31
0.0
  0
LINE
  5
2F94F
330
15759
100
AcDbEntity
  8
0
100
AcDbLine
 10
-33.80494585919678
 20
-343.8249209517999
 30
0.0
 11
-33.80494585919678
 21
-346.8249121303125
 31
0.0
  0
LINE
  5
2F950
330
15759
100
AcDbEntity
  8
0
100
AcDbLine
 10
46.19505235266387
 20
-346.8249121303125
 30
0.0
 11
46.19505235266387
 21
-343.8249209517999
 31
0.0
  0
LINE
  5
2F951
330
15759
100
AcDbEntity
  8
0
100
AcDbLine
 10
46.19505235266387
 20
-303.824914395289
 30
0.0
 11
46.19505235266387
 21
-293.8580939168496
 31
0.0
  0
LINE
  5
2F952
330
15759
100
AcDbEntity
  8
0
100
AcDbLine
 10
-243.8049467532656
 20
443.675102890058
 30
0.0
 11
-238.8049515216371
 21
443.675102890058
 31
0.0
  0
LINE
  5
2F953
330
15759
100
AcDbEntity
  8
0
100
AcDbLine
 10
251.1950580151061
 20
443.675102890058
 30
0.0
 11
256.1950532467345
 21
443.675102890058
 31
0.0
  0
LINE
  5
2F954
330
15759
100
AcDbEntity
  8
0
100
AcDbLine
 10
256.1950532467345
 20
553.675057590528
 30
0.0
 11
251.1950580151061
 21
553.675057590528
 31
0.0
  0
LINE
  5
2F955
330
15759
100
AcDbEntity
  8
0
100
AcDbLine
 10
173.1950489552
 20
553.675057590528
 30
0.0
 11
166.1950496704557
 21
553.675057590528
 31
0.0
  0
LINE
  5
2F956
330
15759
100
AcDbEntity
  8
0
100
AcDbLine
 10
156.1950592071989
 20
553.675057590528
 30
0.0
 11
149.1950599224546
 21
553.675057590528
 31
0.0
  0
LINE
  5
2F957
330
15759
100
AcDbEntity
  8
0
100
AcDbLine
 10
-136.8049534289857
 20
553.675057590528
 30
0.0
 11
-143.80495271373
 21
553.675057590528
 31
0.0
  0
LINE
  5
2F958
330
15759
100
AcDbEntity
  8
0
100
AcDbLine
 10
-153.8049431769868
 20
553.675057590528
 30
0.0
 11
-160.8049424617311
 21
553.675057590528
 31
0.0
  0
LINE
  5
2F959
330
15759
100
AcDbEntity
  8
0
100
AcDbLine
 10
-238.8049515216371
 20
553.675057590528
 30
0.0
 11
-243.8049467532656
 21
553.675057590528
 31
0.0
  0
LINE
  5
2F95A
330
15759
100
AcDbEntity
  8
0
100
AcDbLine
 10
-243.8049467532664
 20
-556.3249120111031
 30
0.0
 11
-238.804951521638
 21
-556.3249120111031
 31
0.0
  0
LINE
  5
2F95B
330
15759
100
AcDbEntity
  8
0
100
AcDbLine
 10
251.1950580151051
 20
-556.3249120111031
 30
0.0
 11
256.1950532467335
 21
-556.3249120111031
 31
0.0
  0
LINE
  5
2F95C
330
15759
100
AcDbEntity
  8
0
100
AcDbLine
 10
256.1950532467335
 20
-446.3249144697947
 30
0.0
 11
251.1950580151051
 21
-446.3249144697947
 31
0.0
  0
LINE
  5
2F95D
330
15759
100
AcDbEntity
  8
0
100
AcDbLine
 10
-238.804951521638
 20
-446.3249144697947
 30
0.0
 11
-243.8049467532664
 21
-446.3249144697947
 31
0.0
  0
LINE
  5
2F95E
330
15759
100
AcDbEntity
  8
0
100
AcDbLine
 10
-66.52176401305496
 20
-311.8249157065911
 30
0.0
 11
-69.02176162886917
 21
-311.8249157065911
 31
0.0
  0
LINE
  5
2F95F
330
15759
100
AcDbEntity
  8
0
100
AcDbLine
 10
-69.02176162886917
 20
-335.8249196404977
 30
0.0
 11
-66.52176401305496
 21
-335.8249196404977
 31
0.0
  0
LINE
  5
2F960
330
15759
100
AcDbEntity
  8
0
100
AcDbLine
 10
81.41186812233627
 20
-311.8249157065911
 30
0.0
 11
78.91187050652206
 21
-311.8249157065911
 31
0.0
  0
LINE
  5
2F961
330
15759
100
AcDbEntity
  8
0
100
AcDbLine
 10
78.91187050652206
 20
-335.8249196404977
 30
0.0
 11
81.41186812233627
 21
-335.8249196404977
 31
0.0
  0
SPLINE
  5
2F962
330
15759
100
AcDbEntity
  8
0
100
AcDbSpline
210
0.0
220
0.0
230
1.0
 70
     8
 71
     3
 72
     9
 73
     5
 74
     0
 42
0.000000001
 43
0.0000000001
 40
0.0
 40
0.0
 40
0.0
 40
0.0
 40
0.4999986339335409
 40
1.0
 40
1.0
 40
1.0
 40
1.0
 10
-71.68772092747985
 20
-332.8248986596627
 30
0.0
 10
-71.32076505151508
 20
-332.8225393061075
 30
0.0
 10
-70.58685129442983
 20
-332.817820586104
 30
0.0
 10
-69.85293610222379
 20
-332.8133403223801
 30
0.0
 10
-69.4859775035411
 20
-332.8111001843972
 30
0.0
  0
SPLINE
  5
2F963
330
15759
100
AcDbEntity
  8
0
100
AcDbSpline
210
0.0
220
0.0
230
1.0
 70
     8
 71
     3
 72
     9
 73
     5
 74
     0
 42
0.000000001
 43
0.0000000001
 40
0.0
 40
0.0
 40
0.0
 40
0.0
 40
0.5000013699399143
 40
1.0
 40
1.0
 40
1.0
 40
1.0
 10
-70.64360401320755
 20
-314.8393610114617
 30
0.0
 10
-71.01057751160715
 20
-314.8371047305736
 30
0.0
 10
-71.7445224974881
 20
-314.8325921811629
 30
0.0
 10
-72.47846606554685
 20
-314.827856076321
 30
0.0
 10
-72.84543684411346
 20
-314.8254880303903
 30
0.0
  0
LINE
  5
2F964
330
15759
100
AcDbEntity
  8
0
100
AcDbLine
 10
173.1950489552
 20
535.3924056892829
 30
0.0
 11
173.1950489552
 21
561.2568876152472
 31
0.0
  0
LINE
  5
2F965
330
15759
100
AcDbEntity
  8
0
100
AcDbLine
 10
251.1877713472823
 20
561.2568876152472
 30
0.0
 11
173.1950489552
 21
561.2568876152472
 31
0.0
  0
LINE
  5
2F966
330
15759
100
AcDbEntity
  8
0
100
AcDbLine
 10
251.1877713472823
 20
561.2568876152472
 30
0.0
 11
251.1950580151061
 21
561.254026592298
 31
0.0
  0
LINE
  5
2F967
330
15759
100
AcDbEntity
  8
0
100
AcDbLine
 10
251.1950580151061
 20
561.254026592298
 30
0.0
 11
251.1950580151061
 21
436.096133888288
 31
0.0
  0
LINE
  5
2F968
330
15759
100
AcDbEntity
  8
0
100
AcDbLine
 10
-238.8049515216371
 20
561.254026592298
 30
0.0
 11
-238.7976648538133
 21
561.2568876152472
 31
0.0
  0
LINE
  5
2F969
330
15759
100
AcDbEntity
  8
0
100
AcDbLine
 10
-160.8049424617311
 20
561.2568876152472
 30
0.0
 11
-238.7976648538133
 21
561.2568876152472
 31
0.0
  0
LINE
  5
2F96A
330
15759
100
AcDbEntity
  8
0
100
AcDbLine
 10
-160.8049424617311
 20
561.2568876152472
 30
0.0
 11
-160.8049424617311
 21
535.3924056892829
 31
0.0
  0
SPLINE
  5
2F96B
330
15759
100
AcDbEntity
  8
0
100
AcDbSpline
210
0.0
220
0.0
230
1.0
 70
     8
 71
     3
 72
    12
 73
     8
 74
     0
 42
0.000000001
 43
0.0000000001
 40
0.0
 40
0.0
 40
0.0
 40
0.0
 40
0.2771502483214629
 40
0.5283026592529492
 40
0.7651804038601729
 40
0.8804910910032765
 40
1.0
 40
1.0
 40
1.0
 40
1.0
 10
-160.8049424617311
 20
535.3924056892829
 30
0.0
 10
-160.7044833729706
 20
534.5103840035371
 30
0.0
 10
-160.5129886726754
 20
532.8290779072195
 30
0.0
 10
-159.077664569566
 20
530.7049694332454
 30
0.0
 10
-157.4495156663179
 20
529.5239752661037
 30
0.0
 10
-155.9655259682513
 20
529.0475204220093
 30
0.0
 10
-155.1963891291198
 20
529.0022329182138
 30
0.0
 10
-154.8049452035447
 20
528.9791843300299
 30
0.0
  0
LINE
  5
2F96C
330
15759
100
AcDbEntity
  8
0
100
AcDbLine
 10
-154.8049452035447
 20
528.9791843300299
 30
0.0
 11
-142.8049506871721
 21
528.9791843300299
 31
0.0
  0
SPLINE
  5
2F96D
330
15759
100
AcDbEntity
  8
0
100
AcDbSpline
210
0.0
220
0.0
230
1.0
 70
     8
 71
     3
 72
    12
 73
     8
 74
     0
 42
0.000000001
 43
0.0000000001
 40
0.0
 40
0.0
 40
0.0
 40
0.0
 40
0.2361488279350872
 40
0.3493142434774485
 40
0.4710593026539974
 40
0.7309647203485769
 40
1.0
 40
1.0
 40
1.0
 40
1.0
 10
-142.8049506871721
 20
528.9791843300299
 30
0.0
 10
-142.0262767055683
 20
529.0713829291489
 30
0.0
 10
-140.8744525988077
 20
529.2077642281038
 30
0.0
 10
-139.5273019841079
 20
529.9923725562985
 30
0.0
 10
-138.3008419165344
 20
531.0368878317494
 30
0.0
 10
-137.0576415628457
 20
532.8502939305908
 30
0.0
 10
-136.89014649835
 20
534.5353401038265
 30
0.0
 10
-136.8049534289857
 20
535.3924056892829
 30
0.0
  0
LINE
  5
2F96E
330
15759
100
AcDbEntity
  8
0
100
AcDbLine
 10
-136.8049534289857
 20
535.3924056892829
 30
0.0
 11
-136.8049534289857
 21
561.2568876152472
 31
0.0
  0
LINE
  5
2F96F
330
15759
100
AcDbEntity
  8
0
100
AcDbLine
 10
149.1950599224546
 20
561.2568876152472
 30
0.0
 11
132.3275862009504
 21
561.2568876152472
 31
0.0
  0
LINE
  5
2F970
330
15759
100
AcDbEntity
  8
0
100
AcDbLine
 10
-119.9374797074815
 20
561.2568876152472
 30
0.0
 11
-136.8049534289857
 21
561.2568876152472
 31
0.0
  0
LINE
  5
2F971
330
15759
100
AcDbEntity
  8
0
100
AcDbLine
 10
149.1950599224546
 20
561.2568876152472
 30
0.0
 11
149.1950599224546
 21
535.3924056892829
 31
0.0
  0
SPLINE
  5
2F972
330
15759
100
AcDbEntity
  8
0
100
AcDbSpline
210
0.0
220
0.0
230
1.0
 70
     8
 71
     3
 72
    12
 73
     8
 74
     0
 42
0.000000001
 43
0.0000000001
 40
0.0
 40
0.0
 40
0.0
 40
0.0
 40
0.2771500756978191
 40
0.5283015049569101
 40
0.7651791020243078
 40
0.880491165439664
 40
1.0
 40
1.0
 40
1.0
 40
1.0
 10
149.1950599224546
 20
535.3924056892829
 30
0.0
 10
149.2955202529592
 20
534.5103847513964
 30
0.0
 10
149.4870170211288
 20
532.8290827069504
 30
0.0
 10
150.9223215906895
 20
530.7049662952303
 30
0.0
 10
152.5504753830391
 20
529.5239700994389
 30
0.0
 10
154.0344721101064
 20
529.0475223847424
 30
0.0
 10
154.8036134025679
 20
529.0022334860114
 30
0.0
 10
155.195057180641
 20
528.9791843300299
 30
0.0
  0
LINE
  5
2F973
330
15759
100
AcDbEntity
  8
0
100
AcDbLine
 10
155.195057180641
 20
528.9791843300299
 30
0.0
 11
167.1950516970137
 21
528.9791843300299
 31
0.0
  0
SPLINE
  5
2F974
330
15759
100
AcDbEntity
  8
0
100
AcDbSpline
210
0.0
220
0.0
230
1.0
 70
     8
 71
     3
 72
    12
 73
     8
 74
     0
 42
0.000000001
 43
0.0000000001
 40
0.0
 40
0.0
 40
0.0
 40
0.0
 40
0.2361473813412283
 40
0.3493141368511558
 40
0.4710592159777715
 40
0.73096467626242
 40
1.0
 40
1.0
 40
1.0
 40
1.0
 10
167.1950516970137
 20
528.9791843300299
 30
0.0
 10
167.9737192250395
 20
529.0713860513606
 30
0.0
 10
169.1255404898038
 20
529.2077727625764
 30
0.0
 10
170.4726981947715
 20
529.9923678390878
 30
0.0
 10
171.6991597874439
 20
531.0368890572681
 30
0.0
 10
172.942361048521
 20
532.8502935212782
 30
0.0
 10
173.1098559624297
 20
534.535339965827
 30
0.0
 10
173.1950489552
 20
535.3924056892829
 30
0.0
  0
LINE
  5
2F975
330
15759
100
AcDbEntity
  8
0
100
AcDbLine
 10
-238.8049515216371
 20
436.096133888288
 30
0.0
 11
-238.8049515216371
 21
561.254026592298
 31
0.0
  0
LINE
  5
2F976
330
15759
100
AcDbEntity
  8
0
100
AcDbLine
 10
251.1950580151061
 20
436.096133888288
 30
0.0
 11
251.1877713472823
 21
436.093213260694
 31
0.0
  0
LINE
  5
2F977
330
15759
100
AcDbEntity
  8
0
100
AcDbLine
 10
251.1877713472823
 20
436.093213260694
 30
0.0
 11
141.1950586111525
 21
436.093213260694
 31
0.0
  0
LINE
  5
2F978
330
15759
100
AcDbEntity
  8
0
100
AcDbLine
 10
-128.8049521176835
 20
436.093213260694
 30
0.0
 11
-238.7976648538133
 21
436.093213260694
 31
0.0
  0
LINE
  5
2F979
330
15759
100
AcDbEntity
  8
0
100
AcDbLine
 10
-238.7976648538133
 20
436.093213260694
 30
0.0
 11
-238.8049515216371
 21
436.096133888288
 31
0.0
  0
CIRCLE
  5
2F97A
330
15759
100
AcDbEntity
  8
0
100
AcDbCircle
 10
206.1950532467345
 20
498.6750862007575
 30
0.0
 40
10.00000000000011
  0
CIRCLE
  5
2F97B
330
15759
100
AcDbEntity
  8
0
100
AcDbCircle
 10
-193.8049467532655
 20
498.6750862007575
 30
0.0
 40
10.0
  0
LINE
  5
2F97C
330
15759
100
AcDbEntity
  8
0
100
AcDbLine
 10
251.1950580151051
 20
-438.7459436053795
 30
0.0
 11
251.1950580151051
 21
-563.9038810128731
 31
0.0
  0
LINE
  5
2F97D
330
15759
100
AcDbEntity
  8
0
100
AcDbLine
 10
134.500905659911
 20
-438.7430527801079
 30
0.0
 11
251.1877713472813
 21
-438.7430527801079
 31
0.0
  0
LINE
  5
2F97E
330
15759
100
AcDbEntity
  8
0
100
AcDbLine
 10
251.1877713472813
 20
-438.7430527801079
 30
0.0
 11
251.1950580151051
 21
-438.7459436053795
 31
0.0
  0
LINE
  5
2F97F
330
15759
100
AcDbEntity
  8
0
100
AcDbLine
 10
-238.804951521638
 20
-563.9038810128731
 30
0.0
 11
-238.804951521638
 21
-438.7459436053795
 31
0.0
  0
LINE
  5
2F980
330
15759
100
AcDbEntity
  8
0
100
AcDbLine
 10
-238.804951521638
 20
-438.7459436053795
 30
0.0
 11
-238.7976648538142
 21
-438.7430527801079
 31
0.0
  0
LINE
  5
2F981
330
15759
100
AcDbEntity
  8
0
100
AcDbLine
 10
-238.7976648538142
 20
-438.7430527801079
 30
0.0
 11
-122.1107991664439
 21
-438.7430527801079
 31
0.0
  0
LINE
  5
2F982
330
15759
100
AcDbEntity
  8
0
100
AcDbLine
 10
251.1950580151051
 20
-563.9038810128731
 30
0.0
 11
251.1877713472813
 21
-563.9067718381447
 31
0.0
  0
LINE
  5
2F983
330
15759
100
AcDbEntity
  8
0
100
AcDbLine
 10
-238.7976648538142
 20
-563.9067718381447
 30
0.0
 11
-105.0844939677745
 21
-563.9067718381447
 31
0.0
  0
LINE
  5
2F984
330
15759
100
AcDbEntity
  8
0
100
AcDbLine
 10
117.4746004612416
 20
-563.9067718381447
 30
0.0
 11
251.1877713472813
 21
-563.9067718381447
 31
0.0
  0
LINE
  5
2F985
330
15759
100
AcDbEntity
  8
0
100
AcDbLine
 10
-238.7976648538142
 20
-563.9067718381447
 30
0.0
 11
-238.804951521638
 21
-563.9038810128731
 31
0.0
  0
CIRCLE
  5
2F986
330
15759
100
AcDbEntity
  8
0
100
AcDbCircle
 10
-193.8049467532664
 20
-501.3249137992424
 30
0.0
 40
10.00000000000003
  0
CIRCLE
  5
2F987
330
15759
100
AcDbEntity
  8
0
100
AcDbCircle
 10
206.1950532467335
 20
-501.3249137992424
 30
0.0
 40
10.0
  0
LINE
  5
2F988
330
15759
100
AcDbEntity
  8
0
100
AcDbLine
 10
207.0537356407622
 20
503.2133480911689
 30
0.0
 11
202.6941178114394
 21
501.6878864174323
 31
0.0
  0
LINE
  5
2F989
330
15759
100
AcDbEntity
  8
0
100
AcDbLine
 10
202.6941178114394
 20
501.6878864174323
 30
0.0
 11
201.8354532988051
 21
497.149588764234
 31
0.0
  0
LINE
  5
2F98A
330
15759
100
AcDbEntity
  8
0
100
AcDbLine
 10
201.8354532988051
 20
497.149588764234
 30
0.0
 11
205.3363768131712
 21
494.1368123894172
 31
0.0
  0
LINE
  5
2F98B
330
15759
100
AcDbEntity
  8
0
100
AcDbLine
 10
205.3363768131712
 20
494.1368123894172
 30
0.0
 11
209.6959797413329
 21
495.6623336677985
 31
0.0
  0
LINE
  5
2F98C
330
15759
100
AcDbEntity
  8
0
100
AcDbLine
 10
209.6959797413329
 20
495.6623336677985
 30
0.0
 11
210.5546591551283
 21
500.200571716352
 31
0.0
  0
LINE
  5
2F98D
330
15759
100
AcDbEntity
  8
0
100
AcDbLine
 10
210.5546591551283
 20
500.200571716352
 30
0.0
 11
207.0537356407622
 21
503.2133480911689
 31
0.0
  0
LINE
  5
2F98E
330
15759
100
AcDbEntity
  8
0
100
AcDbLine
 10
203.8856593639821
 20
-505.3249129647774
 30
0.0
 11
208.5044530899495
 21
-505.3249129647774
 31
0.0
  0
LINE
  5
2F98F
330
15759
100
AcDbEntity
  8
0
100
AcDbLine
 10
208.5044530899495
 20
-505.3249129647774
 30
0.0
 11
210.8138499529332
 21
-501.3249141717714
 31
0.0
  0
LINE
  5
2F990
330
15759
100
AcDbEntity
  8
0
100
AcDbLine
 10
208.5044530899495
 20
-497.3249135161204
 30
0.0
 11
203.8856593639821
 21
-497.3249135161204
 31
0.0
  0
LINE
  5
2F991
330
15759
100
AcDbEntity
  8
0
100
AcDbLine
 10
203.8856593639821
 20
-497.3249135161204
 30
0.0
 11
201.5762475998372
 21
-501.3249141717714
 31
0.0
  0
LINE
  5
2F992
330
15759
100
AcDbEntity
  8
0
100
AcDbLine
 10
201.5762475998372
 20
-501.3249141717714
 30
0.0
 11
203.8856593639821
 21
-505.3249129647774
 31
0.0
  0
LINE
  5
2F993
330
15759
100
AcDbEntity
  8
0
100
AcDbLine
 10
210.8138499529332
 20
-501.3249141717714
 30
0.0
 11
208.5044530899495
 21
-497.3249135161204
 31
0.0
  0
LINE
  5
2F994
330
15759
100
AcDbEntity
  8
0
100
AcDbLine
 10
-192.9462703197023
 20
494.1368123894172
 30
0.0
 11
-189.4453468053361
 21
497.149588764234
 31
0.0
  0
LINE
  5
2F995
330
15759
100
AcDbEntity
  8
0
100
AcDbLine
 10
-189.4453468053361
 20
497.149588764234
 30
0.0
 11
-190.3040113179704
 21
501.6878864174323
 31
0.0
  0
LINE
  5
2F996
330
15759
100
AcDbEntity
  8
0
100
AcDbLine
 10
-190.3040113179704
 20
501.6878864174323
 30
0.0
 11
-194.6636291472932
 21
503.2133480911689
 31
0.0
  0
LINE
  5
2F997
330
15759
100
AcDbEntity
  8
0
100
AcDbLine
 10
-194.6636291472932
 20
503.2133480911689
 30
0.0
 11
-198.1645526616594
 21
500.200571716352
 31
0.0
  0
LINE
  5
2F998
330
15759
100
AcDbEntity
  8
0
100
AcDbLine
 10
-198.1645526616594
 20
500.200571716352
 30
0.0
 11
-197.3058732478639
 21
495.6623336677985
 31
0.0
  0
LINE
  5
2F999
330
15759
100
AcDbEntity
  8
0
100
AcDbLine
 10
-197.3058732478639
 20
495.6623336677985
 30
0.0
 11
-192.9462703197023
 21
494.1368123894172
 31
0.0
  0
LINE
  5
2F99A
330
15759
100
AcDbEntity
  8
0
100
AcDbLine
 10
-191.495552870515
 20
-497.3249135161204
 30
0.0
 11
-196.1143465964824
 21
-497.3249135161204
 31
0.0
  0
LINE
  5
2F99B
330
15759
100
AcDbEntity
  8
0
100
AcDbLine
 10
-196.1143465964824
 20
-505.3249129647774
 30
0.0
 11
-191.495552870515
 21
-505.3249129647774
 31
0.0
  0
LINE
  5
2F99C
330
15759
100
AcDbEntity
  8
0
100
AcDbLine
 10
-191.495552870515
 20
-505.3249129647774
 30
0.0
 11
-189.1861411063701
 21
-501.3249141717714
 31
0.0
  0
LINE
  5
2F99D
330
15759
100
AcDbEntity
  8
0
100
AcDbLine
 10
-189.1861411063701
 20
-501.3249141717714
 30
0.0
 11
-191.495552870515
 21
-497.3249135161204
 31
0.0
  0
LINE
  5
2F99E
330
15759
100
AcDbEntity
  8
0
100
AcDbLine
 10
-198.4237434594661
 20
-501.3249141717714
 30
0.0
 11
-196.1143465964824
 21
-505.3249129647774
 31
0.0
  0
LINE
  5
2F99F
330
15759
100
AcDbEntity
  8
0
100
AcDbLine
 10
-196.1143465964824
 20
-497.3249135161204
 30
0.0
 11
-198.4237434594661
 21
-501.3249141717714
 31
0.0
  0
SPLINE
  5
2F9A0
330
15759
100
AcDbEntity
  8
0
100
AcDbSpline
210
0.0
220
0.0
230
1.0
 70
     8
 71
     3
 72
     9
 73
     5
 74
     0
 42
0.000000001
 43
0.0000000001
 40
0.0
 40
0.0
 40
0.0
 40
0.0
 40
0.4954589120044806
 40
1.0
 40
1.0
 40
1.0
 40
1.0
 10
89.01336022925079
 20
-323.8249102229638
 30
0.0
 10
89.25051718816666
 20
-324.5963303829995
 30
0.0
 10
89.72917839128331
 20
-326.1533114794038
 30
0.0
 10
89.8173722002166
 20
-327.762836944119
 30
0.0
 10
89.86186960053146
 20
-328.5749086732431
 30
0.0
  0
SPLINE
  5
2F9A1
330
15759
100
AcDbEntity
  8
0
100
AcDbSpline
210
0.0
220
0.0
230
1.0
 70
     8
 71
     3
 72
    10
 73
     6
 74
     0
 42
0.000000001
 43
0.0000000001
 40
0.0
 40
0.0
 40
0.0
 40
0.0
 40
0.0700924378106174
 40
0.5307868718815716
 40
1.0
 40
1.0
 40
1.0
 40
1.0
 10
89.86186960053146
 20
-319.0749117726846
 30
0.0
 10
89.86085702388573
 20
-319.1875061209103
 30
0.0
 10
89.8531891155244
 20
-320.0401459170425
 30
0.0
 10
89.6678661518772
 20
-321.6477446373428
 30
0.0
 10
89.23285721292904
 20
-323.0947697269112
 30
0.0
 10
89.01336022925079
 20
-323.8249102229638
 30
0.0
  0
SPLINE
  5
2F9A2
330
15759
100
AcDbEntity
  8
0
100
AcDbSpline
210
0.0
220
0.0
230
1.0
 70
     8
 71
     3
 72
    10
 73
     6
 74
     0
 42
0.000000001
 43
0.0000000001
 40
0.0
 40
0.0
 40
0.0
 40
0.0
 40
0.0700899482348136
 40
0.530785615690421
 40
1.0
 40
1.0
 40
1.0
 40
1.0
 10
89.86186960053146
 20
-328.5749086732431
 30
0.0
 10
89.86085698224178
 20
-328.6875033398938
 30
0.0
 10
89.85318850428939
 20
-329.5401738149958
 30
0.0
 10
89.66786619727917
 20
-331.1477310068221
 30
0.0
 10
89.23285722815762
 20
-332.5947630957344
 30
0.0
 10
89.01336022925079
 20
-333.3249071235223
 30
0.0
  0
LINE
  5
2F9A3
330
15759
100
AcDbEntity
  8
0
100
AcDbLine
 10
89.01336022925079
 20
-333.3249071235223
 30
0.0
 11
81.41186812233627
 21
-333.3249071235223
 31
0.0
  0
LINE
  5
2F9A4
330
15759
100
AcDbEntity
  8
0
100
AcDbLine
 10
89.01336022925079
 20
-323.8249102229638
 30
0.0
 11
81.41186812233627
 21
-323.8249102229638
 31
0.0
  0
LINE
  5
2F9A5
330
15759
100
AcDbEntity
  8
0
100
AcDbLine
 10
89.01336022925079
 20
-314.3249133224053
 30
0.0
 11
81.41186812233627
 21
-314.3249133224053
 31
0.0
  0
SPLINE
  5
2F9A6
330
15759
100
AcDbEntity
  8
0
100
AcDbSpline
210
0.0
220
0.0
230
1.0
 70
     8
 71
     3
 72
     9
 73
     5
 74
     0
 42
0.000000001
 43
0.0000000001
 40
0.0
 40
0.0
 40
0.0
 40
0.0
 40
0.4954602343031241
 40
1.0
 40
1.0
 40
1.0
 40
1.0
 10
89.01336022925079
 20
-314.3249133224053
 30
0.0
 10
89.25051717354198
 20
-315.0963324317163
 30
0.0
 10
89.72917706967837
 20
-316.6533072521015
 30
0.0
 10
89.81737183453423
 20
-318.2628390011414
 30
0.0
 10
89.86186960053146
 20
-319.0749117726846
 30
0.0
  0
SPLINE
  5
2F9A7
330
15759
100
AcDbEntity
  8
0
100
AcDbSpline
210
0.0
220
0.0
230
1.0
 70
    24
 71
     3
 72
     9
 73
     5
 74
     0
 42
0.000000001
 43
0.0000000001
 40
0.0
 40
0.0
 40
0.0
 40
0.0
 40
0.7638685544192719
 40
1.0
 40
1.0
 40
1.0
 40
1.0
 10
89.01336022925079
 20
-333.3249071235223
 30
0.0
 10
89.35878932286049
 20
-333.3249071235223
 30
0.0
 10
89.81099944672587
 20
-333.3249071235223
 30
0.0
 10
89.85215215260087
 20
-333.3249071235223
 30
0.0
 10
89.86186960053146
 20
-333.3249071235223
 30
0.0
  0
SPLINE
  5
2F9A8
330
15759
100
AcDbEntity
  8
0
100
AcDbSpline
210
0.0
220
0.0
230
1.0
 70
    24
 71
     3
 72
     9
 73
     5
 74
     0
 42
0.000000001
 43
0.0000000001
 40
0.0
 40
0.0
 40
0.0
 40
0.0
 40
0.2361314455807282
 40
1.0
 40
1.0
 40
1.0
 40
1.0
 10
89.86186960053146
 20
-314.3249133224053
 30
0.0
 10
89.85215215260087
 20
-314.3249133224053
 30
0.0
 10
89.81099944672587
 20
-314.3249133224053
 30
0.0
 10
89.35878932286049
 20
-314.3249133224053
 30
0.0
 10
89.01336022925079
 20
-314.3249133224053
 30
0.0
  0
LINE
  5
2F9A9
330
15759
100
AcDbEntity
  8
0
100
AcDbLine
 10
89.86186960053146
 20
-314.3249133224053
 30
0.0
 11
89.86186960053146
 21
-333.3249071235223
 31
0.0
  0
SPLINE
  5
2F9AA
330
15759
100
AcDbEntity
  8
0
100
AcDbSpline
210
0.0
220
0.0
230
1.0
 70
     8
 71
     3
 72
    10
 73
     6
 74
     0
 42
0.000000001
 43
0.0000000001
 40
0.0
 40
0.0
 40
0.0
 40
0.0
 40
0.0700779702331557
 40
0.530780844422865
 40
1.0
 40
1.0
 40
1.0
 40
1.0
 10
118.3450517923811
 20
595.2081701164679
 30
0.0
 10
118.3459587367433
 20
595.0987398668112
 30
0.0
 10
118.3528280666396
 20
594.269899075276
 30
0.0
 10
118.5186233852328
 20
592.707091671109
 30
0.0
 10
118.9078486812322
 20
591.3003902991913
 30
0.0
 10
119.1042436034658
 20
590.5905982857184
 30
0.0
  0
SPLINE
  5
2F9AB
330
15759
100
AcDbEntity
  8
0
100
AcDbSpline
210
0.0
220
0.0
230
1.0
 70
     8
 71
     3
 72
     9
 73
     5
 74
     0
 42
0.000000001
 43
0.0000000001
 40
0.0
 40
0.0
 40
0.0
 40
0.0
 40
0.4954609524334557
 40
0.9999999999999998
 40
0.9999999999999998
 40
0.9999999999999998
 40
0.9999999999999998
 10
119.1042436034658
 20
599.825861156507
 30
0.0
 10
118.8920520506908
 20
599.0759219100655
 30
0.0
 10
118.4637810603526
 20
597.5623026374342
 30
0.0
 10
118.384867011453
 20
595.9976157489327
 30
0.0
 10
118.3450517923811
 20
595.2081701164679
 30
0.0
  0
LINE
  5
2F9AC
330
15759
100
AcDbEntity
  8
0
100
AcDbLine
 10
119.1042436034658
 20
599.825861156507
 30
0.0
 11
125.3358645112494
 21
599.825861156507
 31
0.0
  0
SPLINE
  5
2F9AD
330
15759
100
AcDbEntity
  8
0
100
AcDbSpline
210
0.0
220
0.0
230
1.0
 70
     8
 71
     3
 72
    10
 73
     6
 74
     0
 42
0.000000001
 43
0.0000000001
 40
0.0
 40
0.0
 40
0.0
 40
0.0
 40
0.07009869427716
 40
0.5307915435725721
 40
1.0
 40
1.0
 40
1.0
 40
1.0
 10
126.0950563223341
 20
595.2081701164679
 30
0.0
 10
126.0941497286476
 20
595.3176404715923
 30
0.0
 10
126.0872849465558
 20
596.1465566072147
 30
0.0
 10
125.9214721019671
 20
597.7093541726681
 30
0.0
 10
125.5322551313038
 20
599.1160648261756
 30
0.0
 10
125.3358645112494
 20
599.825861156507
 30
0.0
  0
SPLINE
  5
2F9AE
330
15759
100
AcDbEntity
  8
0
100
AcDbSpline
210
0.0
220
0.0
230
1.0
 70
     8
 71
     3
 72
     9
 73
     5
 74
     0
 42
0.000000001
 43
0.0000000001
 40
0.0
 40
0.0
 40
0.0
 40
0.0
 40
0.4954497466289214
 40
1.0
 40
1.0
 40
1.0
 40
1.0
 10
125.3358645112494
 20
590.5905982857184
 30
0.0
 10
125.5480561749064
 20
591.3404966079469
 30
0.0
 10
125.9763370754444
 20
592.8540675146432
 30
0.0
 10
126.0552438760787
 20
594.4187228636764
 30
0.0
 10
126.0950563223341
 20
595.2081701164679
 30
0.0
  0
LINE
  5
2F9AF
330
15759
100
AcDbEntity
  8
0
100
AcDbLine
 10
119.1042436034658
 20
590.5905982857184
 30
0.0
 11
125.3358645112494
 21
590.5905982857184
 31
0.0
  0
SPLINE
  5
2F9B0
330
15759
100
AcDbEntity
  8
0
100
AcDbSpline
210
0.0
220
0.0
230
1.0
 70
     8
 71
     3
 72
     9
 73
     5
 74
     0
 42
0.000000001
 43
0.0000000001
 40
0.0
 40
0.0
 40
0.0
 40
0.0
 40
0.4954425062275587
 40
0.9999999999999998
 40
0.9999999999999998
 40
0.9999999999999998
 40
0.9999999999999998
 10
125.3358645112494
 20
599.825861156507
 30
0.0
 10
125.5480562465163
 20
600.4344828000903
 30
0.0
 10
125.9763435504901
 20
601.6629233071762
 30
0.0
 10
126.0552456677797
 20
602.9329038239884
 30
0.0
 10
126.0950563223341
 20
603.573682010694
 30
0.0
  0
SPLINE
  5
2F9B1
330
15759
100
AcDbEntity
  8
0
100
AcDbSpline
210
0.0
220
0.0
230
1.0
 70
     8
 71
     3
 72
    10
 73
     6
 74
     0
 42
0.000000001
 43
0.0000000001
 40
0.0
 40
0.0
 40
0.0
 40
0.0
 40
0.070095121123973
 40
0.5307949300203445
 40
0.9999999999999998
 40
0.9999999999999998
 40
0.9999999999999998
 40
0.9999999999999998
 10
118.3450517923811
 20
603.573682010694
 30
0.0
 10
118.345958505437
 20
603.4848340390054
 30
0.0
 10
118.3528245852139
 20
602.8120332483267
 30
0.0
 10
118.5186176662173
 20
601.5436285851028
 30
0.0
 10
118.9078482743534
 20
600.4019310981166
 30
0.0
 10
119.1042436034658
 20
599.825861156507
 30
0.0
  0
SPLINE
  5
2F9B2
330
15759
100
AcDbEntity
  8
0
100
AcDbSpline
210
0.0
220
0.0
230
1.0
 70
     8
 71
     3
 72
     9
 73
     5
 74
     0
 42
0.000000001
 43
0.0000000001
 40
0.0
 40
0.0
 40
0.0
 40
0.0
 40
0.495451773816783
 40
0.9999999999999998
 40
0.9999999999999998
 40
0.9999999999999998
 40
0.9999999999999998
 10
119.1042436034658
 20
607.3213836555915
 30
0.0
 10
118.8920519598614
 20
606.7127581562563
 30
0.0
 10
118.463772852152
 20
605.4843328452625
 30
0.0
 10
118.3848647402665
 20
604.2144162009718
 30
0.0
 10
118.3450517923811
 20
603.573682010694
 30
0.0
  0
LINE
  5
2F9B3
330
15759
100
AcDbEntity
  8
0
100
AcDbLine
 10
119.1042436034658
 20
607.3213836555915
 30
0.0
 11
125.3358645112494
 21
607.3213836555915
 31
0.0
  0
SPLINE
  5
2F9B4
330
15759
100
AcDbEntity
  8
0
100
AcDbSpline
210
0.0
220
0.0
230
1.0
 70
     8
 71
     3
 72
    10
 73
     6
 74
     0
 42
0.000000001
 43
0.0000000001
 40
0.0
 40
0.0
 40
0.0
 40
0.0
 40
0.0700776843560322
 40
0.5307868497286902
 40
1.0
 40
1.0
 40
1.0
 40
1.0
 10
126.0950563223341
 20
603.573682010694
 30
0.0
 10
126.0941493866739
 20
603.6624890812673
 30
0.0
 10
126.0872800169745
 20
604.3351372382021
 30
0.0
 10
125.9214789703837
 20
605.6036517064858
 30
0.0
 10
125.5322557913714
 20
606.7453261981135
 30
0.0
 10
125.3358645112494
 20
607.3213836555915
 30
0.0
  0
SPLINE
  5
2F9B5
330
15759
100
AcDbEntity
  8
0
100
AcDbSpline
210
0.0
220
0.0
230
1.0
 70
     8
 71
     3
 72
     9
 73
     5
 74
     0
 42
0.000000001
 43
0.0000000001
 40
0.0
 40
0.0
 40
0.0
 40
0.0
 40
0.7768728859759211
 40
1.0
 40
1.0
 40
1.0
 40
1.0
 10
119.1042436034658
 20
590.5905982857184
 30
0.0
 10
118.7909113266832
 20
590.367663832887
 30
0.0
 10
118.3875863008797
 20
590.080699959064
 30
0.0
 10
118.3528110857696
 20
589.7864928846066
 30
0.0
 10
118.3450517923811
 20
589.7208473091559
 30
0.0
  0
SPLINE
  5
2F9B6
330
15759
100
AcDbEntity
  8
0
100
AcDbSpline
210
0.0
220
0.0
230
1.0
 70
     8
 71
     3
 72
     9
 73
     5
 74
     0
 42
0.000000001
 43
0.0000000001
 40
0.0
 40
0.0
 40
0.0
 40
0.0
 40
0.223127114024079
 40
1.0
 40
1.0
 40
1.0
 40
1.0
 10
126.0950563223341
 20
589.7208473091559
 30
0.0
 10
126.0872970289456
 20
589.7864928846066
 30
0.0
 10
126.0525218138318
 20
590.080699959064
 30
0.0
 10
125.6491967880283
 20
590.367663832887
 30
0.0
 10
125.3358645112494
 20
590.5905982857184
 30
0.0
  0
LINE
  5
2F9B7
330
15759
100
AcDbEntity
  8
0
100
AcDbLine
 10
118.4613032014349
 20
606.7183038597541
 30
0.0
 11
119.1042436034658
 21
607.3213836555915
 31
0.0
  0
LINE
  5
2F9B8
330
15759
100
AcDbEntity
  8
0
100
AcDbLine
 10
118.3450517923811
 20
589.5862600212531
 30
0.0
 11
118.3450517923811
 21
606.5862199669318
 31
0.0
  0
LINE
  5
2F9B9
330
15759
100
AcDbEntity
  8
0
100
AcDbLine
 10
125.3358645112494
 20
607.3213836555915
 30
0.0
 11
125.9788049132803
 21
606.7183038597541
 31
0.0
  0
LINE
  5
2F9BA
330
15759
100
AcDbEntity
  8
0
100
AcDbLine
 10
126.0950563223341
 20
589.5862600212531
 30
0.0
 11
126.0950563223341
 21
606.5862199669318
 31
0.0
  0
SPLINE
  5
2F9BB
330
15759
100
AcDbEntity
  8
0
100
AcDbSpline
210
0.0
220
0.0
230
1.0
 70
     8
 71
     3
 72
     9
 73
     5
 74
     0
 42
0.000000001
 43
0.0000000001
 40
0.0
 40
0.0
 40
0.0
 40
0.0
 40
0.8001172628123478
 40
1.0
 40
1.0
 40
1.0
 40
1.0
 10
118.3450517923811
 20
589.7208473091559
 30
0.0
 10
118.4433110341924
 20
589.4852049767505
 30
0.0
 10
118.5661170857274
 20
589.1906952300486
 30
0.0
 10
119.0145996757819
 20
588.9075691409598
 30
0.0
 10
119.1042436034658
 20
588.8509771233039
 30
0.0
  0
SPLINE
  5
2F9BC
330
15759
100
AcDbEntity
  8
0
100
AcDbSpline
210
0.0
220
0.0
230
1.0
 70
     8
 71
     3
 72
     9
 73
     5
 74
     0
 42
0.000000001
 43
0.0000000001
 40
0.0
 40
0.0
 40
0.0
 40
0.0
 40
0.1998827371876521
 40
1.0
 40
1.0
 40
1.0
 40
1.0
 10
125.3358645112494
 20
588.8509771233039
 30
0.0
 10
125.4255084389297
 20
588.9075691409598
 30
0.0
 10
125.8739910289842
 20
589.1906952300486
 30
0.0
 10
125.9967970805228
 20
589.4852049767505
 30
0.0
 10
126.0950563223341
 20
589.7208473091559
 30
0.0
  0
LINE
  5
2F9BD
330
15759
100
AcDbEntity
  8
0
100
AcDbLine
 10
119.1042436034658
 20
588.8509771233039
 30
0.0
 11
125.3358645112494
 21
588.8509771233039
 31
0.0
  0
SPLINE
  5
2F9BE
330
15759
100
AcDbEntity
  8
0
100
AcDbSpline
210
0.0
220
0.0
230
1.0
 70
     8
 71
     3
 72
    10
 73
     6
 74
     0
 42
0.000000001
 43
0.0000000001
 40
0.0
 40
0.0
 40
0.0
 40
0.0
 40
0.0700989163288294
 40
0.5307914133834984
 40
1.0
 40
1.0
 40
1.0
 40
1.0
 10
-105.9549452989122
 20
595.2081701164679
 30
0.0
 10
-105.9558519298261
 20
595.3176404377045
 30
0.0
 10
-105.9627169703999
 20
596.1465534876551
 30
0.0
 10
-106.1285172342905
 20
597.7093565973555
 30
0.0
 10
-106.5177423026361
 20
599.1160653957777
 30
0.0
 10
-106.7141371099969
 20
599.825861156507
 30
0.0
  0
SPLINE
  5
2F9BF
330
15759
100
AcDbEntity
  8
0
100
AcDbSpline
210
0.0
220
0.0
230
1.0
 70
     8
 71
     3
 72
     9
 73
     5
 74
     0
 42
0.000000001
 43
0.0000000001
 40
0.0
 40
0.0
 40
0.0
 40
0.0
 40
0.4954720771791834
 40
1.0
 40
1.0
 40
1.0
 40
1.0
 10
-106.7141371099969
 20
590.5905982857184
 30
0.0
 10
-106.5019456673726
 20
591.3405386055456
 30
0.0
 10
-106.0736845152387
 20
592.8541260595484
 30
0.0
 10
-105.9947632705589
 20
594.4187657190814
 30
0.0
 10
-105.9549452989122
 20
595.2081701164679
 30
0.0
  0
LINE
  5
2F9C0
330
15759
100
AcDbEntity
  8
0
100
AcDbLine
 10
-106.7141371099969
 20
590.5905982857184
 30
0.0
 11
-112.9457580177804
 21
590.5905982857184
 31
0.0
  0
SPLINE
  5
2F9C1
330
15759
100
AcDbEntity
  8
0
100
AcDbSpline
210
0.0
220
0.0
230
1.0
 70
     8
 71
     3
 72
    10
 73
     6
 74
     0
 42
0.000000001
 43
0.0000000001
 40
0.0
 40
0.0
 40
0.0
 40
0.0
 40
0.0700777480914646
 40
0.5307809745719721
 40
1.0
 40
1.0
 40
1.0
 40
1.0
 10
-113.7049498288652
 20
595.2081701164679
 30
0.0
 10
-113.7040429217086
 20
595.0987398329234
 30
0.0
 10
-113.6971738501561
 20
594.2698959541048
 30
0.0
 10
-113.5313659509666
 20
592.7070940964331
 30
0.0
 10
-113.1421487526859
 20
591.3003908690079
 30
0.0
 10
-112.9457580177804
 20
590.5905982857184
 30
0.0
  0
SPLINE
  5
2F9C2
330
15759
100
AcDbEntity
  8
0
100
AcDbSpline
210
0.0
220
0.0
230
1.0
 70
     8
 71
     3
 72
     9
 73
     5
 74
     0
 42
0.000000001
 43
0.0000000001
 40
0.0
 40
0.0
 40
0.0
 40
0.0
 40
0.495460827337904
 40
1.0
 40
1.0
 40
1.0
 40
1.0
 10
-112.9457580177804
 20
599.825861156507
 30
0.0
 10
-113.1579495717924
 20
599.0759218134298
 30
0.0
 10
-113.5862206727615
 20
597.5623019635968
 30
0.0
 10
-113.6651346407488
 20
595.997615653061
 30
0.0
 10
-113.7049498288652
 20
595.2081701164679
 30
0.0
  0
LINE
  5
2F9C3
330
15759
100
AcDbEntity
  8
0
100
AcDbLine
 10
-106.7141371099969
 20
599.825861156507
 30
0.0
 11
-112.9457580177804
 21
599.825861156507
 31
0.0
  0
SPLINE
  5
2F9C4
330
15759
100
AcDbEntity
  8
0
100
AcDbSpline
210
0.0
220
0.0
230
1.0
 70
     8
 71
     3
 72
     9
 73
     5
 74
     0
 42
0.000000001
 43
0.0000000001
 40
0.0
 40
0.0
 40
0.0
 40
0.0
 40
0.4954425062275587
 40
0.9999999999999998
 40
0.9999999999999998
 40
0.9999999999999998
 40
0.9999999999999998
 10
-106.7141371099969
 20
599.825861156507
 30
0.0
 10
-106.50194537473
 20
600.4344828000903
 30
0.0
 10
-106.0736580707562
 20
601.6629233071762
 30
0.0
 10
-105.9947559534666
 20
602.9329038239884
 30
0.0
 10
-105.9549452989122
 20
603.573682010694
 30
0.0
  0
SPLINE
  5
2F9C5
330
15759
100
AcDbEntity
  8
0
100
AcDbSpline
210
0.0
220
0.0
230
1.0
 70
     8
 71
     3
 72
    10
 73
     6
 74
     0
 42
0.000000001
 43
0.0000000001
 40
0.0
 40
0.0
 40
0.0
 40
0.0
 40
0.0700951345667381
 40
0.530795179042412
 40
1.0
 40
1.0
 40
1.0
 40
1.0
 10
-113.7049498288652
 20
603.573682010694
 30
0.0
 10
-113.7040431565583
 20
603.4848340352692
 30
0.0
 10
-113.6971773834593
 20
602.8120330296769
 30
0.0
 10
-113.5313716662131
 20
601.5436297671767
 30
0.0
 10
-113.1421491583314
 20
600.401931296863
 30
0.0
 10
-112.9457580177804
 20
599.825861156507
 30
0.0
  0
SPLINE
  5
2F9C6
330
15759
100
AcDbEntity
  8
0
100
AcDbSpline
210
0.0
220
0.0
230
1.0
 70
     8
 71
     3
 72
    10
 73
     6
 74
     0
 42
0.000000001
 43
0.0000000001
 40
0.0
 40
0.0
 40
0.0
 40
0.0
 40
0.0700764229894392
 40
0.5307771485789337
 40
1.0
 40
1.0
 40
1.0
 40
1.0
 10
-105.9549452989122
 20
603.573682010694
 30
0.0
 10
-105.955852252835
 20
603.6624891267747
 30
0.0
 10
-105.962721758955
 20
604.3351374417944
 30
0.0
 10
-106.1285200863094
 20
605.6036606367415
 30
0.0
 10
-106.5177424481444
 20
606.7454010272158
 30
0.0
 10
-106.7141371099969
 20
607.321502864881
 30
0.0
  0
SPLINE
  5
2F9C7
330
15759
100
AcDbEntity
  8
0
100
AcDbSpline
210
0.0
220
0.0
230
1.0
 70
     8
 71
     3
 72
     9
 73
     5
 74
     0
 42
0.000000001
 43
0.0000000001
 40
0.0
 40
0.0
 40
0.0
 40
0.0
 40
0.4954607673049434
 40
1.0
 40
1.0
 40
1.0
 40
1.0
 10
-112.9457580177804
 20
607.321502864881
 30
0.0
 10
-113.157949572389
 20
606.7128334237459
 30
0.0
 10
-113.5862207264472
 20
605.4843417220836
 30
0.0
 10
-113.6651346556027
 20
604.2144115867486
 30
0.0
 10
-113.7049498288652
 20
603.573682010694
 30
0.0
  0
LINE
  5
2F9C8
330
15759
100
AcDbEntity
  8
0
100
AcDbLine
 10
-106.7141371099969
 20
607.321502864881
 30
0.0
 11
-112.9457580177804
 21
607.321502864881
 31
0.0
  0
SPLINE
  5
2F9C9
330
15759
100
AcDbEntity
  8
0
100
AcDbSpline
210
0.0
220
0.0
230
1.0
 70
     8
 71
     3
 72
     9
 73
     5
 74
     0
 42
0.000000001
 43
0.0000000001
 40
0.0
 40
0.0
 40
0.0
 40
0.0
 40
0.8001164203645565
 40
1.0
 40
1.0
 40
1.0
 40
1.0
 10
-105.9549452989122
 20
589.7208473091559
 30
0.0
 10
-106.0532053335082
 20
589.9564344843493
 30
0.0
 10
-106.1760125051842
 20
590.2508756046663
 30
0.0
 10
-106.6244931861001
 20
590.5340053072613
 30
0.0
 10
-106.7141371099969
 20
590.5905982857184
 30
0.0
  0
SPLINE
  5
2F9CA
330
15759
100
AcDbEntity
  8
0
100
AcDbSpline
210
0.0
220
0.0
230
1.0
 70
     8
 71
     3
 72
     9
 73
     5
 74
     0
 42
0.000000001
 43
0.0000000001
 40
0.0
 40
0.0
 40
0.0
 40
0.0
 40
0.1998835796354434
 40
1.0
 40
1.0
 40
1.0
 40
1.0
 10
-112.9457580177804
 20
590.5905982857184
 30
0.0
 10
-113.0354019416809
 20
590.5340053072613
 30
0.0
 10
-113.4838826225932
 20
590.2508756046663
 30
0.0
 10
-113.6066897942692
 20
589.9564344843493
 30
0.0
 10
-113.7049498288652
 20
589.7208473091559
 30
0.0
  0
SPLINE
  5
2F9CB
330
15759
100
AcDbEntity
  8
0
100
AcDbSpline
210
0.0
220
0.0
230
1.0
 70
     8
 71
     3
 72
     9
 73
     5
 74
     0
 42
0.000000001
 43
0.0000000001
 40
0.0
 40
0.0
 40
0.0
 40
0.0
 40
0.2877836385393392
 40
1.0
 40
1.0
 40
1.0
 40
1.0
 10
-106.7141371099969
 20
607.321502864881
 30
0.0
 10
-106.6225859796468
 20
607.2649308212604
 30
0.0
 10
-106.3044611174555
 20
607.0683524337364
 30
0.0
 10
-106.2125319656297
 20
606.8641195143536
 30
0.0
 10
-106.1470585196039
 20
606.7186614876227
 30
0.0
  0
LINE
  5
2F9CC
330
15759
100
AcDbEntity
  8
0
100
AcDbLine
 10
-105.9549452989122
 20
589.5862600212531
 30
0.0
 11
-105.9549452989122
 21
606.5862199669318
 31
0.0
  0
SPLINE
  5
2F9CD
330
15759
100
AcDbEntity
  8
0
100
AcDbSpline
210
0.0
220
0.0
230
1.0
 70
     8
 71
     3
 72
     9
 73
     5
 74
     0
 42
0.000000001
 43
0.0000000001
 40
0.0
 40
0.0
 40
0.0
 40
0.0
 40
0.7122163614606608
 40
1.0
 40
1.0
 40
1.0
 40
1.0
 10
-113.5128366081735
 20
606.7186614876227
 30
0.0
 10
-113.4473631621476
 20
606.8641195143536
 30
0.0
 10
-113.3554340103219
 20
607.0683524337364
 30
0.0
 10
-113.0373091481342
 20
607.2649308212604
 30
0.0
 10
-112.9457580177804
 20
607.321502864881
 30
0.0
  0
LINE
  5
2F9CE
330
15759
100
AcDbEntity
  8
0
100
AcDbLine
 10
-113.7049498288652
 20
589.5862600212531
 30
0.0
 11
-113.7049498288652
 21
606.5862199669318
 31
0.0
  0
SPLINE
  5
2F9CF
330
15759
100
AcDbEntity
  8
0
100
AcDbSpline
210
0.0
220
0.0
230
1.0
 70
     8
 71
     3
 72
     9
 73
     5
 74
     0
 42
0.000000001
 43
0.0000000001
 40
0.0
 40
0.0
 40
0.0
 40
0.0
 40
0.7768695891077046
 40
1.0
 40
1.0
 40
1.0
 40
1.0
 10
-106.7141371099969
 20
588.8509771233039
 30
0.0
 10
-106.4008047909592
 20
589.0738595279399
 30
0.0
 10
-105.9974779991353
 20
589.3607576222421
 30
0.0
 10
-105.9627043561595
 20
589.6551576990495
 30
0.0
 10
-105.9549452989122
 20
589.7208473091559
 30
0.0
  0
LINE
  5
2F9D0
330
15759
100
AcDbEntity
  8
0
100
AcDbLine
 10
-106.7141371099969
 20
588.8509771233039
 30
0.0
 11
-112.9457580177804
 21
588.8509771233039
 31
0.0
  0
SPLINE
  5
2F9D1
330
15759
100
AcDbEntity
  8
0
100
AcDbSpline
210
0.0
220
0.0
230
1.0
 70
     8
 71
     3
 72
     9
 73
     5
 74
     0
 42
0.000000001
 43
0.0000000001
 40
0.0
 40
0.0
 40
0.0
 40
0.0
 40
0.2231304108922952
 40
1.0
 40
1.0
 40
1.0
 40
1.0
 10
-113.7049498288652
 20
589.7208473091559
 30
0.0
 10
-113.6971907716215
 20
589.6551576990495
 30
0.0
 10
-113.6624171286457
 20
589.3607576222421
 30
0.0
 10
-113.2590903368218
 20
589.0738595279399
 30
0.0
 10
-112.9457580177804
 20
588.8509771233039
 30
0.0
  0
LINE
  5
2F9D2
330
15759
100
AcDbEntity
  8
0
100
AcDbLine
 10
-193.1549461810609
 20
606.0862562065558
 30
0.0
 11
-193.1549461810609
 21
590.0862237816291
 31
0.0
  0
LINE
  5
2F9D3
330
15759
100
AcDbEntity
  8
0
100
AcDbLine
 10
-183.9049460618516
 20
590.0862237816291
 30
0.0
 11
-183.9049460618516
 21
606.0862562065558
 31
0.0
  0
LINE
  5
2F9D4
330
15759
100
AcDbEntity
  8
0
100
AcDbLine
 10
-193.9049514262697
 20
590.836169422193
 30
0.0
 11
-193.9049514262697
 21
605.3361913567023
 31
0.0
  0
LINE
  5
2F9D5
330
15759
100
AcDbEntity
  8
0
100
AcDbLine
 10
205.5450526745299
 20
590.0862237816291
 30
0.0
 11
205.5450526745299
 21
606.0862562065558
 31
0.0
  0
LINE
  5
2F9D6
330
15759
100
AcDbEntity
  8
0
100
AcDbLine
 10
196.2950525553205
 20
606.0862562065558
 30
0.0
 11
196.2950525553205
 21
590.0862237816291
 31
0.0
  0
LINE
  5
2F9D7
330
15759
100
AcDbEntity
  8
0
100
AcDbLine
 10
206.2950579197386
 20
605.3361913567023
 30
0.0
 11
206.2950579197386
 21
590.836169422193
 31
0.0
  0
SPLINE
  5
2F9D8
330
15759
100
AcDbEntity
  8
0
100
AcDbSpline
210
0.0
220
0.0
230
1.0
 70
     8
 71
     3
 72
    17
 73
    13
 74
     0
 42
0.000000001
 43
0.0000000001
 40
0.0
 40
0.0
 40
0.0
 40
0.0
 40
0.066271739103264
 40
0.1633372234616033
 40
0.2625935213687303
 40
0.3676626861597833
 40
0.4752434752394345
 40
0.5827971989732045
 40
0.6933332379499195
 40
0.7997506834910567
 40
0.9092082798161717
 40
1.0
 40
1.0
 40
1.0
 40
1.0
 10
-251.2506993739626
 20
445.0401088600592
 30
0.0
 10
-251.286848282627
 20
445.1039904241952
 30
0.0
 10
-251.3759430076571
 20
445.2614366819471
 30
0.0
 10
-251.8335472356739
 20
446.2583206693343
 30
0.0
 10
-252.3654942631438
 20
447.8903619140947
 30
0.0
 10
-252.9287138035361
 20
450.1876997955768
 30
0.0
 10
-253.4647038570474
 20
453.132580601752
 30
0.0
 10
-253.9436001199137
 20
456.6796888896024
 30
0.0
 10
-254.3318809164412
 20
460.6868058862601
 30
0.0
 10
-254.6141965097777
 20
465.0821514314593
 30
0.0
 10
-254.7775163402875
 20
469.4440833521658
 30
0.0
 10
-254.7963947828284
 20
472.3551953075366
 30
0.0
 10
-254.8049541442415
 20
473.6750742798285
 30
0.0
  0
LINE
  5
2F9D9
330
15759
100
AcDbEntity
  8
0
100
AcDbLine
 10
-254.8049541442415
 20
473.6750742798285
 30
0.0
 11
-238.8049515216371
 21
473.6750742798285
 31
0.0
  0
LINE
  5
2F9DA
330
15759
100
AcDbEntity
  8
0
100
AcDbLine
 10
-244.8049338786623
 20
443.675102890058
 30
0.0
 11
-244.8049338786623
 21
553.675057590528
 31
0.0
  0
SPLINE
  5
2F9DB
330
15759
100
AcDbEntity
  8
0
100
AcDbSpline
210
0.0
220
0.0
230
1.0
 70
     8
 71
     3
 72
    17
 73
    13
 74
     0
 42
0.000000001
 43
0.0000000001
 40
0.0
 40
0.0
 40
0.0
 40
0.0
 40
0.0915325214943162
 40
0.1988141235048067
 40
0.3091737865806003
 40
0.4175894458857115
 40
0.5290464343838028
 40
0.634949662622927
 40
0.7434349724348374
 40
0.8413984640258089
 40
0.9413607746445077
 40
1.0
 40
1.0
 40
1.0
 40
1.0
 10
-254.8049541442415
 20
523.6750862007575
 30
0.0
 10
-254.7964059959741
 20
524.994976361464
 30
0.0
 10
-254.7778389055238
 20
527.8618569099235
 30
0.0
 10
-254.6163509624239
 20
532.2246738640314
 30
0.0
 10
-254.3380945291319
 20
536.5855460908496
 30
0.0
 10
-253.9477065104984
 20
540.6346237764227
 30
0.0
 10
-253.4733797296139
 20
544.162597947241
 30
0.0
 10
-252.9334587800731
 20
547.1406504517581
 30
0.0
 10
-252.3730840009484
 20
549.432045856447
 30
0.0
 10
-251.8394529040015
 20
551.0778582731218
 30
0.0
 10
-251.3850470026264
 20
552.0692308307734
 30
0.0
 10
-251.3042174579023
 20
552.2121931314905
 30
0.0
 10
-251.274332615616
 20
552.2650501137214
 30
0.0
  0
LINE
  5
2F9DC
330
15759
100
AcDbEntity
  8
0
100
AcDbLine
 10
-238.8049515216371
 20
523.6750862007575
 30
0.0
 11
-254.8049541442415
 21
523.6750862007575
 31
0.0
  0
LINE
  5
2F9DD
330
15759
100
AcDbEntity
  8
0
100
AcDbLine
 10
-252.3485871284029
 20
523.6750862007575
 30
0.0
 11
-252.3485871284029
 21
473.6750742798285
 31
0.0
  0
LINE
  5
2F9DE
330
15759
100
AcDbEntity
  8
0
100
AcDbLine
 10
-254.8049541442415
 20
473.6750742798285
 30
0.0
 11
-254.8049541442415
 21
523.6750862007575
 31
0.0
  0
SPLINE
  5
2F9DF
330
15759
100
AcDbEntity
  8
0
100
AcDbSpline
210
0.0
220
0.0
230
1.0
 70
     8
 71
     3
 72
    17
 73
    13
 74
     0
 42
0.000000001
 43
0.0000000001
 40
0.0
 40
0.0
 40
0.0
 40
0.0
 40
0.1042005145024621
 40
0.2113494874941561
 40
0.3156607749807007
 40
0.4228439771210192
 40
0.5280419315547071
 40
0.6359929391220476
 40
0.7426387988460526
 40
0.8518619113341749
 40
0.9251343450933246
 40
1.0
 40
1.0
 40
1.0
 40
1.0
 10
267.1950606377104
 20
473.6750742798285
 30
0.0
 10
267.183676083132
 20
472.145160215452
 30
0.0
 10
267.1605848365361
 20
469.0420416276029
 30
0.0
 10
266.9753916581176
 20
464.5337695367343
 30
0.0
 10
266.6845064589907
 20
460.2381194934751
 30
0.0
 10
266.2923724534157
 20
456.3327924329423
 30
0.0
 10
265.8104304349217
 20
452.8537801397797
 30
0.0
 10
265.2653240267864
 20
449.9330289363606
 30
0.0
 10
264.6729911123366
 20
447.5905544265333
 30
0.0
 10
264.1595358691484
 20
446.1063288624027
 30
0.0
 10
263.7324889042393
 20
445.1977556746714
 30
0.0
 10
263.6715852188645
 20
445.0930332272946
 30
0.0
 10
263.6408058674315
 20
445.0401088600592
 30
0.0
  0
LINE
  5
2F9E0
330
15759
100
AcDbEntity
  8
0
100
AcDbLine
 10
257.1950403721312
 20
553.675057590528
 30
0.0
 11
257.1950403721312
 21
443.675102890058
 31
0.0
  0
SPLINE
  5
2F9E1
330
15759
100
AcDbEntity
  8
0
100
AcDbSpline
210
0.0
220
0.0
230
1.0
 70
     8
 71
     3
 72
    17
 73
    13
 74
     0
 42
0.000000001
 43
0.0000000001
 40
0.0
 40
0.0
 40
0.0
 40
0.0
 40
0.0724853345858403
 40
0.1447574013694164
 40
0.2518309643415194
 40
0.3614827265916791
 40
0.4671202738977331
 40
0.5754772471151532
 40
0.6802156706611335
 40
0.7878119816830579
 40
0.8924310026467381
 40
1.0
 40
1.0
 40
1.0
 40
1.0
 10
263.6400906116942
 20
552.3113033180671
 30
0.0
 10
263.674130550935
 20
552.2519659601166
 30
0.0
 10
263.7421102764311
 20
552.1334658277774
 30
0.0
 10
264.1571846477891
 20
551.2468342716638
 30
0.0
 10
264.6680914303688
 20
549.7757983188603
 30
0.0
 10
265.2559547483288
 20
547.4602605415712
 30
0.0
 10
265.8059117898774
 20
544.5243773040238
 30
0.0
 10
266.2847043612164
 20
541.0818856593396
 30
0.0
 10
266.6812873855924
 20
537.1499177869045
 30
0.0
 10
266.9710364242637
 20
532.8966376083881
 30
0.0
 10
267.1593713147377
 20
528.3518297940499
 30
0.0
 10
267.1830544439436
 20
525.2483827808318
 30
0.0
 10
267.1950606377104
 20
523.6750862007575
 30
0.0
  0
LINE
  5
2F9E2
330
15759
100
AcDbEntity
  8
0
100
AcDbLine
 10
264.7386936218718
 20
473.6750742798285
 30
0.0
 11
264.7386936218718
 21
523.6750862007575
 31
0.0
  0
LINE
  5
2F9E3
330
15759
100
AcDbEntity
  8
0
100
AcDbLine
 10
267.1950606377104
 20
523.6750862007575
 30
0.0
 11
267.1950606377104
 21
473.6750742798285
 31
0.0
  0
SPLINE
  5
2F9E4
330
15759
100
AcDbEntity
  8
0
100
AcDbSpline
210
0.0
220
0.0
230
1.0
 70
     8
 71
     3
 72
    17
 73
    13
 74
     0
 42
0.000000001
 43
0.0000000001
 40
0.0
 40
0.0
 40
0.0
 40
0.0
 40
0.0662716563747081
 40
0.1633371536501566
 40
0.2625934226202542
 40
0.3676628156792799
 40
0.4752436813234319
 40
0.5827976290587174
 40
0.6933330571526644
 40
0.7997499982890405
 40
0.9092085620851074
 40
1.0
 40
1.0
 40
1.0
 40
1.0
 10
-251.2506993739635
 20
-554.9598836893601
 30
0.0
 10
-251.2868483283428
 20
-554.8960146910685
 30
0.0
 10
-251.3759432391789
 20
-554.7385992746094
 30
0.0
 10
-251.8335469662424
 20
-553.7416864937549
 30
0.0
 10
-252.3654952053084
 20
-552.1096588571817
 30
0.0
 10
-252.9287130761813
 20
-549.8122881260788
 30
0.0
 10
-253.4647046014479
 20
-546.8674064314764
 30
0.0
 10
-253.9435979936579
 20
-543.320285660342
 30
0.0
 10
-254.3318812081934
 20
-539.3131947874389
 30
0.0
 10
-254.6141983297357
 20
-534.9178516454194
 30
0.0
 10
-254.7775155206118
 20
-530.5559116754412
 30
0.0
 10
-254.7963945655911
 20
-527.6447895210185
 30
0.0
 10
-254.8049541442424
 20
-526.3249145443005
 30
0.0
  0
LINE
  5
2F9E5
330
15759
100
AcDbEntity
  8
0
100
AcDbLine
 10
-254.8049541442424
 20
-526.3249145443005
 30
0.0
 11
-238.804951521638
 21
-526.3249145443005
 31
0.0
  0
LINE
  5
2F9E6
330
15759
100
AcDbEntity
  8
0
100
AcDbLine
 10
-244.8049338786632
 20
-556.3249120111031
 30
0.0
 11
-244.8049338786632
 21
-446.3249144697947
 31
0.0
  0
SPLINE
  5
2F9E7
330
15759
100
AcDbEntity
  8
0
100
AcDbSpline
210
0.0
220
0.0
230
1.0
 70
     8
 71
     3
 72
    17
 73
    13
 74
     0
 42
0.000000001
 43
0.0000000001
 40
0.0
 40
0.0
 40
0.0
 40
0.0
 40
0.0915335981918227
 40
0.198812804291128
 40
0.3091739767334966
 40
0.4175898139619089
 40
0.5290463274733919
 40
0.6349496423975033
 40
0.7434351693005966
 40
0.8413985264544695
 40
0.941360930938265
 40
1.0
 40
1.0
 40
1.0
 40
1.0
 10
-254.8049541442424
 20
-476.3249137992424
 30
0.0
 10
-254.7964066371724
 20
-475.0050069357858
 30
0.0
 10
-254.7778412810194
 20
-472.1381428540662
 30
0.0
 10
-254.616345631418
 20
-467.7753355169807
 30
0.0
 10
-254.3380972240493
 20
-463.4144546426214
 30
0.0
 10
-253.9477079125036
 20
-459.3653555696037
 30
0.0
 10
-253.4733781572477
 20
-455.8374018034083
 30
0.0
 10
-252.9334583897735
 20
-452.8593483041622
 30
0.0
 10
-252.3730852601593
 20
-450.5679159064238
 30
0.0
 10
-251.8394519819203
 20
-448.9221509963535
 30
0.0
 10
-251.3850475514855
 20
-447.9306978967943
 30
0.0
 10
-251.3042175564887
 20
-447.7878147398405
 30
0.0
 10
-251.2743326156169
 20
-447.7349871391815
 30
0.0
  0
LINE
  5
2F9E8
330
15759
100
AcDbEntity
  8
0
100
AcDbLine
 10
-238.804951521638
 20
-476.3249137992424
 30
0.0
 11
-254.8049541442424
 21
-476.3249137992424
 31
0.0
  0
LINE
  5
2F9E9
330
15759
100
AcDbEntity
  8
0
100
AcDbLine
 10
-252.3485871284038
 20
-476.3249137992424
 30
0.0
 11
-252.3485871284038
 21
-526.3249145443005
 31
0.0
  0
LINE
  5
2F9EA
330
15759
100
AcDbEntity
  8
0
100
AcDbLine
 10
-254.8049541442424
 20
-526.3249145443005
 30
0.0
 11
-254.8049541442424
 21
-476.3249137992424
 31
0.0
  0
SPLINE
  5
2F9EB
330
15759
100
AcDbEntity
  8
0
100
AcDbSpline
210
0.0
220
0.0
230
1.0
 70
     8
 71
     3
 72
    17
 73
    13
 74
     0
 42
0.000000001
 43
0.0000000001
 40
0.0
 40
0.0
 40
0.0
 40
0.0
 40
0.104200224397894
 40
0.211348995264888
 40
0.3156610207091542
 40
0.422843901300831
 40
0.5280424430230138
 40
0.6359933071587872
 40
0.7426388795738762
 40
0.8518619533211497
 40
0.9251343989545983
 40
1.0
 40
1.0
 40
1.0
 40
1.0
 10
267.1950606377095
 20
-526.3249145443005
 30
0.0
 10
267.1836761642726
 20
-527.8548251848551
 30
0.0
 10
267.1605850717451
 20
-530.9579382404662
 30
0.0
 10
266.9753899150773
 20
-535.4662104057133
 30
0.0
 10
266.6845091030254
 20
-539.7618800483069
 30
0.0
 10
266.2923695965064
 20
-543.667202216282
 30
0.0
 10
265.8104328807012
 20
-547.1462495286869
 30
0.0
 10
265.2653242616316
 20
-550.0669945400659
 30
0.0
 10
264.6729903205005
 20
-552.4094431790981
 30
0.0
 10
264.1595357795077
 20
-553.8936667340094
 30
0.0
 10
263.7324890222471
 20
-554.8022576058793
 30
0.0
 10
263.6715852495645
 20
-554.9069662971996
 30
0.0
 10
263.6408058674306
 20
-554.9598836893601
 30
0.0
  0
SPLINE
  5
2F9EC
330
15759
100
AcDbEntity
  8
0
100
AcDbSpline
210
0.0
220
0.0
230
1.0
 70
     8
 71
     3
 72
    17
 73
    13
 74
     0
 42
0.000000001
 43
0.0000000001
 40
0.0
 40
0.0
 40
0.0
 40
0.0
 40
0.0724855495733971
 40
0.1447576994587283
 40
0.2518311650242947
 40
0.3614829746045458
 40
0.4671208770913454
 40
0.5754780115229173
 40
0.6802159138965088
 40
0.7878122140491212
 40
0.8924299723423709
 40
1.0
 40
1.0
 40
1.0
 40
1.0
 10
263.6400906116933
 20
-447.6886519784493
 30
0.0
 10
263.6741305062305
 20
-447.7480242632045
 30
0.0
 10
263.742110080816
 20
-447.8665940388818
 30
0.0
 10
264.1571840579154
 20
-448.7532118871604
 30
0.0
 10
264.6680918913944
 20
-450.2242268392619
 30
0.0
 10
265.2559557051854
 20
-452.539764555906
 30
0.0
 10
265.8059113159825
 20
-455.4756699148929
 30
0.0
 10
266.2847025578622
 20
-458.9181620102499
 30
0.0
 10
266.6812888077357
 20
-462.8501068280493
 30
0.0
 10
266.9710344340556
 20
-467.1033651389661
 30
0.0
 10
267.1593730527411
 20
-471.648159292792
 30
0.0
 10
267.1830549435899
 20
-474.7516024048163
 30
0.0
 10
267.1950606377095
 20
-476.3249137992424
 30
0.0
  0
LINE
  5
2F9ED
330
15759
100
AcDbEntity
  8
0
100
AcDbLine
 10
257.1950403721303
 20
-446.3249144697947
 30
0.0
 11
257.1950403721303
 21
-556.3249120111031
 31
0.0
  0
LINE
  5
2F9EE
330
15759
100
AcDbEntity
  8
0
100
AcDbLine
 10
264.7386936218709
 20
-526.3249145443005
 30
0.0
 11
264.7386936218709
 21
-476.3249137992424
 31
0.0
  0
LINE
  5
2F9EF
330
15759
100
AcDbEntity
  8
0
100
AcDbLine
 10
267.1950606377095
 20
-476.3249137992424
 30
0.0
 11
267.1950606377095
 21
-526.3249145443005
 31
0.0
  0
LINE
  5
2F9F0
330
15759
100
AcDbEntity
  8
0
100
AcDbLine
 10
-84.81986841845809
 20
-312.3249092692895
 30
0.0
 11
-84.81986841845809
 21
-335.3249111766381
 31
0.0
  0
LINE
  5
2F9F1
330
15759
100
AcDbEntity
  8
0
100
AcDbLine
 10
-73.41986915755569
 20
-312.3249092692895
 30
0.0
 11
-73.41986915755569
 21
-335.3249111766381
 31
0.0
  0
LINE
  5
2F9F2
330
15759
100
AcDbEntity
  8
0
100
AcDbLine
 10
-85.41987112450897
 20
-312.8249177331491
 30
0.0
 11
-85.41987112450897
 21
-334.8249176139398
 31
0.0
  0
LINE
  5
2F9F3
330
15759
100
AcDbEntity
  8
0
100
AcDbLine
 10
-38.80494854140579
 20
-333.2999178762002
 30
0.0
 11
-38.80494854140579
 21
-314.3499174708886
 31
0.0
  0
LINE
  5
2F9F4
330
15759
100
AcDbEntity
  8
0
100
AcDbLine
 10
51.19505503487289
 20
-314.3499174708886
 30
0.0
 11
51.19505503487289
 21
-333.2999178762002
 31
0.0
  0
LINE
  5
2F9F5
330
15759
100
AcDbEntity
  8
0
100
AcDbLine
 10
-38.30494752812683
 20
-307.8249076003594
 30
0.0
 11
-38.30494752812683
 21
-339.8249128455682
 31
0.0
  0
LINE
  5
2F9F6
330
15759
100
AcDbEntity
  8
0
100
AcDbLine
 10
50.69505402159393
 20
-339.8249128455682
 30
0.0
 11
50.69505402159393
 21
-307.8249076003594
 31
0.0
  0
LINE
  5
2F9F7
330
15759
100
AcDbEntity
  8
0
100
AcDbLine
 10
57.91186892699897
 20
-313.8499090070291
 30
0.0
 11
57.91186892699897
 21
-333.7999114388986
 31
0.0
  0
LINE
  5
2F9F8
330
15759
100
AcDbEntity
  8
0
100
AcDbLine
 10
78.4118694932431
 20
-333.7999114388986
 30
0.0
 11
78.4118694932431
 21
-313.8499090070291
 31
0.0
  0
LINE
  5
2F9F9
330
15759
100
AcDbEntity
  8
0
100
AcDbLine
 10
-66.021762999776
 20
-313.8499090070291
 30
0.0
 11
-66.021762999776
 21
-333.7999114388986
 31
0.0
  0
LINE
  5
2F9FA
330
15759
100
AcDbEntity
  8
0
100
AcDbLine
 10
-45.52176243353187
 20
-333.7999114388986
 30
0.0
 11
-45.52176243353187
 21
-313.8499090070291
 31
0.0
  0
LINE
  5
2F9FB
330
15759
100
AcDbEntity
  8
0
100
AcDbLine
 10
-181.0549499719163
 20
571.5862533455329
 30
0.0
 11
-181.0549499719163
 21
624.586226642652
 31
0.0
  0
LINE
  5
2F9FC
330
15759
100
AcDbEntity
  8
0
100
AcDbLine
 10
-156.6549541680833
 20
571.5862533455329
 30
0.0
 11
-156.6549541680833
 21
624.586226642652
 31
0.0
  0
LINE
  5
2F9FD
330
15759
100
AcDbEntity
  8
0
100
AcDbLine
 10
193.4450564653852
 20
624.586226642652
 30
0.0
 11
193.4450564653852
 21
571.5862533455329
 31
0.0
  0
LINE
  5
2F9FE
330
15759
100
AcDbEntity
  8
0
100
AcDbLine
 10
169.0450606615522
 20
624.586226642652
 30
0.0
 11
169.0450606615522
 21
571.5862533455329
 31
0.0
  0
LINE
  5
2F9FF
330
15759
100
AcDbEntity
  8
0
100
AcDbLine
 10
-140.9549417226335
 20
571.5862533455329
 30
0.0
 11
-140.9549417226335
 21
624.586226642652
 31
0.0
  0
LINE
  5
2FA00
330
15759
100
AcDbEntity
  8
0
100
AcDbLine
 10
-116.5549459188005
 20
571.5862533455329
 30
0.0
 11
-116.5549459188005
 21
624.586226642652
 31
0.0
  0
LINE
  5
2FA01
330
15759
100
AcDbEntity
  8
0
100
AcDbLine
 10
153.3450482161024
 20
624.586226642652
 30
0.0
 11
153.3450482161024
 21
571.5862533455329
 31
0.0
  0
LINE
  5
2FA02
330
15759
100
AcDbEntity
  8
0
100
AcDbLine
 10
128.9450524122694
 20
624.586226642652
 30
0.0
 11
128.9450524122694
 21
571.5862533455329
 31
0.0
  0
LINE
  5
2FA03
330
15759
100
AcDbEntity
  8
0
100
AcDbLine
 10
-88.80494556117264
 20
576.1419555550055
 30
0.0
 11
101.1950520546415
 21
576.1419555550055
 31
0.0
  0
ARC
  5
2FA04
330
15759
100
AcDbEntity
  8
0
100
AcDbCircle
 10
-88.80494675326918
 20
536.1419008935772
 30
0.0
 40
40.00000000000002
100
AcDbArc
 50
90.0
 51
180.0
  0
ARC
  5
2FA05
330
15759
100
AcDbEntity
  8
0
100
AcDbCircle
 10
101.1950532467308
 20
536.1419008935772
 30
0.0
 40
40.00000000000011
100
AcDbArc
 50
0.0
 51
90.0
  0
LINE
  5
2FA06
330
15759
100
AcDbEntity
  8
0
100
AcDbLine
 10
-128.8049521176835
 20
376.1419078712898
 30
0.0
 11
-128.8049521176835
 21
536.1418744926886
 31
0.0
  0
LINE
  5
2FA07
330
15759
100
AcDbEntity
  8
0
100
AcDbLine
 10
141.1950586111525
 20
536.1418744926886
 30
0.0
 11
141.1950586111525
 21
376.1419078712898
 31
0.0
  0
ARC
  5
2FA08
330
15759
100
AcDbEntity
  8
0
100
AcDbCircle
 10
-88.80494675326918
 20
376.1419008935773
 30
0.0
 40
40.00000000000006
100
AcDbArc
 50
180.0
 51
270.0
  0
ARC
  5
2FA09
330
15759
100
AcDbEntity
  8
0
100
AcDbCircle
 10
101.1950532467308
 20
376.1419008935773
 30
0.0
 40
40.0
100
AcDbArc
 50
270.0
 51
0.0
  0
LINE
  5
2FA0A
330
15759
100
AcDbEntity
  8
0
100
AcDbLine
 10
101.1950520546406
 20
336.1418864136176
 30
0.0
 11
-88.80494556117355
 21
336.1418864136176
 31
0.0
  0
SPLINE
  5
2FA0B
330
15759
100
AcDbEntity
  8
0
100
AcDbSpline
210
0.0
220
0.0
230
1.0
 70
     8
 71
     3
 72
    12
 73
     8
 74
     0
 42
0.000000001
 43
0.0000000001
 40
0.0
 40
0.0
 40
0.0
 40
0.0
 40
0.1670099908203076
 40
0.3244357247804972
 40
0.4907771046758208
 40
0.7194504883958445
 40
0.9999999999999998
 40
0.9999999999999998
 40
0.9999999999999998
 40
0.9999999999999998
 10
149.1403279573887
 20
-205.2510359878106
 30
0.0
 10
149.2075340321344
 20
-205.2565634175044
 30
0.0
 10
149.338089404674
 20
-205.2673010724757
 30
0.0
 10
149.5125829194721
 20
-205.3705804079255
 30
0.0
 10
149.6511549051565
 20
-205.5467835138334
 30
0.0
 10
149.7418896955269
 20
-205.8066526998155
 30
0.0
 10
149.7510543818052
 20
-206.0105426813461
 30
0.0
 10
149.7561035425633
 20
-206.1228731269403
 30
0.0
  0
SPLINE
  5
2FA0C
330
15759
100
AcDbEntity
  8
0
100
AcDbSpline
210
0.0
220
0.0
230
1.0
 70
     8
 71
     3
 72
    10
 73
     6
 74
     0
 42
0.000000001
 43
0.0000000001
 40
0.0
 40
0.0
 40
0.0
 40
0.0
 40
0.6248069783983953
 40
0.8123028456236351
 40
1.0
 40
1.0
 40
1.0
 40
1.0
 10
148.4810558826893
 20
-205.8520892257257
 30
0.0
 10
148.5787481473408
 20
-205.6819497598663
 30
0.0
 10
148.7057564992237
 20
-205.4607538112796
 30
0.0
 10
148.9635316050653
 20
-205.270104046358
 30
0.0
 10
149.0813747660713
 20
-205.2573942802119
 30
0.0
 10
149.1403279573887
 20
-205.2510359878106
 30
0.0
  0
SPLINE
  5
2FA0D
330
15759
100
AcDbEntity
  8
0
100
AcDbSpline
210
0.0
220
0.0
230
1.0
 70
     8
 71
     3
 72
    10
 73
     6
 74
     0
 42
0.000000001
 43
0.0000000001
 40
0.0
 40
0.0
 40
0.0
 40
0.0
 40
0.2613047865712823
 40
0.5111494944504507
 40
1.0
 40
1.0
 40
1.0
 40
1.0
 10
147.5066391499012
 20
-206.6799381370111
 30
0.0
 10
147.6258864794135
 20
-206.6665850501813
 30
0.0
 10
147.8591512924858
 20
-206.6404645046205
 30
0.0
 10
148.2042149390936
 20
-206.325916531121
 30
0.0
 10
148.3708083919909
 20
-206.0407833934514
 30
0.0
 10
148.4810558826893
 20
-205.8520892257257
 30
0.0
  0
SPLINE
  5
2FA0E
330
15759
100
AcDbEntity
  8
0
100
AcDbSpline
210
0.0
220
0.0
230
1.0
 70
     8
 71
     3
 72
    12
 73
     8
 74
     0
 42
0.000000001
 43
0.0000000001
 40
0.0
 40
0.0
 40
0.0
 40
0.0
 40
0.229183058532298
 40
0.4297071263313147
 40
0.6086840579664257
 40
0.8038734185836197
 40
1.0
 40
1.0
 40
1.0
 40
1.0
 10
146.4219389231175
 20
-205.2659073466821
 30
0.0
 10
146.4299959825321
 20
-205.4178370163754
 30
0.0
 10
146.4451025784137
 20
-205.7026977830755
 30
0.0
 10
146.5798754561719
 20
-206.0887322124145
 30
0.0
 10
146.7976341432431
 20
-206.404074109214
 30
0.0
 10
147.1148538982552
 20
-206.6361951300824
 30
0.0
 10
147.3758357112883
 20
-206.6653338717988
 30
0.0
 10
147.5066391499012
 20
-206.6799381370111
 30
0.0
  0
SPLINE
  5
2FA0F
330
15759
100
AcDbEntity
  8
0
100
AcDbSpline
210
0.0
220
0.0
230
1.0
 70
     8
 71
     3
 72
     9
 73
     5
 74
     0
 42
0.000000001
 43
0.0000000001
 40
0.0
 40
0.0
 40
0.0
 40
0.0
 40
0.5771307628599797
 40
1.0
 40
1.0
 40
1.0
 40
1.0
 10
146.6198561460942
 20
-204.1958549613519
 30
0.0
 10
146.5563060426129
 20
-204.3973482228284
 30
0.0
 10
146.4461921696956
 20
-204.746477526689
 30
0.0
 10
146.4291468601577
 20
-205.111535542168
 30
0.0
 10
146.4219389231175
 20
-205.2659073466821
 30
0.0
  0
LINE
  5
2FA10
330
15759
100
AcDbEntity
  8
0
100
AcDbLine
 10
147.1694109709233
 20
-204.379198848681
 30
0.0
 11
146.6198561460942
 21
-204.1958549613519
 31
0.0
  0
SPLINE
  5
2FA11
330
15759
100
AcDbEntity
  8
0
100
AcDbSpline
210
0.0
220
0.0
230
1.0
 70
     8
 71
     3
 72
     9
 73
     5
 74
     0
 42
0.000000001
 43
0.0000000001
 40
0.0
 40
0.0
 40
0.0
 40
0.0
 40
0.5414638344798907
 40
0.9999999999999998
 40
0.9999999999999998
 40
0.9999999999999998
 40
0.9999999999999998
 10
146.9424215824574
 20
-205.2069881553216
 30
0.0
 10
146.9554481345721
 20
-205.0495986849746
 30
0.0
 10
146.97950616262
 20
-204.7589246633251
 30
0.0
 10
147.1097084934181
 20
-204.4985774579436
 30
0.0
 10
147.1694109709233
 20
-204.379198848681
 30
0.0
  0
SPLINE
  5
2FA12
330
15759
100
AcDbEntity
  8
0
100
AcDbSpline
210
0.0
220
0.0
230
1.0
 70
     8
 71
     3
 72
    12
 73
     8
 74
     0
 42
0.000000001
 43
0.0000000001
 40
0.0
 40
0.0
 40
0.0
 40
0.0
 40
0.1457105424993797
 40
0.2954696340012768
 40
0.4654801475757725
 40
0.7060113536914854
 40
1.0
 40
1.0
 40
1.0
 40
1.0
 10
147.4257109434575
 20
-206.0058096046014
 30
0.0
 10
147.3751623607922
 20
-205.9999361911323
 30
0.0
 10
147.2726607094873
 20
-205.9880261721446
 30
0.0
 10
147.1392482974834
 20
-205.8882257129662
 30
0.0
 10
147.030401186511
 20
-205.7270905515324
 30
0.0
 10
146.9551822208368
 20
-205.4924907632849
 30
0.0
 10
146.9469495780167
 20
-205.308296138719
 30
0.0
 10
146.9424215824574
 20
-205.2069881553216
 30
0.0
  0
SPLINE
  5
2FA13
330
15759
100
AcDbEntity
  8
0
100
AcDbSpline
210
0.0
220
0.0
230
1.0
 70
     8
 71
     3
 72
    10
 73
     6
 74
     0
 42
0.000000001
 43
0.0000000001
 40
0.0
 40
0.0
 40
0.0
 40
0.0
 40
0.6562308522779459
 40
0.8326436138209151
 40
1.0
 40
1.0
 40
1.0
 40
1.0
 10
148.1952665121525
 20
-205.1413932437463
 30
0.0
 10
148.0733172887876
 20
-205.3731136565584
 30
0.0
 10
147.918584786209
 20
-205.6671268399477
 30
0.0
 10
147.6346378897278
 20
-205.9746124400772
 30
0.0
 10
147.4941193018412
 20
-205.9955948053648
 30
0.0
 10
147.4257109434575
 20
-206.0058096046014
 30
0.0
  0
SPLINE
  5
2FA14
330
15759
100
AcDbEntity
  8
0
100
AcDbSpline
210
0.0
220
0.0
230
1.0
 70
     8
 71
     3
 72
    10
 73
     6
 74
     0
 42
0.000000001
 43
0.0000000001
 40
0.0
 40
0.0
 40
0.0
 40
0.0
 40
0.2614052171012697
 40
0.5213176481257672
 40
1.0
 40
1.0
 40
1.0
 40
1.0
 10
149.1186169655293
 20
-204.5475521678491
 30
0.0
 10
149.0183061587331
 20
-204.5558298535179
 30
0.0
 10
148.8182573821241
 20
-204.5723379541268
 30
0.0
 10
148.4721759796366
 20
-204.7605997834507
 30
0.0
 10
148.3041584574339
 20
-204.9916499322644
 30
0.0
 10
148.1952665121525
 20
-205.1413932437463
 30
0.0
  0
SPLINE
  5
2FA15
330
15759
100
AcDbEntity
  8
0
100
AcDbSpline
210
0.0
220
0.0
230
1.0
 70
     8
 71
     3
 72
    12
 73
     8
 74
     0
 42
0.000000001
 43
0.0000000001
 40
0.0
 40
0.0
 40
0.0
 40
0.0
 40
0.2358829283311121
 40
0.4364899663350455
 40
0.611584702853023
 40
0.8024824101136736
 40
0.9999999999999998
 40
0.9999999999999998
 40
0.9999999999999998
 40
0.9999999999999998
 10
150.2979991705388
 20
-206.1083891982598
 30
0.0
 10
150.2900138359318
 20
-205.9356813839913
 30
0.0
 10
150.2752373599096
 20
-205.6160939150286
 30
0.0
 10
150.1354033007983
 20
-205.1847977698162
 30
0.0
 10
149.9018163023638
 20
-204.8374502866391
 30
0.0
 10
149.550733905703
 20
-204.58994546346
 30
0.0
 10
149.2642833011478
 20
-204.5618429198476
 30
0.0
 10
149.1186169655293
 20
-204.5475521678491
 30
0.0
  0
SPLINE
  5
2FA16
330
15759
100
AcDbEntity
  8
0
100
AcDbSpline
210
0.0
220
0.0
230
1.0
 70
     8
 71
     3
 72
     9
 73
     5
 74
     0
 42
0.000000001
 43
0.0000000001
 40
0.0
 40
0.0
 40
0.0
 40
0.0
 40
0.5493886784328132
 40
1.0
 40
1.0
 40
1.0
 40
1.0
 10
150.085627821204
 20
-207.2732725734277
 30
0.0
 10
150.1533821000512
 20
-207.0649361515461
 30
0.0
 10
150.2767087747806
 20
-206.6857211621173
 30
0.0
 10
150.291385618565
 20
-206.2877289809767
 30
0.0
 10
150.2979991705388
 20
-206.1083891982598
 30
0.0
  0
LINE
  5
2FA17
330
15759
100
AcDbEntity
  8
0
100
AcDbLine
 10
149.5068220169514
 20
-207.0901671046777
 30
0.0
 11
150.085627821204
 21
-207.2732725734277
 31
0.0
  0
SPLINE
  5
2FA18
330
15759
100
AcDbEntity
  8
0
100
AcDbSpline
210
0.0
220
0.0
230
1.0
 70
     8
 71
     3
 72
     9
 73
     5
 74
     0
 42
0.000000001
 43
0.0000000001
 40
0.0
 40
0.0
 40
0.0
 40
0.0
 40
0.566527899538881
 40
1.0
 40
1.0
 40
1.0
 40
1.0
 10
149.7561035425633
 20
-206.1228731269403
 30
0.0
 10
149.744265594737
 20
-206.3152997537218
 30
0.0
 10
149.7233699815942
 20
-206.6549593308337
 30
0.0
 10
149.5723046315425
 20
-206.9585632682283
 30
0.0
 10
149.5068220169514
 20
-207.0901671046777
 30
0.0
  0
SPLINE
  5
2FA19
330
15759
100
AcDbEntity
  8
0
100
AcDbSpline
210
0.0
220
0.0
230
1.0
 70
     8
 71
     3
 72
    12
 73
     8
 74
     0
 42
0.000000001
 43
0.0000000001
 40
0.0
 40
0.0
 40
0.0
 40
0.0
 40
0.1670100676473528
 40
0.3244321442533792
 40
0.4907889350699332
 40
0.7194570061925124
 40
1.0
 40
1.0
 40
1.0
 40
1.0
 10
149.1403279573887
 20
-207.9382517928643
 30
0.0
 10
149.2075332817903
 20
-207.9437919340962
 30
0.0
 10
149.3380856958347
 20
-207.9545541589432
 30
0.0
 10
149.5125942463228
 20
-208.057824724834
 30
0.0
 10
149.6511438515035
 20
-208.2340589716623
 30
0.0
 10
149.7418927158824
 20
-208.4939254465971
 30
0.0
 10
149.7510554547216
 20
-208.697817145101
 30
0.0
 10
149.7561035425633
 20
-208.8101485366387
 30
0.0
  0
SPLINE
  5
2FA1A
330
15759
100
AcDbEntity
  8
0
100
AcDbSpline
210
0.0
220
0.0
230
1.0
 70
     8
 71
     3
 72
    10
 73
     6
 74
     0
 42
0.000000001
 43
0.0000000001
 40
0.0
 40
0.0
 40
0.0
 40
0.0
 40
0.6247770751495599
 40
0.8122557709791076
 40
0.9999999999999998
 40
0.9999999999999998
 40
0.9999999999999998
 40
0.9999999999999998
 10
148.4810558826893
 20
-208.5389176005883
 30
0.0
 10
148.5787384713321
 20
-208.368829000512
 30
0.0
 10
148.7057329618574
 20
-208.1477014135926
 30
0.0
 10
148.9635642978528
 20
-207.9573016957329
 30
0.0
 10
149.0813789463309
 20
-207.9446047555575
 30
0.0
 10
149.1403279573887
 20
-207.9382517928643
 30
0.0
  0
SPLINE
  5
2FA1B
330
15759
100
AcDbEntity
  8
0
100
AcDbSpline
210
0.0
220
0.0
230
1.0
 70
     8
 71
     3
 72
    10
 73
     6
 74
     0
 42
0.000000001
 43
0.0000000001
 40
0.0
 40
0.0
 40
0.0
 40
0.0
 40
0.2612819961284818
 40
0.5111187680127821
 40
1.0
 40
1.0
 40
1.0
 40
1.0
 10
147.5066391499012
 20
-209.3669155234857
 30
0.0
 10
147.625887544239
 20
-209.3535638402718
 30
0.0
 10
147.8591607636144
 20
-209.3274453323902
 30
0.0
 10
148.2042316500874
 20
-209.0128366260069
 30
0.0
 10
148.370812923974
 20
-208.7276519287334
 30
0.0
 10
148.4810558826893
 20
-208.5389176005883
 30
0.0
  0
SPLINE
  5
2FA1C
330
15759
100
AcDbEntity
  8
0
100
AcDbSpline
210
0.0
220
0.0
230
1.0
 70
     8
 71
     3
 72
    12
 73
     8
 74
     0
 42
0.000000001
 43
0.0000000001
 40
0.0
 40
0.0
 40
0.0
 40
0.0
 40
0.2292620196750775
 40
0.429807260606512
 40
0.6087647829684418
 40
0.8039110668294458
 40
1.0
 40
1.0
 40
1.0
 40
1.0
 10
146.4219389231175
 20
-207.9525569076104
 30
0.0
 10
146.4299935385961
 20
-208.1045656891401
 30
0.0
 10
146.4450938688596
 20
-208.3895430180055
 30
0.0
 10
146.5798555706196
 20
-208.7757130769569
 30
0.0
 10
146.7976171822984
 20
-209.0911090955633
 30
0.0
 10
147.1148614417861
 20
-209.3232027867634
 30
0.0
 10
147.3758369807792
 20
-209.3523212250802
 30
0.0
 10
147.5066391499012
 20
-209.3669155234857
 30
0.0
  0
SPLINE
  5
2FA1D
330
15759
100
AcDbEntity
  8
0
100
AcDbSpline
210
0.0
220
0.0
230
1.0
 70
     8
 71
     3
 72
    12
 73
     8
 74
     0
 42
0.000000001
 43
0.0000000001
 40
0.0
 40
0.0
 40
0.0
 40
0.0
 40
0.1457594723559399
 40
0.2955688532242759
 40
0.4656128664275731
 40
0.7061427388932852
 40
0.9999999999999998
 40
0.9999999999999998
 40
0.9999999999999998
 40
0.9999999999999998
 10
147.4257109434575
 20
-208.6928465957208
 30
0.0
 10
147.3751621576912
 20
-208.6869733527783
 30
0.0
 10
147.2726600945343
 20
-208.6750636795768
 30
0.0
 10
147.1392577395409
 20
-208.5752655075048
 30
0.0
 10
147.0304110248389
 20
-208.4141774532836
 30
0.0
 10
146.9551937595051
 20
-208.1796979924838
 30
0.0
 10
146.9469530915039
 20
-207.9956112874206
 30
0.0
 10
146.9424215824574
 20
-207.8943827743096
 30
0.0
  0
SPLINE
  5
2FA1E
330
15759
100
AcDbEntity
  8
0
100
AcDbSpline
210
0.0
220
0.0
230
1.0
 70
     8
 71
     3
 72
    10
 73
     6
 74
     0
 42
0.000000001
 43
0.0000000001
 40
0.0
 40
0.0
 40
0.0
 40
0.0
 40
0.6563072633108443
 40
0.8326678919398272
 40
0.9999999999999998
 40
0.9999999999999998
 40
0.9999999999999998
 40
0.9999999999999998
 10
148.1952665121525
 20
-207.8283110255761
 30
0.0
 10
148.0733531684918
 20
-208.0601290065351
 30
0.0
 10
147.918679690777
 20
-208.3542403173597
 30
0.0
 10
147.6346210049805
 20
-208.6616802096068
 30
0.0
 10
147.4941173259422
 20
-208.6826413441704
 30
0.0
 10
147.4257109434575
 20
-208.6928465957208
 30
0.0
  0
SPLINE
  5
2FA1F
330
15759
100
AcDbEntity
  8
0
100
AcDbSpline
210
0.0
220
0.0
230
1.0
 70
     8
 71
     3
 72
    10
 73
     6
 74
     0
 42
0.000000001
 43
0.0000000001
 40
0.0
 40
0.0
 40
0.0
 40
0.0
 40
0.2614241236453478
 40
0.5213270442851387
 40
0.9999999999999998
 40
0.9999999999999998
 40
0.9999999999999998
 40
0.9999999999999998
 10
149.1186169655293
 20
-207.234708368258
 30
0.0
 10
149.0183087537361
 20
-207.2429678675653
 30
0.0
 10
148.8182760144436
 20
-207.2594388049111
 30
0.0
 10
148.4721681377295
 20
-207.4475704617471
 30
0.0
 10
148.3041557680435
 20
-207.6785879728632
 30
0.0
 10
148.1952665121525
 20
-207.8283110255761
 30
0.0
  0
SPLINE
  5
2FA20
330
15759
100
AcDbEntity
  8
0
100
AcDbSpline
210
0.0
220
0.0
230
1.0
 70
     8
 71
     3
 72
     9
 73
     5
 74
     0
 42
0.000000001
 43
0.0000000001
 40
0.0
 40
0.0
 40
0.0
 40
0.0
 40
0.5493309565295482
 40
1.0
 40
1.0
 40
1.0
 40
1.0
 10
150.085627821204
 20
-209.9604883784814
 30
0.0
 10
150.153382041989
 20
-209.7521418230936
 30
0.0
 10
150.2767215697959
 20
-209.3728685399947
 30
0.0
 10
150.2913890095106
 20
-208.9748161012139
 30
0.0
 10
150.2979991705388
 20
-208.7954261893792
 30
0.0
  0
LINE
  5
2FA21
330
15759
100
AcDbEntity
  8
0
100
AcDbLine
 10
149.5068220169514
 20
-209.7770848865075
 30
0.0
 11
150.085627821204
 21
-209.9604883784814
 31
0.0
  0
SPLINE
  5
2FA22
330
15759
100
AcDbEntity
  8
0
100
AcDbSpline
210
0.0
220
0.0
230
1.0
 70
     8
 71
     3
 72
     9
 73
     5
 74
     0
 42
0.000000001
 43
0.0000000001
 40
0.0
 40
0.0
 40
0.0
 40
0.0
 40
0.5666284236743388
 40
1.0
 40
1.0
 40
1.0
 40
1.0
 10
149.7561035425633
 20
-208.8101485366387
 30
0.0
 10
149.7442767573293
 20
-209.0025504268306
 30
0.0
 10
149.7234045512405
 20
-209.3421060900328
 30
0.0
 10
149.5723044890756
 20
-209.6455715721604
 30
0.0
 10
149.5068220169514
 20
-209.7770848865075
 30
0.0
  0
SPLINE
  5
2FA23
330
15759
100
AcDbEntity
  8
0
100
AcDbSpline
210
0.0
220
0.0
230
1.0
 70
     8
 71
     3
 72
    12
 73
     8
 74
     0
 42
0.000000001
 43
0.0000000001
 40
0.0
 40
0.0
 40
0.0
 40
0.0
 40
0.2359165181382069
 40
0.4365033025214784
 40
0.6115917146030398
 40
0.8024794582194413
 40
1.0
 40
1.0
 40
1.0
 40
1.0
 10
150.2979991705388
 20
-208.7954261893792
 30
0.0
 10
150.290018492512
 20
-208.6226973590892
 30
0.0
 10
150.2752522847795
 20
-208.3031067451775
 30
0.0
 10
150.1353949176509
 20
-207.8718272544393
 30
0.0
 10
149.9018215147543
 20
-207.5245120149229
 30
0.0
 10
149.5507174241893
 20
-207.277076483253
 30
0.0
 10
149.2642809314229
 20
-207.2489909442993
 30
0.0
 10
149.1186169655293
 20
-207.234708368258
 30
0.0
  0
SPLINE
  5
2FA24
330
15759
100
AcDbEntity
  8
0
100
AcDbSpline
210
0.0
220
0.0
230
1.0
 70
     8
 71
     3
 72
     9
 73
     5
 74
     0
 42
0.000000001
 43
0.0000000001
 40
0.0
 40
0.0
 40
0.0
 40
0.0
 40
0.5416324629941488
 40
1.0
 40
1.0
 40
1.0
 40
1.0
 10
146.9424215824574
 20
-207.8943827743096
 30
0.0
 10
146.9554335482889
 20
-207.7368610218
 30
0.0
 10
146.9794571560296
 20
-207.4460332681592
 30
0.0
 10
147.1097081456273
 20
-207.1855455476871
 30
0.0
 10
147.1694109709233
 20
-207.0661464328332
 30
0.0
  0
SPLINE
  5
2FA25
330
15759
100
AcDbEntity
  8
0
100
AcDbSpline
210
0.0
220
0.0
230
1.0
 70
     8
 71
     3
 72
     9
 73
     5
 74
     0
 42
0.000000001
 43
0.0000000001
 40
0.0
 40
0.0
 40
0.0
 40
0.0
 40
0.5772835840811366
 40
1.0
 40
1.0
 40
1.0
 40
1.0
 10
146.6198561460942
 20
-206.883100568728
 30
0.0
 10
146.5563064540793
 20
-207.0845335154154
 30
0.0
 10
146.4462224437839
 20
-207.4334659157866
 30
0.0
 10
146.4291540242475
 20
-207.7983249882018
 30
0.0
 10
146.4219389231175
 20
-207.9525569076104
 30
0.0
  0
LINE
  5
2FA26
330
15759
100
AcDbEntity
  8
0
100
AcDbLine
 10
147.1694109709233
 20
-207.0661464328332
 30
0.0
 11
146.6198561460942
 21
-206.883100568728
 31
0.0
  0
LINE
  5
2FA27
330
15759
100
AcDbEntity
  8
0
100
AcDbLine
 10
148.0485794813603
 20
-212.2535088653131
 30
0.0
 11
148.0485794813603
 21
-210.2679291362329
 31
0.0
  0
SPLINE
  5
2FA28
330
15759
100
AcDbEntity
  8
0
100
AcDbSpline
210
0.0
220
0.0
230
1.0
 70
     8
 71
     3
 72
     9
 73
     5
 74
     0
 42
0.000000001
 43
0.0000000001
 40
0.0
 40
0.0
 40
0.0
 40
0.0
 40
0.5717604723340907
 40
1.0
 40
1.0
 40
1.0
 40
1.0
 10
148.0485794813603
 20
-210.2679291362329
 30
0.0
 10
148.0013296142451
 20
-210.2608135032133
 30
0.0
 10
147.9186903458821
 20
-210.2483683738865
 30
0.0
 10
147.8351692839742
 20
-210.2467063648983
 30
0.0
 10
147.7994022638768
 20
-210.2459946269555
 30
0.0
  0
SPLINE
  5
2FA29
330
15759
100
AcDbEntity
  8
0
100
AcDbSpline
210
0.0
220
0.0
230
1.0
 70
     8
 71
     3
 72
     9
 73
     5
 74
     0
 42
0.000000001
 43
0.0000000001
 40
0.0
 40
0.0
 40
0.0
 40
0.0
 40
0.5507552582483316
 40
0.9999999999999998
 40
0.9999999999999998
 40
0.9999999999999998
 40
0.9999999999999998
 10
147.1036223442524
 20
-212.4807515735192
 30
0.0
 10
147.3623197778133
 20
-212.6518082654838
 30
0.0
 10
147.8320337382129
 20
-212.9623939374396
 30
0.0
 10
148.3911713297157
 20
-213.0041546443899
 30
0.0
 10
148.6423609526127
 20
-213.0229154223962
 30
0.0
  0
SPLINE
  5
2FA2A
330
15759
100
AcDbEntity
  8
0
100
AcDbSpline
210
0.0
220
0.0
230
1.0
 70
     8
 71
     3
 72
    10
 73
     6
 74
     0
 42
0.000000001
 43
0.0000000001
 40
0.0
 40
0.0
 40
0.0
 40
0.0
 40
0.2876627855642311
 40
0.5633088429941833
 40
1.0
 40
1.0
 40
1.0
 40
1.0
 10
146.4219389231175
 20
-211.0080698127313
 30
0.0
 10
146.4323110963623
 20
-211.168479999731
 30
0.0
 10
146.4526221591905
 20
-211.4825994527055
 30
0.0
 10
146.6492350107682
 20
-212.0178310721239
 30
0.0
 10
146.9309312816795
 20
-212.3048174587675
 30
0.0
 10
147.1036223442524
 20
-212.4807515735192
 30
0.0
  0
SPLINE
  5
2FA2B
330
15759
100
AcDbEntity
  8
0
100
AcDbSpline
210
0.0
220
0.0
230
1.0
 70
     8
 71
     3
 72
    12
 73
     8
 74
     0
 42
0.000000001
 43
0.0000000001
 40
0.0
 40
0.0
 40
0.0
 40
0.0
 40
0.2073993536393366
 40
0.3914528038192118
 40
0.5636505748006356
 40
0.7696318988194915
 40
1.0
 40
1.0
 40
1.0
 40
1.0
 10
147.8652802975148
 20
-209.6304276580377
 30
0.0
 10
147.7093232911566
 20
-209.639508676195
 30
0.0
 10
147.414964575265
 20
-209.6566485079129
 30
0.0
 10
147.0152951609152
 20
-209.8176697038907
 30
0.0
 10
146.6877053441776
 20
-210.0923924688832
 30
0.0
 10
146.4593913816306
 20
-210.5051528484109
 30
0.0
 10
146.434879713498
 20
-210.8342990304481
 30
0.0
 10
146.4219389231175
 20
-211.0080698127313
 30
0.0
  0
SPLINE
  5
2FA2C
330
15759
100
AcDbEntity
  8
0
100
AcDbSpline
210
0.0
220
0.0
230
1.0
 70
     8
 71
     3
 72
    12
 73
     8
 74
     0
 42
0.000000001
 43
0.0000000001
 40
0.0
 40
0.0
 40
0.0
 40
0.0
 40
0.2121621690898627
 40
0.3957596071006258
 40
0.5645433996500966
 40
0.7674681626875561
 40
1.0
 40
1.0
 40
1.0
 40
1.0
 10
149.763077286002
 20
-211.2426140899224
 30
0.0
 10
149.7567653605611
 20
-211.3651534992641
 30
0.0
 10
149.7449913240225
 20
-211.593734064325
 30
0.0
 10
149.627662652626
 20
-211.9036432593348
 30
0.0
 10
149.4203987480823
 20
-212.1544474946932
 30
0.0
 10
149.1023661345489
 20
-212.3233463044853
 30
0.0
 10
148.850032333622
 20
-212.3399891131048
 30
0.0
 10
148.7152872354954
 20
-212.3488762969537
 30
0.0
  0
SPLINE
  5
2FA2D
330
15759
100
AcDbEntity
  8
0
100
AcDbSpline
210
0.0
220
0.0
230
1.0
 70
     8
 71
     3
 72
     9
 73
     5
 74
     0
 42
0.000000001
 43
0.0000000001
 40
0.0
 40
0.0
 40
0.0
 40
0.0
 40
0.567654674113337
 40
0.9999999999999998
 40
0.9999999999999998
 40
0.9999999999999998
 40
0.9999999999999998
 10
149.514019277808
 20
-210.2164903277917
 30
0.0
 10
149.5944619237734
 20
-210.4031327467528
 30
0.0
 10
149.7361724559623
 20
-210.7319284520818
 30
0.0
 10
149.7549562154045
 20
-211.0884665219237
 30
0.0
 10
149.763077286002
 20
-211.2426140899224
 30
0.0
  0
LINE
  5
2FA2E
330
15759
100
AcDbEntity
  8
0
100
AcDbLine
 10
148.5323307783574
 20
-212.3413363093896
 30
0.0
 11
148.5323307783574
 21
-209.7108641261621
 31
0.0
  0
SPLINE
  5
2FA2F
330
15759
100
AcDbEntity
  8
0
100
AcDbSpline
210
0.0
220
0.0
230
1.0
 70
     8
 71
     3
 72
     9
 73
     5
 74
     0
 42
0.000000001
 43
0.0000000001
 40
0.0
 40
0.0
 40
0.0
 40
0.0
 40
0.3959020470245808
 40
1.0
 40
1.0
 40
1.0
 40
1.0
 10
148.7152872354954
 20
-212.3488762969537
 30
0.0
 10
148.6911158220346
 20
-212.3486088300706
 30
0.0
 10
148.6300617970837
 20
-212.3479332415409
 30
0.0
 10
148.5691359549009
 20
-212.3438206920946
 30
0.0
 10
148.5323307783574
 20
-212.3413363093896
 30
0.0
  0
LINE
  5
2FA30
330
15759
100
AcDbEntity
  8
0
100
AcDbLine
 10
150.0930635006398
 20
-210.2750518912835
 30
0.0
 11
149.514019277808
 21
-210.2164903277917
 31
0.0
  0
SPLINE
  5
2FA31
330
15759
100
AcDbEntity
  8
0
100
AcDbSpline
210
0.0
220
0.0
230
1.0
 70
     8
 71
     3
 72
    12
 73
     8
 74
     0
 42
0.000000001
 43
0.0000000001
 40
0.0
 40
0.0
 40
0.0
 40
0.0
 40
0.2043759403956638
 40
0.3865571007435862
 40
0.5582765544714365
 40
0.7657981188001893
 40
1.0
 40
1.0
 40
1.0
 40
1.0
 10
148.6423609526127
 20
-213.0229154223962
 30
0.0
 10
148.8216435851054
 20
-213.0122669467455
 30
0.0
 10
149.1607391483912
 20
-212.9921263966025
 30
0.0
 10
149.62149507497
 20
-212.8028898400953
 30
0.0
 10
149.9997454507784
 20
-212.4787494896554
 30
0.0
 10
150.262706044984
 20
-211.9909267378935
 30
0.0
 10
150.2906978801175
 20
-211.6023746730134
 30
0.0
 10
150.3055391581028
 20
-211.3963642711206
 30
0.0
  0
SPLINE
  5
2FA32
330
15759
100
AcDbEntity
  8
0
100
AcDbSpline
210
0.0
220
0.0
230
1.0
 70
     8
 71
     3
 72
    12
 73
     8
 74
     0
 42
0.000000001
 43
0.0000000001
 40
0.0
 40
0.0
 40
0.0
 40
0.0
 40
0.2169064539900045
 40
0.4062040546802339
 40
0.5790340320406238
 40
0.7800084676541528
 40
0.9999999999999998
 40
0.9999999999999998
 40
0.9999999999999998
 40
0.9999999999999998
 10
147.7994022638768
 20
-210.2459946269555
 30
0.0
 10
147.7002348764354
 20
-210.2513156720561
 30
0.0
 10
147.5145225837395
 20
-210.2612804751116
 30
0.0
 10
147.2629076187468
 20
-210.3556955518215
 30
0.0
 10
147.0579658613778
 20
-210.516189461312
 30
0.0
 10
146.9147733229647
 20
-210.7576114400108
 30
0.0
 10
146.8992754717028
 20
-210.9509188201518
 30
0.0
 10
146.8911764891118
 20
-211.051938831286
 30
0.0
  0
SPLINE
  5
2FA33
330
15759
100
AcDbEntity
  8
0
100
AcDbSpline
210
0.0
220
0.0
230
1.0
 70
     8
 71
     3
 72
    11
 73
     7
 74
     0
 42
0.000000001
 43
0.0000000001
 40
0.0
 40
0.0
 40
0.0
 40
0.0
 40
0.2472040435590635
 40
0.5123818011169402
 40
0.7434107057207795
 40
0.9999999999999998
 40
0.9999999999999998
 40
0.9999999999999998
 40
0.9999999999999998
 10
146.8911764891118
 20
-211.051938831286
 30
0.0
 10
146.9121508454072
 20
-211.2004041442924
 30
0.0
 10
146.9556245616977
 20
-211.5081293877229
 30
0.0
 10
147.24879717165
 20
-211.8650658402548
 30
0.0
 10
147.6206896199064
 20
-212.1242109431296
 30
0.0
 10
147.9010507899829
 20
-212.2089292784258
 30
0.0
 10
148.0485794813603
 20
-212.2535088653131
 30
0.0
  0
SPLINE
  5
2FA34
330
15759
100
AcDbEntity
  8
0
100
AcDbSpline
210
0.0
220
0.0
230
1.0
 70
     8
 71
     3
 72
     9
 73
     5
 74
     0
 42
0.000000001
 43
0.0000000001
 40
0.0
 40
0.0
 40
0.0
 40
0.0
 40
0.54860561694875
 40
1.0
 40
1.0
 40
1.0
 40
1.0
 10
150.3055391581028
 20
-211.3963642711206
 30
0.0
 10
150.2929047339157
 20
-211.1861095890599
 30
0.0
 10
150.2698746667838
 20
-210.8028567101865
 30
0.0
 10
150.1480530804465
 20
-210.4392030919371
 30
0.0
 10
150.0930635006398
 20
-210.2750518912835
 30
0.0
  0
SPLINE
  5
2FA35
330
15759
100
AcDbEntity
  8
0
100
AcDbSpline
210
0.0
220
0.0
230
1.0
 70
     8
 71
     3
 72
     9
 73
     5
 74
     0
 42
0.000000001
 43
0.0000000001
 40
0.0
 40
0.0
 40
0.0
 40
0.0
 40
0.5993091140270789
 40
1.0
 40
1.0
 40
1.0
 40
1.0
 10
148.5323307783574
 20
-209.7108641261621
 30
0.0
 10
148.4002382696881
 20
-209.6841262357957
 30
0.0
 10
148.179830293945
 20
-209.6395117125976
 30
0.0
 10
147.9552625469978
 20
-209.633026302683
 30
0.0
 10
147.8652802975148
 20
-209.6304276580377
 30
0.0
  0
LINE
  5
2FA36
330
15759
100
AcDbEntity
  8
0
100
AcDbLine
 10
150.2026764423817
 20
-216.1782363051934
 30
0.0
 11
148.3931837351292
 21
-215.7969155902429
 31
0.0
  0
LINE
  5
2FA37
330
15759
100
AcDbEntity
  8
0
100
AcDbLine
 10
150.2026764423817
 20
-216.8740013236566
 30
0.0
 11
150.2026764423817
 21
-216.1782363051934
 31
0.0
  0
LINE
  5
2FA38
330
15759
100
AcDbEntity
  8
0
100
AcDbLine
 10
146.4877722532719
 20
-216.0827496642633
 30
0.0
 11
150.2026764423817
 21
-216.8740013236566
 31
0.0
  0
LINE
  5
2FA39
330
15759
100
AcDbEntity
  8
0
100
AcDbLine
 10
146.4877722532719
 20
-215.4524305457635
 30
0.0
 11
146.4877722532719
 21
-216.0827496642633
 31
0.0
  0
LINE
  5
2FA3A
330
15759
100
AcDbEntity
  8
0
100
AcDbLine
 10
147.1474317581624
 20
-215.591756402926
 30
0.0
 11
146.4877722532719
 21
-215.4524305457635
 31
0.0
  0
LINE
  5
2FA3B
330
15759
100
AcDbEntity
  8
0
100
AcDbLine
 10
148.1878755362004
 20
-213.9138558501763
 30
0.0
 11
150.2026764423817
 21
-214.3461385364099
 31
0.0
  0
SPLINE
  5
2FA3C
330
15759
100
AcDbEntity
  8
0
100
AcDbSpline
210
0.0
220
0.0
230
1.0
 70
     8
 71
     3
 72
    11
 73
     7
 74
     0
 42
0.000000001
 43
0.0000000001
 40
0.0
 40
0.0
 40
0.0
 40
0.0
 40
0.3421236790216755
 40
0.6199326750623832
 40
0.811628449226568
 40
1.0
 40
1.0
 40
1.0
 40
1.0
 10
148.3931837351292
 20
-215.7969155902429
 30
0.0
 10
148.1700128959883
 20
-215.7366517067749
 30
0.0
 10
147.7656243552765
 20
-215.6274527451787
 30
0.0
 10
147.3135839465967
 20
-215.3013351162663
 30
0.0
 10
147.0623545222579
 20
-214.9210549031632
 30
0.0
 10
147.0358668442777
 20
-214.6640455204833
 30
0.0
 10
147.0227388412922
 20
-214.5366647834344
 30
0.0
  0
SPLINE
  5
2FA3D
330
15759
100
AcDbEntity
  8
0
100
AcDbSpline
210
0.0
220
0.0
230
1.0
 70
     8
 71
     3
 72
    10
 73
     6
 74
     0
 42
0.000000001
 43
0.0000000001
 40
0.0
 40
0.0
 40
0.0
 40
0.0
 40
0.2659530407025242
 40
0.5349912708571971
 40
0.9999999999999998
 40
0.9999999999999998
 40
0.9999999999999998
 40
0.9999999999999998
 10
146.4366761715382
 20
-214.3020609015985
 30
0.0
 10
146.447743663618
 20
-214.4373171359693
 30
0.0
 10
146.4700070362769
 20
-214.709398645271
 30
0.0
 10
146.6878773389426
 20
-215.1822783367534
 30
0.0
 10
146.969210831051
 20
-215.4329557091805
 30
0.0
 10
147.1474317581624
 20
-215.591756402926
 30
0.0
  0
SPLINE
  5
2FA3E
330
15759
100
AcDbEntity
  8
0
100
AcDbSpline
210
0.0
220
0.0
230
1.0
 70
     8
 71
     3
 72
    12
 73
     8
 74
     0
 42
0.000000001
 43
0.0000000001
 40
0.0
 40
0.0
 40
0.0
 40
0.0
 40
0.2066287779155292
 40
0.3910877053751118
 40
0.5645811908999744
 40
0.7716151276508553
 40
0.9999999999999998
 40
0.9999999999999998
 40
0.9999999999999998
 40
0.9999999999999998
 10
147.6236132652729
 20
-213.1591716403527
 30
0.0
 10
147.4955646363623
 20
-213.1670482466143
 30
0.0
 10
147.2532061180454
 20
-213.1819563533172
 30
0.0
 10
146.9249561157694
 20
-213.3193965890532
 30
0.0
 10
146.6565144967926
 20
-213.5496096971256
 30
0.0
 10
146.4685412441349
 20
-213.8896364586944
 30
0.0
 10
146.4476395041302
 20
-214.1601642740607
 30
0.0
 10
146.4366761715382
 20
-214.3020609015985
 30
0.0
  0
SPLINE
  5
2FA3F
330
15759
100
AcDbEntity
  8
0
100
AcDbSpline
210
0.0
220
0.0
230
1.0
 70
     8
 71
     3
 72
     9
 73
     5
 74
     0
 42
0.000000001
 43
0.0000000001
 40
0.0
 40
0.0
 40
0.0
 40
0.0
 40
0.5336452711224352
 40
1.0
 40
1.0
 40
1.0
 40
1.0
 10
147.7260587484806
 20
-213.8623872394128
 30
0.0
 10
147.8089436447981
 20
-213.8651454069186
 30
0.0
 10
147.9642619822798
 20
-213.8703139479985
 30
0.0
 10
148.1167582026783
 20
-213.9000079240359
 30
0.0
 10
148.1878755362004
 20
-213.9138558501763
 30
0.0
  0
SPLINE
  5
2FA40
330
15759
100
AcDbEntity
  8
0
100
AcDbSpline
210
0.0
220
0.0
230
1.0
 70
     8
 71
     3
 72
    12
 73
     8
 74
     0
 42
0.000000001
 43
0.0000000001
 40
0.0
 40
0.0
 40
0.0
 40
0.0
 40
0.1980626417295685
 40
0.375261270409324
 40
0.5449070510215356
 40
0.7556651663012705
 40
1.0
 40
1.0
 40
1.0
 40
1.0
 10
147.0227388412922
 20
-214.5366647834344
 30
0.0
 10
147.0271599892176
 20
-214.4637013848696
 30
0.0
 10
147.0355365592431
 20
-214.3254605869079
 30
0.0
 10
147.1161226872855
 20
-214.1375775164015
 30
0.0
 10
147.2561481843286
 20
-213.9837792279832
 30
0.0
 10
147.4680365773156
 20
-213.8789595682683
 30
0.0
 10
147.6359224887483
 20
-213.8681765393449
 30
0.0
 10
147.7260587484806
 20
-213.8623872394128
 30
0.0
  0
LINE
  5
2FA41
330
15759
100
AcDbEntity
  8
0
100
AcDbLine
 10
150.2026764423817
 20
-214.3461385364099
 30
0.0
 11
150.2026764423817
 21
-213.6427441234155
 31
0.0
  0
LINE
  5
2FA42
330
15759
100
AcDbEntity
  8
0
100
AcDbLine
 10
150.2026764423817
 20
-213.6427441234155
 30
0.0
 11
148.312225726363
 21
-213.2469692821069
 31
0.0
  0
SPLINE
  5
2FA43
330
15759
100
AcDbEntity
  8
0
100
AcDbSpline
210
0.0
220
0.0
230
1.0
 70
     8
 71
     3
 72
     9
 73
     5
 74
     0
 42
0.000000001
 43
0.0000000001
 40
0.0
 40
0.0
 40
0.0
 40
0.0
 40
0.6135458905544198
 40
1.0
 40
1.0
 40
1.0
 40
1.0
 10
148.312225726363
 20
-213.2469692821069
 30
0.0
 10
148.1725627788501
 20
-213.2189006113331
 30
0.0
 10
147.9449303398351
 20
-213.1731523287599
 30
0.0
 10
147.7131757708439
 20
-213.1630685558375
 30
0.0
 10
147.6236132652729
 20
-213.1591716403527
 30
0.0
  0
LINE
  5
2FA44
330
15759
100
AcDbEntity
  8
0
100
AcDbLine
 10
150.2026764423817
 20
-219.980833827929
 30
0.0
 11
146.5099451811284
 21
-219.196675121264
 31
0.0
  0
LINE
  5
2FA45
330
15759
100
AcDbEntity
  8
0
100
AcDbLine
 10
150.2026764423817
 20
-220.6547239417596
 30
0.0
 11
150.2026764423817
 21
-219.980833827929
 31
0.0
  0
LINE
  5
2FA46
330
15759
100
AcDbEntity
  8
0
100
AcDbLine
 10
146.5099451811284
 20
-219.8709526652856
 30
0.0
 11
150.2026764423817
 21
-220.6547239417596
 31
0.0
  0
LINE
  5
2FA47
330
15759
100
AcDbEntity
  8
0
100
AcDbLine
 10
146.5099451811284
 20
-219.196675121264
 30
0.0
 11
146.5099451811284
 21
-219.8709526652856
 31
0.0
  0
LINE
  5
2FA48
330
15759
100
AcDbEntity
  8
0
100
AcDbLine
 10
146.5099451811284
 20
-217.4017408484979
 30
0.0
 11
145.3758625061482
 21
-217.1560505027337
 31
0.0
  0
LINE
  5
2FA49
330
15759
100
AcDbEntity
  8
0
100
AcDbLine
 10
146.5099451811284
 20
-216.4638021583123
 30
0.0
 11
146.5099451811284
 21
-217.4017408484979
 31
0.0
  0
LINE
  5
2FA4A
330
15759
100
AcDbEntity
  8
0
100
AcDbLine
 10
147.0448372633427
 20
-216.5809848899407
 30
0.0
 11
146.5099451811284
 21
-216.4638021583123
 31
0.0
  0
LINE
  5
2FA4B
330
15759
100
AcDbEntity
  8
0
100
AcDbLine
 10
148.8839534790486
 20
-217.9072776431604
 30
0.0
 11
147.0448372633427
 21
-217.5115624064965
 31
0.0
  0
SPLINE
  5
2FA4C
330
15759
100
AcDbEntity
  8
0
100
AcDbSpline
210
0.0
220
0.0
230
1.0
 70
     8
 71
     3
 72
     9
 73
     5
 74
     0
 42
0.000000001
 43
0.0000000001
 40
0.0
 40
0.0
 40
0.0
 40
0.0
 40
0.485862479199053
 40
0.9999999999999998
 40
0.9999999999999998
 40
0.9999999999999998
 40
0.9999999999999998
 10
149.2649910719365
 20
-217.9587164516015
 30
0.0
 10
149.2026367397366
 20
-217.9552070907048
 30
0.0
 10
149.0742993297308
 20
-217.9479841396751
 30
0.0
 10
148.9485869369882
 20
-217.9210998600392
 30
0.0
 10
148.8839534790486
 20
-217.9072776431604
 30
0.0
  0
SPLINE
  5
2FA4D
330
15759
100
AcDbEntity
  8
0
100
AcDbSpline
210
0.0
220
0.0
230
1.0
 70
     8
 71
     3
 72
    12
 73
     8
 74
     0
 42
0.000000001
 43
0.0000000001
 40
0.0
 40
0.0
 40
0.0
 40
0.0
 40
0.1987386154112973
 40
0.3775429742395004
 40
0.5483388928072705
 40
0.7584933653241463
 40
1.0
 40
1.0
 40
1.0
 40
1.0
 10
149.7047392399281
 20
-217.5261655444665
 30
0.0
 10
149.7019336758921
 20
-217.5724355182465
 30
0.0
 10
149.6966039568206
 20
-217.6603344073628
 30
0.0
 10
149.6462056578048
 20
-217.7800798602075
 30
0.0
 10
149.5590518317212
 20
-217.8790359553204
 30
0.0
 10
149.4267254107826
 20
-217.9476767303713
 30
0.0
 10
149.3213409473346
 20
-217.9548701013445
 30
0.0
 10
149.2649910719365
 20
-217.9587164516015
 30
0.0
  0
SPLINE
  5
2FA4E
330
15759
100
AcDbEntity
  8
0
100
AcDbSpline
210
0.0
220
0.0
230
1.0
 70
     8
 71
     3
 72
     9
 73
     5
 74
     0
 42
0.000000001
 43
0.0000000001
 40
0.0
 40
0.0
 40
0.0
 40
0.0
 40
0.6333929966959491
 40
0.9999999999999998
 40
0.9999999999999998
 40
0.9999999999999998
 40
0.9999999999999998
 10
149.6314851314991
 20
-217.1304503078027
 30
0.0
 10
149.6537766274405
 20
-217.2128465244314
 30
0.0
 10
149.6889704108571
 20
-217.3429335589572
 30
0.0
 10
149.7005090822012
 20
-217.4770115968022
 30
0.0
 10
149.7047392399281
 20
-217.5261655444665
 30
0.0
  0
SPLINE
  5
2FA4F
330
15759
100
AcDbEntity
  8
0
100
AcDbSpline
210
0.0
220
0.0
230
1.0
 70
     8
 71
     3
 72
     9
 73
     5
 74
     0
 42
0.000000001
 43
0.0000000001
 40
0.0
 40
0.0
 40
0.0
 40
0.0
 40
0.5880912062167511
 40
1.0
 40
1.0
 40
1.0
 40
1.0
 10
148.9573715002507
 20
-218.6105826491876
 30
0.0
 10
149.038659471963
 20
-218.6246920768499
 30
0.0
 10
149.176882881623
 20
-218.6486839806821
 30
0.0
 10
149.3170265966682
 20
-218.6529167635235
 30
0.0
 10
149.3747530252903
 20
-218.654660283999
 30
0.0
  0
LINE
  5
2FA50
330
15759
100
AcDbEntity
  8
0
100
AcDbLine
 10
147.0448372633427
 20
-218.2002642745538
 30
0.0
 11
148.9573715002507
 21
-218.6105826491876
 31
0.0
  0
LINE
  5
2FA51
330
15759
100
AcDbEntity
  8
0
100
AcDbLine
 10
147.0448372633427
 20
-218.947766124682
 30
0.0
 11
147.0448372633427
 21
-218.2002642745538
 31
0.0
  0
LINE
  5
2FA52
330
15759
100
AcDbEntity
  8
0
100
AcDbLine
 10
146.5099451811284
 20
-218.8378849620385
 30
0.0
 11
147.0448372633427
 21
-218.947766124682
 31
0.0
  0
LINE
  5
2FA53
330
15759
100
AcDbEntity
  8
0
100
AcDbLine
 10
146.5099451811284
 20
-218.0901148910089
 30
0.0
 11
146.5099451811284
 21
-218.8378849620385
 31
0.0
  0
SPLINE
  5
2FA54
330
15759
100
AcDbEntity
  8
0
100
AcDbSpline
210
0.0
220
0.0
230
1.0
 70
     8
 71
     3
 72
     9
 73
     5
 74
     0
 42
0.000000001
 43
0.0000000001
 40
0.0
 40
0.0
 40
0.0
 40
0.0
 40
0.5191239609092106
 40
1.0
 40
1.0
 40
1.0
 40
1.0
 10
150.2470222980946
 20
-217.7018204326196
 30
0.0
 10
150.2425098260237
 20
-217.6222481855657
 30
0.0
 10
150.2338173509843
 20
-217.4689664011676
 30
0.0
 10
150.1981679823502
 20
-217.3196662995251
 30
0.0
 10
150.1810250551671
 20
-217.2478714580102
 30
0.0
  0
SPLINE
  5
2FA55
330
15759
100
AcDbEntity
  8
0
100
AcDbSpline
210
0.0
220
0.0
230
1.0
 70
     8
 71
     3
 72
    12
 73
     8
 74
     0
 42
0.000000001
 43
0.0000000001
 40
0.0
 40
0.0
 40
0.0
 40
0.0
 40
0.1980432302973422
 40
0.3713245163144697
 40
0.5367599586735136
 40
0.7474991078899311
 40
1.0
 40
1.0
 40
1.0
 40
1.0
 10
149.3747530252903
 20
-218.654660283999
 30
0.0
 10
149.472105626045
 20
-218.6492009489884
 30
0.0
 10
149.6546385373322
 20
-218.638964876136
 30
0.0
 10
149.9021637541109
 20
-218.5333834863195
 30
0.0
 10
150.1002436789013
 20
-218.3435026168118
 30
0.0
 10
150.2284038080206
 20
-218.053724918238
 30
0.0
 10
150.240454020196
 20
-217.8259661848133
 30
0.0
 10
150.2470222980946
 20
-217.7018204326196
 30
0.0
  0
LINE
  5
2FA56
330
15759
100
AcDbEntity
  8
0
100
AcDbLine
 10
145.3758625061482
 20
-217.1560505027337
 30
0.0
 11
145.6102130682438
 21
-217.895952760653
 31
0.0
  0
LINE
  5
2FA57
330
15759
100
AcDbEntity
  8
0
100
AcDbLine
 10
145.6102130682438
 20
-217.895952760653
 30
0.0
 11
146.5099451811284
 21
-218.0901148910089
 31
0.0
  0
LINE
  5
2FA58
330
15759
100
AcDbEntity
  8
0
100
AcDbLine
 10
147.0448372633427
 20
-217.5115624064965
 30
0.0
 11
147.0448372633427
 21
-216.5809848899407
 31
0.0
  0
LINE
  5
2FA59
330
15759
100
AcDbEntity
  8
0
100
AcDbLine
 10
150.1810250551671
 20
-217.2478714580102
 30
0.0
 11
149.6314851314991
 21
-217.1304503078027
 31
0.0
  0
SPLINE
  5
2FA5A
330
15759
100
AcDbEntity
  8
0
100
AcDbSpline
210
0.0
220
0.0
230
1.0
 70
     8
 71
     3
 72
     9
 73
     5
 74
     0
 42
0.000000001
 43
0.0000000001
 40
0.0
 40
0.0
 40
0.0
 40
0.0
 40
0.6141476229418107
 40
1.0
 40
1.0
 40
1.0
 40
1.0
 10
144.7512505323857
 20
-219.8198714847131
 30
0.0
 10
144.7232120523395
 20
-219.9217497047648
 30
0.0
 10
144.6775577519756
 20
-220.0876352610176
 30
0.0
 10
144.6673369909285
 20
-220.2590994159873
 30
0.0
 10
144.6633932859868
 20
-220.3252592677636
 30
0.0
  0
LINE
  5
2FA5B
330
15759
100
AcDbEntity
  8
0
100
AcDbLine
 10
145.2862469227284
 20
-219.9738302821679
 30
0.0
 11
144.7512505323857
 21
-219.8198714847131
 31
0.0
  0
SPLINE
  5
2FA5C
330
15759
100
AcDbEntity
  8
0
100
AcDbSpline
210
0.0
220
0.0
230
1.0
 70
     8
 71
     3
 72
     9
 73
     5
 74
     0
 42
0.000000001
 43
0.0000000001
 40
0.0
 40
0.0
 40
0.0
 40
0.0
 40
0.4960673080235543
 40
1.0
 40
1.0
 40
1.0
 40
1.0
 10
145.220264580962
 20
-220.3472831840081
 30
0.0
 10
145.2252191086145
 20
-220.2844813668526
 30
0.0
 10
145.2352067203237
 20
-220.1578819797469
 30
0.0
 10
145.2691445439223
 20
-220.0355017039801
 30
0.0
 10
145.2862469227284
 20
-219.9738302821679
 30
0.0
  0
SPLINE
  5
2FA5D
330
15759
100
AcDbEntity
  8
0
100
AcDbSpline
210
0.0
220
0.0
230
1.0
 70
     8
 71
     3
 72
    11
 73
     7
 74
     0
 42
0.000000001
 43
0.0000000001
 40
0.0
 40
0.0
 40
0.0
 40
0.0
 40
0.3446921808013584
 40
0.6175398698660916
 40
0.806486713687722
 40
1.0
 40
1.0
 40
1.0
 40
1.0
 10
145.9899244577855
 20
-221.0507968062921
 30
0.0
 10
145.8632589137078
 20
-221.017752548938
 30
0.0
 10
145.6363288353268
 20
-220.9585514775899
 30
0.0
 10
145.3785763570367
 20
-220.7820893123644
 30
0.0
 10
145.2399722941873
 20
-220.5667837168003
 30
0.0
 10
145.2268859010464
 20
-220.4210301109233
 30
0.0
 10
145.220264580962
 20
-220.3472831840081
 30
0.0
  0
LINE
  5
2FA5E
330
15759
100
AcDbEntity
  8
0
100
AcDbLine
 10
147.0302043230504
 20
-221.278099119143
 30
0.0
 11
147.0302043230504
 21
-220.3472533816857
 31
0.0
  0
LINE
  5
2FA5F
330
15759
100
AcDbEntity
  8
0
100
AcDbLine
 10
150.2026764423817
 20
-221.9519892329736
 30
0.0
 11
147.0302043230504
 21
-221.278099119143
 31
0.0
  0
LINE
  5
2FA60
330
15759
100
AcDbEntity
  8
0
100
AcDbLine
 10
150.2026764423817
 20
-222.6481118793054
 30
0.0
 11
150.2026764423817
 21
-221.9519892329736
 31
0.0
  0
LINE
  5
2FA61
330
15759
100
AcDbEntity
  8
0
100
AcDbLine
 10
147.0302043230504
 20
-221.9667115802331
 30
0.0
 11
150.2026764423817
 21
-222.6481118793054
 31
0.0
  0
LINE
  5
2FA62
330
15759
100
AcDbEntity
  8
0
100
AcDbLine
 10
147.0302043230504
 20
-222.7509298915429
 30
0.0
 11
147.0302043230504
 21
-221.9667115802331
 31
0.0
  0
LINE
  5
2FA63
330
15759
100
AcDbEntity
  8
0
100
AcDbLine
 10
146.5246079237431
 20
-222.6410189265771
 30
0.0
 11
147.0302043230504
 21
-222.7509298915429
 31
0.0
  0
LINE
  5
2FA64
330
15759
100
AcDbEntity
  8
0
100
AcDbLine
 10
146.5246079237431
 20
-221.8643406028314
 30
0.0
 11
146.5246079237431
 21
-222.6410189265771
 31
0.0
  0
LINE
  5
2FA65
330
15759
100
AcDbEntity
  8
0
100
AcDbLine
 10
147.0302043230504
 20
-220.3472533816857
 30
0.0
 11
146.5246079237431
 21
-220.2374020213647
 31
0.0
  0
LINE
  5
2FA66
330
15759
100
AcDbEntity
  8
0
100
AcDbLine
 10
146.5246079237431
 20
-221.1679497355981
 30
0.0
 11
145.9899244577855
 21
-221.0507968062921
 31
0.0
  0
LINE
  5
2FA67
330
15759
100
AcDbEntity
  8
0
100
AcDbLine
 10
146.5246079237431
 20
-220.2374020213647
 30
0.0
 11
146.5246079237431
 21
-221.1679497355981
 31
0.0
  0
LINE
  5
2FA68
330
15759
100
AcDbEntity
  8
0
100
AcDbLine
 10
145.8286789925068
 20
-221.7177131766839
 30
0.0
 11
146.5246079237431
 21
-221.8643406028314
 31
0.0
  0
SPLINE
  5
2FA69
330
15759
100
AcDbEntity
  8
0
100
AcDbSpline
210
0.0
220
0.0
230
1.0
 70
     8
 71
     3
 72
    11
 73
     7
 74
     0
 42
0.000000001
 43
0.0000000001
 40
0.0
 40
0.0
 40
0.0
 40
0.0
 40
0.288656874497444
 40
0.5480258958410084
 40
0.7600785686124175
 40
1.0
 40
1.0
 40
1.0
 40
1.0
 10
144.6633932859868
 20
-220.3252592677636
 30
0.0
 10
144.6782445756935
 20
-220.5180255352279
 30
0.0
 10
144.7064403058675
 20
-220.8839995193884
 30
0.0
 10
144.9918976629696
 20
-221.3225299008664
 30
0.0
 10
145.3847264760979
 20
-221.5967326225073
 30
0.0
 10
145.6747341876425
 20
-221.6757620059689
 30
0.0
 10
145.8286789925068
 20
-221.7177131766839
 30
0.0
  0
LINE
  5
2FA6A
330
15759
100
AcDbEntity
  8
0
100
AcDbLine
 10
144.8539642364949
 20
-218.823162614779
 30
0.0
 11
144.8539642364949
 21
-219.5556738967462
 31
0.0
  0
LINE
  5
2FA6B
330
15759
100
AcDbEntity
  8
0
100
AcDbLine
 10
145.6160394222706
 20
-218.984363376574
 30
0.0
 11
144.8539642364949
 21
-218.823162614779
 31
0.0
  0
LINE
  5
2FA6C
330
15759
100
AcDbEntity
  8
0
100
AcDbLine
 10
145.6160394222706
 20
-219.7170236701531
 30
0.0
 11
145.6160394222706
 21
-218.984363376574
 31
0.0
  0
LINE
  5
2FA6D
330
15759
100
AcDbEntity
  8
0
100
AcDbLine
 10
144.8539642364949
 20
-219.5556738967462
 30
0.0
 11
145.6160394222706
 21
-219.7170236701531
 31
0.0
  0
SPLINE
  5
2FA6E
330
15759
100
AcDbEntity
  8
0
100
AcDbSpline
210
0.0
220
0.0
230
1.0
 70
     8
 71
     3
 72
     9
 73
     5
 74
     0
 42
0.000000001
 43
0.0000000001
 40
0.0
 40
0.0
 40
0.0
 40
0.0
 40
0.6710841017585784
 40
0.9999999999999998
 40
0.9999999999999998
 40
0.9999999999999998
 40
0.9999999999999998
 10
144.7434423239201
 20
-229.0418872232003
 30
0.0
 10
144.9153754083445
 20
-229.2882305144012
 30
0.0
 10
145.1715774014692
 20
-229.6553131059154
 30
0.0
 10
145.3955949518631
 20
-230.0426633762472
 30
0.0
 10
145.4692778856724
 20
-230.1700690383477
 30
0.0
  0
LINE
  5
2FA6F
330
15759
100
AcDbEntity
  8
0
100
AcDbLine
 10
150.1950470478505
 20
-230.1938065881295
 30
0.0
 11
144.7434423239201
 21
-229.0418872232003
 31
0.0
  0
LINE
  5
2FA70
330
15759
100
AcDbEntity
  8
0
100
AcDbLine
 10
150.1950470478505
 20
-231.1682233209176
 30
0.0
 11
150.1950470478505
 21
-230.1938065881295
 31
0.0
  0
LINE
  5
2FA71
330
15759
100
AcDbEntity
  8
0
100
AcDbLine
 10
145.4692778856724
 20
-230.1700690383477
 30
0.0
 11
150.1950470478505
 21
-231.1682233209176
 31
0.0
  0
LINE
  5
2FA72
330
15759
100
AcDbEntity
  8
0
100
AcDbLine
 10
149.3455020458668
 20
-229.6049723023934
 30
0.0
 11
150.0896362335652
 21
-229.762134849505
 31
0.0
  0
SPLINE
  5
2FA73
330
15759
100
AcDbEntity
  8
0
100
AcDbSpline
210
0.0
220
0.0
230
1.0
 70
     8
 71
     3
 72
     9
 73
     5
 74
     0
 42
0.000000001
 43
0.0000000001
 40
0.0
 40
0.0
 40
0.0
 40
0.0
 40
0.562550664131128
 40
1.0
 40
1.0
 40
1.0
 40
1.0
 10
149.5821026833027
 20
-228.6208549136682
 30
0.0
 10
149.5716049236644
 20
-228.8141131035227
 30
0.0
 10
149.5529439206502
 20
-229.1576522763898
 30
0.0
 10
149.4086314432597
 20
-229.4688423926891
 30
0.0
 10
149.3455020458668
 20
-229.6049723023934
 30
0.0
  0
SPLINE
  5
2FA74
330
15759
100
AcDbEntity
  8
0
100
AcDbSpline
210
0.0
220
0.0
230
1.0
 70
     8
 71
     3
 72
    12
 73
     8
 74
     0
 42
0.000000001
 43
0.0000000001
 40
0.0
 40
0.0
 40
0.0
 40
0.0
 40
0.23723334567369
 40
0.4412121114973841
 40
0.6197282901789251
 40
0.8106596923363225
 40
1.0
 40
1.0
 40
1.0
 40
1.0
 10
146.3420388967961
 20
-227.6983389253182
 30
0.0
 10
146.3504931792404
 20
-227.8707346319061
 30
0.0
 10
146.3662166509884
 20
-228.1913601894121
 30
0.0
 10
146.5089092183107
 20
-228.6244933428207
 30
0.0
 10
146.7398430602725
 20
-228.9743298007743
 30
0.0
 10
147.0768912682242
 20
-229.2300960517023
 30
0.0
 10
147.3551153533435
 20
-229.2619745519696
 30
0.0
 10
147.4936453373402
 20
-229.2778471107049
 30
0.0
  0
SPLINE
  5
2FA75
330
15759
100
AcDbEntity
  8
0
100
AcDbSpline
210
0.0
220
0.0
230
1.0
 70
     8
 71
     3
 72
     9
 73
     5
 74
     0
 42
0.000000001
 43
0.0000000001
 40
0.0
 40
0.0
 40
0.0
 40
0.0
 40
0.5761139224451802
 40
1.0
 40
1.0
 40
1.0
 40
1.0
 10
146.526753690955
 20
-226.5859225387139
 30
0.0
 10
146.4678516611775
 20
-226.7959395005928
 30
0.0
 10
146.3656114141004
 20
-227.1604801820358
 30
0.0
 10
146.3490563556033
 20
-227.5382201935172
 30
0.0
 10
146.3420388967961
 20
-227.6983389253182
 30
0.0
  0
LINE
  5
2FA76
330
15759
100
AcDbEntity
  8
0
100
AcDbLine
 10
147.2432164223164
 20
-226.7374971503778
 30
0.0
 11
146.526753690955
 21
-226.5859225387139
 31
0.0
  0
SPLINE
  5
2FA77
330
15759
100
AcDbEntity
  8
0
100
AcDbSpline
210
0.0
220
0.0
230
1.0
 70
     8
 71
     3
 72
     9
 73
     5
 74
     0
 42
0.000000001
 43
0.0000000001
 40
0.0
 40
0.0
 40
0.0
 40
0.0
 40
0.5510176807001188
 40
1.0
 40
1.0
 40
1.0
 40
1.0
 10
147.0136342318028
 20
-227.6759722823663
 30
0.0
 10
147.0270081115041
 20
-227.4961950557408
 30
0.0
 10
147.0512793466614
 20
-227.1699310665354
 30
0.0
 10
147.183742712913
 20
-226.8714913199656
 30
0.0
 10
147.2432164223164
 20
-226.7374971503778
 30
0.0
  0
SPLINE
  5
2FA78
330
15759
100
AcDbEntity
  8
0
100
AcDbSpline
210
0.0
220
0.0
230
1.0
 70
     8
 71
     3
 72
    12
 73
     8
 74
     0
 42
0.000000001
 43
0.0000000001
 40
0.0
 40
0.0
 40
0.0
 40
0.0
 40
0.1501142983213946
 40
0.3012520670906195
 40
0.4698402541138566
 40
0.7074401611226852
 40
1.0
 40
1.0
 40
1.0
 40
1.0
 10
147.4344728262394
 20
-228.3404299611611
 30
0.0
 10
147.3904227474077
 20
-228.335813154943
 30
0.0
 10
147.3020222589066
 20
-228.3265480653936
 30
0.0
 10
147.1852520254533
 20
-228.2457840694879
 30
0.0
 10
147.0898498789129
 20
-228.1123511735787
 30
0.0
 10
147.0244747334391
 20
-227.9159386675528
 30
0.0
 10
147.0174891241286
 20
-227.761304549018
 30
0.0
 10
147.0136342318028
 20
-227.6759722823663
 30
0.0
  0
SPLINE
  5
2FA79
330
15759
100
AcDbEntity
  8
0
100
AcDbSpline
210
0.0
220
0.0
230
1.0
 70
     8
 71
     3
 72
    10
 73
     6
 74
     0
 42
0.000000001
 43
0.0000000001
 40
0.0
 40
0.0
 40
0.0
 40
0.0
 40
0.664212826135567
 40
0.8355327555499075
 40
1.0
 40
1.0
 40
1.0
 40
1.0
 10
148.0544356377095
 20
-227.6244589681192
 30
0.0
 10
147.9601941383434
 20
-227.8219221857544
 30
0.0
 10
147.8416449978349
 20
-228.0703169469743
 30
0.0
 10
147.6027464774697
 20
-228.3178641636878
 30
0.0
 10
147.4897956834056
 20
-228.3330110671086
 30
0.0
 10
147.4344728262394
 20
-228.3404299611611
 30
0.0
  0
SPLINE
  5
2FA7A
330
15759
100
AcDbEntity
  8
0
100
AcDbSpline
210
0.0
220
0.0
230
1.0
 70
     8
 71
     3
 72
    10
 73
     6
 74
     0
 42
0.000000001
 43
0.0000000001
 40
0.0
 40
0.0
 40
0.0
 40
0.0
 40
0.2640897156276313
 40
0.5115460283494451
 40
1.0
 40
1.0
 40
1.0
 40
1.0
 10
149.0951029331654
 20
-226.8493899697824
 30
0.0
 10
148.9731635491216
 20
-226.8584411696174
 30
0.0
 10
148.7369650002392
 20
-226.8759734893356
 30
0.0
 10
148.3425169890788
 20
-227.1383191535315
 30
0.0
 10
148.1693642462041
 20
-227.4305159303003
 30
0.0
 10
148.0544356377095
 20
-227.6244589681192
 30
0.0
  0
SPLINE
  5
2FA7B
330
15759
100
AcDbEntity
  8
0
100
AcDbSpline
210
0.0
220
0.0
230
1.0
 70
     8
 71
     3
 72
    12
 73
     8
 74
     0
 42
0.000000001
 43
0.0000000001
 40
0.0
 40
0.0
 40
0.0
 40
0.0
 40
0.2388484065881089
 40
0.4438043670442255
 40
0.6226619370059479
 40
0.8129093185735944
 40
1.0
 40
1.0
 40
1.0
 40
1.0
 10
150.2982673914402
 20
-228.5176345700784
 30
0.0
 10
150.2893437629673
 20
-228.3351690180898
 30
0.0
 10
150.2727627635713
 20
-227.9961296668735
 30
0.0
 10
150.1225026351267
 20
-227.5385112965196
 30
0.0
 10
149.880490876737
 20
-227.169841425577
 30
0.0
 10
149.5291797867639
 20
-226.9002383542829
 30
0.0
 10
149.2389859921595
 20
-226.8662446374437
 30
0.0
 10
149.0951029331654
 20
-226.8493899697824
 30
0.0
  0
SPLINE
  5
2FA7C
330
15759
100
AcDbEntity
  8
0
100
AcDbSpline
210
0.0
220
0.0
230
1.0
 70
     8
 71
     3
 72
     9
 73
     5
 74
     0
 42
0.000000001
 43
0.0000000001
 40
0.0
 40
0.0
 40
0.0
 40
0.0
 40
0.5569950495573983
 40
1.0
 40
1.0
 40
1.0
 40
1.0
 10
150.0896362335652
 20
-229.762134849505
 30
0.0
 10
150.1562769835864
 20
-229.5354799318884
 30
0.0
 10
150.2759203270534
 20
-229.128555457788
 30
0.0
 10
150.2914068050295
 20
-228.7051883116656
 30
0.0
 10
150.2982673914402
 20
-228.5176345700784
 30
0.0
  0
SPLINE
  5
2FA7D
330
15759
100
AcDbEntity
  8
0
100
AcDbSpline
210
0.0
220
0.0
230
1.0
 70
     8
 71
     3
 72
    13
 73
     9
 74
     0
 42
0.000000001
 43
0.0000000001
 40
0.0
 40
0.0
 40
0.0
 40
0.0
 40
0.0991156605237662
 40
0.1944333815151152
 40
0.2929639455353134
 40
0.400955438854285
 40
0.6617338537745028
 40
1.0
 40
1.0
 40
1.0
 40
1.0
 10
149.1321323187321
 20
-227.8237918014093
 30
0.0
 10
149.1658609180985
 20
-227.8261519851476
 30
0.0
 10
149.2320256956327
 20
-227.8307819144902
 30
0.0
 10
149.3243357645651
 20
-227.8724769464716
 30
0.0
 10
149.4033570978745
 20
-227.9390886763504
 30
0.0
 10
149.4952749343674
 20
-228.0697189352031
 30
0.0
 10
149.5699654377886
 20
-228.3027979832441
 30
0.0
 10
149.5777224716685
 20
-228.5060713191888
 30
0.0
 10
149.5821026833027
 20
-228.6208549136682
 30
0.0
  0
SPLINE
  5
2FA7E
330
15759
100
AcDbEntity
  8
0
100
AcDbSpline
210
0.0
220
0.0
230
1.0
 70
     8
 71
     3
 72
    10
 73
     6
 74
     0
 42
0.000000001
 43
0.0000000001
 40
0.0
 40
0.0
 40
0.0
 40
0.0
 40
0.2685519576901876
 40
0.5163632778242932
 40
1.0
 40
1.0
 40
1.0
 40
1.0
 10
147.4936453373402
 20
-229.2778471107049
 30
0.0
 10
147.6198793008216
 20
-229.2678936178782
 30
0.0
 10
147.8625980049282
 20
-229.2487553541832
 30
0.0
 10
148.2542088312721
 20
-228.9676841405417
 30
0.0
 10
148.4229134167572
 20
-228.6699818143934
 30
0.0
 10
148.5344616444081
 20
-228.4731397027536
 30
0.0
  0
SPLINE
  5
2FA7F
330
15759
100
AcDbEntity
  8
0
100
AcDbSpline
210
0.0
220
0.0
230
1.0
 70
     8
 71
     3
 72
    10
 73
     6
 74
     0
 42
0.000000001
 43
0.0000000001
 40
0.0
 40
0.0
 40
0.0
 40
0.0
 40
0.6507471429285936
 40
0.827290956262283
 40
1.0
 40
1.0
 40
1.0
 40
1.0
 10
148.5344616444081
 20
-228.4731397027536
 30
0.0
 10
148.6222350453235
 20
-228.2919726578402
 30
0.0
 10
148.7338208456922
 20
-228.0616560756498
 30
0.0
 10
148.9686356336669
 20
-227.8440042891852
 30
0.0
 10
149.0780338182694
 20
-227.8304797980418
 30
0.0
 10
149.1321323187321
 20
-227.8237918014093
 30
0.0
  0
SPLINE
  5
2FA80
330
15759
100
AcDbEntity
  8
0
100
AcDbSpline
210
0.0
220
0.0
230
1.0
 70
     8
 71
     3
 72
    13
 73
     9
 74
     0
 42
0.000000001
 43
0.0000000001
 40
0.0
 40
0.0
 40
0.0
 40
0.0
 40
0.2607921898783333
 40
0.5011612193498914
 40
0.6160012251771351
 40
0.7323365641887342
 40
0.8574253447421067
 40
1.0
 40
1.0
 40
1.0
 40
1.0
 10
147.9656694204777
 20
-223.8166311378045
 30
0.0
 10
147.8428508514471
 20
-223.8117733593353
 30
0.0
 10
147.6068318823118
 20
-223.8024382247859
 30
0.0
 10
147.3237399347081
 20
-223.8966143311081
 30
0.0
 10
147.1468459292146
 20
-224.0329208364892
 30
0.0
 10
147.0459230263323
 20
-224.1686647088463
 30
0.0
 10
146.9802920617212
 20
-224.3396010628203
 30
0.0
 10
146.973229279366
 20
-224.4656040793052
 30
0.0
 10
146.9694671900242
 20
-224.5327213401361
 30
0.0
  0
SPLINE
  5
2FA81
330
15759
100
AcDbEntity
  8
0
100
AcDbSpline
210
0.0
220
0.0
230
1.0
 70
     8
 71
     3
 72
     9
 73
     5
 74
     0
 42
0.000000001
 43
0.0000000001
 40
0.0
 40
0.0
 40
0.0
 40
0.0
 40
0.6143373139787187
 40
0.9999999999999998
 40
0.9999999999999998
 40
0.9999999999999998
 40
0.9999999999999998
 10
148.5639212400883
 20
-223.0416813487573
 30
0.0
 10
148.4165951293862
 20
-223.0176394728805
 30
0.0
 10
148.1767820700979
 20
-222.978504822695
 30
0.0
 10
147.9340735023024
 20
-222.9708879476566
 30
0.0
 10
147.840469864127
 20
-222.9679504031701
 30
0.0
  0
LINE
  5
2FA82
330
15759
100
AcDbEntity
  8
0
100
AcDbLine
 10
148.5639212400883
 20
-225.7211783523126
 30
0.0
 11
148.5639212400883
 21
-223.0416813487573
 31
0.0
  0
LINE
  5
2FA83
330
15759
100
AcDbEntity
  8
0
100
AcDbLine
 10
150.1375285656422
 20
-223.7586358184381
 30
0.0
 11
149.3644414217442
 21
-223.5954681033654
 31
0.0
  0
SPLINE
  5
2FA84
330
15759
100
AcDbEntity
  8
0
100
AcDbSpline
210
0.0
220
0.0
230
1.0
 70
     8
 71
     3
 72
     9
 73
     5
 74
     0
 42
0.000000001
 43
0.0000000001
 40
0.0
 40
0.0
 40
0.0
 40
0.0
 40
0.5543685124494778
 40
1.0
 40
1.0
 40
1.0
 40
1.0
 10
150.3058073790043
 20
-224.8722591990991
 30
0.0
 10
150.2970318365797
 20
-224.6629137007585
 30
0.0
 10
150.2812020370429
 20
-224.2852849328155
 30
0.0
 10
150.181817461761
 20
-223.9209810843495
 30
0.0
 10
150.1375285656422
 20
-223.7586358184381
 30
0.0
  0
SPLINE
  5
2FA85
330
15759
100
AcDbEntity
  8
0
100
AcDbSpline
210
0.0
220
0.0
230
1.0
 70
     8
 71
     3
 72
    11
 73
     7
 74
     0
 42
0.000000001
 43
0.0000000001
 40
0.0
 40
0.0
 40
0.0
 40
0.0
 40
0.2542844427640026
 40
0.519608735344442
 40
0.747451533988324
 40
1.0
 40
1.0
 40
1.0
 40
1.0
 10
146.9694671900242
 20
-224.5327213401361
 30
0.0
 10
146.9867700639433
 20
-224.6704276989258
 30
0.0
 10
147.0221270222273
 20
-224.9518189872069
 30
0.0
 10
147.2744126842399
 20
-225.2844617896044
 30
0.0
 10
147.6005682553832
 20
-225.5251076691347
 30
0.0
 10
147.847885243561
 20
-225.6053514997329
 30
0.0
 10
147.9779032738179
 20
-225.6475368136926
 30
0.0
  0
SPLINE
  5
2FA86
330
15759
100
AcDbEntity
  8
0
100
AcDbSpline
210
0.0
220
0.0
230
1.0
 70
     8
 71
     3
 72
    12
 73
     8
 74
     0
 42
0.000000001
 43
0.0000000001
 40
0.0
 40
0.0
 40
0.0
 40
0.0
 40
0.1995777649943665
 40
0.3784330635618438
 40
0.5491984784784098
 40
0.7593736423963009
 40
1.0
 40
1.0
 40
1.0
 40
1.0
 10
148.5709992916554
 20
-226.6510406131311
 30
0.0
 10
148.758198057264
 20
-226.6395378848756
 30
0.0
 10
149.1131584526074
 20
-226.6177267743405
 30
0.0
 10
149.5952406170136
 20
-226.4111153283047
 30
0.0
 10
149.9902395523595
 20
-226.0558656482026
 30
0.0
 10
150.2620416117888
 20
-225.5219268175352
 30
0.0
 10
150.2905762934888
 20
-225.0983524148869
 30
0.0
 10
150.3058073790043
 20
-224.8722591990991
 30
0.0
  0
SPLINE
  5
2FA87
330
15759
100
AcDbEntity
  8
0
100
AcDbSpline
210
0.0
220
0.0
230
1.0
 70
     8
 71
     3
 72
    10
 73
     6
 74
     0
 42
0.000000001
 43
0.0000000001
 40
0.0
 40
0.0
 40
0.0
 40
0.0
 40
0.295479246087601
 40
0.5648856905217681
 40
1.0
 40
1.0
 40
1.0
 40
1.0
 10
146.3271377356022
 20
-224.4662025565667
 30
0.0
 10
146.3348915190099
 20
-224.6379716785195
 30
0.0
 10
146.3497148995111
 20
-224.9663531819606
 30
0.0
 10
146.5279923489752
 20
-225.5320881089683
 30
0.0
 10
146.8055726689663
 20
-225.8404614872816
 30
0.0
 10
146.9770071775883
 20
-226.0309138888879
 30
0.0
  0
SPLINE
  5
2FA88
330
15759
100
AcDbEntity
  8
0
100
AcDbSpline
210
0.0
220
0.0
230
1.0
 70
     8
 71
     3
 72
    12
 73
     8
 74
     0
 42
0.000000001
 43
0.0000000001
 40
0.0
 40
0.0
 40
0.0
 40
0.0
 40
0.2039367448108454
 40
0.3857754626366178
 40
0.5576251542451773
 40
0.7657409892235054
 40
1.0
 40
1.0
 40
1.0
 40
1.0
 10
147.840469864127
 20
-222.9679504031701
 30
0.0
 10
147.6767317972107
 20
-222.9778755447041
 30
0.0
 10
147.366997871758
 20
-222.9966503666255
 30
0.0
 10
146.9470213334452
 20
-223.173142497104
 30
0.0
 10
146.6037013751729
 20
-223.4734242851082
 30
0.0
 10
146.3661063352729
 20
-223.9217286371641
 30
0.0
 10
146.34062914683
 20
-224.2776989507802
 30
0.0
 10
146.3271377356022
 20
-224.4662025565667
 30
0.0
  0
SPLINE
  5
2FA89
330
15759
100
AcDbEntity
  8
0
100
AcDbSpline
210
0.0
220
0.0
230
1.0
 70
     8
 71
     3
 72
     9
 73
     5
 74
     0
 42
0.000000001
 43
0.0000000001
 40
0.0
 40
0.0
 40
0.0
 40
0.0
 40
0.5518151678429475
 40
1.0
 40
1.0
 40
1.0
 40
1.0
 10
149.3644414217442
 20
-223.5954681033654
 30
0.0
 10
149.441599958699
 20
-223.7853080672212
 30
0.0
 10
149.5814267366686
 20
-224.1293362399083
 30
0.0
 10
149.5974409916734
 20
-224.4996025479122
 30
0.0
 10
149.6046183378666
 20
-224.665550291018
 30
0.0
  0
LINE
  5
2FA8A
330
15759
100
AcDbEntity
  8
0
100
AcDbLine
 10
147.9779032738179
 20
-225.6475368136926
 30
0.0
 11
147.9656694204777
 21
-223.8166311378045
 31
0.0
  0
SPLINE
  5
2FA8B
330
15759
100
AcDbEntity
  8
0
100
AcDbSpline
210
0.0
220
0.0
230
1.0
 70
     8
 71
     3
 72
     9
 73
     5
 74
     0
 42
0.000000001
 43
0.0000000001
 40
0.0
 40
0.0
 40
0.0
 40
0.0
 40
0.5559882429254452
 40
1.0
 40
1.0
 40
1.0
 40
1.0
 10
146.9770071775883
 20
-226.0309138888879
 30
0.0
 10
147.2431127870286
 20
-226.226101789347
 30
0.0
 10
147.7217301190058
 20
-226.5771665878237
 30
0.0
 10
148.3098618765825
 20
-226.6283254685914
 30
0.0
 10
148.5709992916554
 20
-226.6510406131311
 30
0.0
  0
SPLINE
  5
2FA8C
330
15759
100
AcDbEntity
  8
0
100
AcDbSpline
210
0.0
220
0.0
230
1.0
 70
     8
 71
     3
 72
     9
 73
     5
 74
     0
 42
0.000000001
 43
0.0000000001
 40
0.0
 40
0.0
 40
0.0
 40
0.0
 40
0.5606412389058605
 40
1.0
 40
1.0
 40
1.0
 40
1.0
 10
148.7042007715672
 20
-225.7282713050408
 30
0.0
 10
148.6779029095405
 20
-225.728433588949
 30
0.0
 10
148.6309961531287
 20
-225.7287230501897
 30
0.0
 10
148.5843956009585
 20
-225.7234813425057
 30
0.0
 10
148.5639212400883
 20
-225.7211783523126
 30
0.0
  0
SPLINE
  5
2FA8D
330
15759
100
AcDbEntity
  8
0
100
AcDbSpline
210
0.0
220
0.0
230
1.0
 70
     8
 71
     3
 72
    12
 73
     8
 74
     0
 42
0.000000001
 43
0.0000000001
 40
0.0
 40
0.0
 40
0.0
 40
0.0
 40
0.2229417802305783
 40
0.414433173531728
 40
0.5859686236710097
 40
0.7830076372271538
 40
1.0
 40
1.0
 40
1.0
 40
1.0
 10
149.6046183378666
 20
-224.665550291018
 30
0.0
 10
149.5989842928857
 20
-224.7826936516649
 30
0.0
 10
149.5885109973997
 20
-225.0004549643309
 30
0.0
 10
149.4865748166839
 20
-225.2955293240447
 30
0.0
 10
149.3097228154829
 20
-225.5352930768349
 30
0.0
 10
149.0376701569612
 20
-225.7019503606789
 30
0.0
 10
148.8188720673743
 20
-225.7192202289043
 30
0.0
 10
148.7042007715672
 20
-225.7282713050408
 30
0.0
  0
SPLINE
  5
2FA8E
330
15759
100
AcDbEntity
  8
0
100
AcDbSpline
210
0.0
220
0.0
230
1.0
 70
     8
 71
     3
 72
    12
 73
     8
 74
     0
 42
0.000000001
 43
0.0000000001
 40
0.0
 40
0.0
 40
0.0
 40
0.0
 40
0.2182835219108511
 40
0.4110339351619555
 40
0.5870154106336935
 40
0.7874950385345568
 40
1.0
 40
1.0
 40
1.0
 40
1.0
 10
148.6006078989476
 20
-237.9838505382104
 30
0.0
 10
148.701182006308
 20
-237.978241450488
 30
0.0
 10
148.8905658441827
 20
-237.9676793825019
 30
0.0
 10
149.1476587755123
 20
-237.8717237470773
 30
0.0
 10
149.3589190817247
 20
-237.7125672551628
 30
0.0
 10
149.5112370828965
 20
-237.4763906268817
 30
0.0
 10
149.528973249241
 20
-237.2851383914822
 30
0.0
 10
149.5380995542973
 20
-237.1867278213067
 30
0.0
  0
SPLINE
  5
2FA8F
330
15759
100
AcDbEntity
  8
0
100
AcDbSpline
210
0.0
220
0.0
230
1.0
 70
     8
 71
     3
 72
    12
 73
     8
 74
     0
 42
0.000000001
 43
0.0000000001
 40
0.0
 40
0.0
 40
0.0
 40
0.0
 40
0.21910229909953
 40
0.4102632973512256
 40
0.5836940453259613
 40
0.7831309881563683
 40
1.0
 40
1.0
 40
1.0
 40
1.0
 10
147.9881850750416
 20
-236.0648342961831
 30
0.0
 10
147.8920003423982
 20
-236.0698362859184
 30
0.0
 10
147.7118969581342
 20
-236.0792023802496
 30
0.0
 10
147.4674432864367
 20
-236.1675260171141
 30
0.0
 10
147.2673425619095
 20
-236.3178136767928
 30
0.0
 10
147.1258549468029
 20
-236.5456380459764
 30
0.0
 10
147.1104044664016
 20
-236.7293660144642
 30
0.0
 10
147.102355745551
 20
-236.825076639132
 30
0.0
  0
SPLINE
  5
2FA90
330
15759
100
AcDbEntity
  8
0
100
AcDbSpline
210
0.0
220
0.0
230
1.0
 70
     8
 71
     3
 72
    12
 73
     8
 74
     0
 42
0.000000001
 43
0.0000000001
 40
0.0
 40
0.0
 40
0.0
 40
0.0
 40
0.1606194661320919
 40
0.3297245030050488
 40
0.5122502043344054
 40
0.745625132203168
 40
1.0
 40
1.0
 40
1.0
 40
1.0
 10
147.102355745551
 20
-236.825076639132
 30
0.0
 10
147.1161372085034
 20
-236.9368735841927
 30
0.0
 10
147.1444282129041
 20
-237.1663737377894
 30
0.0
 10
147.3471464999775
 20
-237.4712427810518
 30
0.0
 10
147.6549540897349
 20
-237.7380072562228
 30
0.0
 10
148.0844640375972
 20
-237.942079515331
 30
0.0
 10
148.4236914953317
 20
-237.9695328649868
 30
0.0
 10
148.6006078989476
 20
-237.9838505382104
 30
0.0
  0
SPLINE
  5
2FA91
330
15759
100
AcDbEntity
  8
0
100
AcDbSpline
210
0.0
220
0.0
230
1.0
 70
     8
 71
     3
 72
    11
 73
     7
 74
     0
 42
0.000000001
 43
0.0000000001
 40
0.0
 40
0.0
 40
0.0
 40
0.0
 40
0.2625560498031447
 40
0.5237444836731365
 40
0.748245937710784
 40
0.9999999999999998
 40
0.9999999999999998
 40
0.9999999999999998
 40
0.9999999999999998
 10
150.2835599453419
 20
-236.9799891109033
 30
0.0
 10
150.2422563110149
 20
-236.6841862167275
 30
0.0
 10
150.1598641869304
 20
-236.0941212222424
 30
0.0
 10
149.5418110153323
 20
-235.4683247661778
 30
0.0
 10
148.7870511714454
 20
-235.1186713846218
 30
0.0
 10
148.2546939651392
 20
-235.0809451737405
 30
0.0
 10
147.9732839138478
 20
-235.0610026711984
 30
0.0
  0
SPLINE
  5
2FA92
330
15759
100
AcDbEntity
  8
0
100
AcDbSpline
210
0.0
220
0.0
230
1.0
 70
     8
 71
     3
 72
    11
 73
     7
 74
     0
 42
0.000000001
 43
0.0000000001
 40
0.0
 40
0.0
 40
0.0
 40
0.0
 40
0.2831403370111587
 40
0.5475069178680073
 40
0.7629731000499406
 40
1.0
 40
1.0
 40
1.0
 40
1.0
 10
149.5159564287632
 20
-238.2201382512612
 30
0.0
 10
149.6456318525843
 20
-238.1497598492606
 30
0.0
 10
149.8963845089192
 20
-238.0136695190377
 30
0.0
 10
150.1394357459603
 20
-237.6895437771527
 30
0.0
 10
150.2651686201525
 20
-237.3369493733553
 30
0.0
 10
150.2772378097861
 20
-237.1026964821358
 30
0.0
 10
150.2835599453419
 20
-236.9799891109033
 30
0.0
  0
LINE
  5
2FA93
330
15759
100
AcDbEntity
  8
0
100
AcDbLine
 10
151.7378685743779
 20
-238.6924305553002
 30
0.0
 11
149.5159564287632
 21
-238.2201382512612
 31
0.0
  0
LINE
  5
2FA94
330
15759
100
AcDbEntity
  8
0
100
AcDbLine
 10
151.7378685743779
 20
-239.6743127698464
 30
0.0
 11
151.7378685743779
 21
-238.6924305553002
 31
0.0
  0
LINE
  5
2FA95
330
15759
100
AcDbEntity
  8
0
100
AcDbLine
 10
146.4158443481892
 20
-238.5449090594812
 30
0.0
 11
151.7378685743779
 21
-239.6743127698464
 31
0.0
  0
LINE
  5
2FA96
330
15759
100
AcDbEntity
  8
0
100
AcDbLine
 10
146.4158443481892
 20
-237.6665154094262
 30
0.0
 11
146.4158443481892
 21
-238.5449090594812
 31
0.0
  0
LINE
  5
2FA97
330
15759
100
AcDbEntity
  8
0
100
AcDbLine
 10
147.0801530153721
 20
-237.7992996568246
 30
0.0
 11
146.4158443481892
 21
-237.6665154094262
 31
0.0
  0
SPLINE
  5
2FA98
330
15759
100
AcDbEntity
  8
0
100
AcDbSpline
210
0.0
220
0.0
230
1.0
 70
     8
 71
     3
 72
    10
 73
     6
 74
     0
 42
0.000000001
 43
0.0000000001
 40
0.0
 40
0.0
 40
0.0
 40
0.0
 40
0.2731461419874084
 40
0.542678196930453
 40
1.0
 40
1.0
 40
1.0
 40
1.0
 10
146.3495788843602
 20
-236.4558854693933
 30
0.0
 10
146.3607526652913
 20
-236.6003178051323
 30
0.0
 10
146.3829523831582
 20
-236.8872714445533
 30
0.0
 10
146.6058854301836
 20
-237.3808115965148
 30
0.0
 10
146.8969936123167
 20
-237.6376819842153
 30
0.0
 10
147.0801530153721
 20
-237.7992996568246
 30
0.0
  0
SPLINE
  5
2FA99
330
15759
100
AcDbEntity
  8
0
100
AcDbSpline
210
0.0
220
0.0
230
1.0
 70
     8
 71
     3
 72
    12
 73
     8
 74
     0
 42
0.000000001
 43
0.0000000001
 40
0.0
 40
0.0
 40
0.0
 40
0.0
 40
0.1561913804956638
 40
0.3209298857596647
 40
0.5013747519467257
 40
0.7371834802818263
 40
1.0
 40
1.0
 40
1.0
 40
1.0
 10
149.5380995542973
 20
-237.1867278213067
 30
0.0
 10
149.5241871530516
 20
-237.0767648475703
 30
0.0
 10
149.4956010343549
 20
-236.8508214921312
 30
0.0
 10
149.2871963765783
 20
-236.5535145210015
 30
0.0
 10
148.9691338668153
 20
-236.296339608085
 30
0.0
 10
148.523209939106
 20
-236.1031624208735
 30
0.0
 10
148.1728523453266
 20
-236.0780634947441
 30
0.0
 10
147.9881850750416
 20
-236.0648342961831
 30
0.0
  0
SPLINE
  5
2FA9A
330
15759
100
AcDbEntity
  8
0
100
AcDbSpline
210
0.0
220
0.0
230
1.0
 70
     8
 71
     3
 72
    12
 73
     8
 74
     0
 42
0.000000001
 43
0.0000000001
 40
0.0
 40
0.0
 40
0.0
 40
0.0
 40
0.2221922785857997
 40
0.4130901053055411
 40
0.5845687395927716
 40
0.7822725953339467
 40
1.0
 40
1.0
 40
1.0
 40
1.0
 10
147.9732839138478
 20
-235.0610026711984
 30
0.0
 10
147.7938261183035
 20
-235.0698132046855
 30
0.0
 10
147.4601860830544
 20
-235.0861933607776
 30
0.0
 10
147.0085746335417
 20
-235.2455386423025
 30
0.0
 10
146.6426342069198
 20
-235.5209323069321
 30
0.0
 10
146.3896636875279
 20
-235.9418320991062
 30
0.0
 10
146.3633630440663
 20
-236.279115392088
 30
0.0
 10
146.3495788843602
 20
-236.4558854693933
 30
0.0
  0
LINE
  5
2FA9B
330
15759
100
AcDbEntity
  8
0
100
AcDbLine
 10
149.5601979763478
 20
-232.3980906600518
 30
0.0
 11
150.1950470478505
 21
-232.5456419581933
 31
0.0
  0
SPLINE
  5
2FA9C
330
15759
100
AcDbEntity
  8
0
100
AcDbSpline
210
0.0
220
0.0
230
1.0
 70
     8
 71
     3
 72
    12
 73
     8
 74
     0
 42
0.000000001
 43
0.0000000001
 40
0.0
 40
0.0
 40
0.0
 40
0.0
 40
0.1947922772465702
 40
0.3703223525244717
 40
0.540125273924843
 40
0.7529071348264682
 40
1.0
 40
1.0
 40
1.0
 40
1.0
 10
149.4939772160023
 20
-233.3650270099206
 30
0.0
 10
149.4898739340888
 20
-233.4296190542482
 30
0.0
 10
149.4820731268291
 20
-233.5524159030065
 30
0.0
 10
149.4076269139395
 20
-233.7190998711157
 30
0.0
 10
149.2791396887978
 20
-233.8553516551983
 30
0.0
 10
149.0861816346068
 20
-233.9481928420391
 30
0.0
 10
148.9335714367871
 20
-233.9578025588562
 30
0.0
 10
148.8515732557744
 20
-233.9629659051461
 30
0.0
  0
SPLINE
  5
2FA9D
330
15759
100
AcDbEntity
  8
0
100
AcDbSpline
210
0.0
220
0.0
230
1.0
 70
     8
 71
     3
 72
    11
 73
     7
 74
     0
 42
0.000000001
 43
0.0000000001
 40
0.0
 40
0.0
 40
0.0
 40
0.0
 40
0.3499419752236475
 40
0.6275614795540451
 40
0.8153660547041507
 40
1.0
 40
1.0
 40
1.0
 40
1.0
 10
148.1726614506215
 20
-232.2061040992303
 30
0.0
 10
148.388475902545
 20
-232.2625087479901
 30
0.0
 10
148.7755024565149
 20
-232.3636609027381
 30
0.0
 10
149.2137091688664
 20
-232.6582930618169
 30
0.0
 10
149.4567958356701
 20
-233.0088436328369
 30
0.0
 10
149.4816539629892
 20
-233.246974967853
 30
0.0
 10
149.4939772160023
 20
-233.3650270099206
 30
0.0
  0
LINE
  5
2FA9E
330
15759
100
AcDbEntity
  8
0
100
AcDbLine
 10
146.452724722144
 20
-231.8369874352975
 30
0.0
 11
148.1726614506215
 21
-232.2061040992303
 31
0.0
  0
LINE
  5
2FA9F
330
15759
100
AcDbEntity
  8
0
100
AcDbLine
 10
146.452724722144
 20
-230.8553734416528
 30
0.0
 11
146.452724722144
 21
-231.8369874352975
 31
0.0
  0
LINE
  5
2FAA0
330
15759
100
AcDbEntity
  8
0
100
AcDbLine
 10
150.1950470478505
 20
-232.5456419581933
 30
0.0
 11
150.1950470478505
 21
-231.6527792806192
 31
0.0
  0
SPLINE
  5
2FAA1
330
15759
100
AcDbEntity
  8
0
100
AcDbSpline
210
0.0
220
0.0
230
1.0
 70
     8
 71
     3
 72
     9
 73
     5
 74
     0
 42
0.000000001
 43
0.0000000001
 40
0.0
 40
0.0
 40
0.0
 40
0.0
 40
0.5506391391384075
 40
1.0
 40
1.0
 40
1.0
 40
1.0
 10
148.8515732557744
 20
-233.9629659051461
 30
0.0
 10
148.772338139478
 20
-233.9589306528615
 30
0.0
 10
148.6284415097934
 20
-233.9516023465439
 30
0.0
 10
148.4871071394509
 20
-233.9238492434088
 30
0.0
 10
148.4235970051259
 20
-233.911378085093
 30
0.0
  0
LINE
  5
2FAA2
330
15759
100
AcDbEntity
  8
0
100
AcDbLine
 10
148.4235970051259
 20
-233.911378085093
 30
0.0
 11
146.452724722144
 21
-233.4979900712533
 31
0.0
  0
LINE
  5
2FAA3
330
15759
100
AcDbEntity
  8
0
100
AcDbLine
 10
146.452724722144
 20
-233.4979900712533
 30
0.0
 11
146.452724722144
 21
-234.4796338672204
 31
0.0
  0
LINE
  5
2FAA4
330
15759
100
AcDbEntity
  8
0
100
AcDbLine
 10
146.452724722144
 20
-234.4796338672204
 30
0.0
 11
148.1726614506215
 21
-234.8412403459115
 31
0.0
  0
LINE
  5
2FAA5
330
15759
100
AcDbEntity
  8
0
100
AcDbLine
 10
150.1950470478505
 20
-231.6527792806192
 30
0.0
 11
146.452724722144
 21
-230.8553734416528
 31
0.0
  0
SPLINE
  5
2FAA6
330
15759
100
AcDbEntity
  8
0
100
AcDbSpline
210
0.0
220
0.0
230
1.0
 70
     8
 71
     3
 72
    10
 73
     6
 74
     0
 42
0.000000001
 43
0.0000000001
 40
0.0
 40
0.0
 40
0.0
 40
0.0
 40
0.2639777553331795
 40
0.5339759528975475
 40
1.0
 40
1.0
 40
1.0
 40
1.0
 10
150.2911446363896
 20
-233.7708303327127
 30
0.0
 10
150.2794570454671
 20
-233.6294861052047
 30
0.0
 10
150.2558153090931
 20
-233.3435740651002
 30
0.0
 10
150.0315882400928
 20
-232.8442565991354
 30
0.0
 10
149.7429523344608
 20
-232.5710657426534
 30
0.0
 10
149.5601979763478
 20
-232.3980906600518
 30
0.0
  0
SPLINE
  5
2FAA7
330
15759
100
AcDbEntity
  8
0
100
AcDbSpline
210
0.0
220
0.0
230
1.0
 70
     8
 71
     3
 72
     9
 73
     5
 74
     0
 42
0.000000001
 43
0.0000000001
 40
0.0
 40
0.0
 40
0.0
 40
0.0
 40
0.6173854932255696
 40
1.0
 40
1.0
 40
1.0
 40
1.0
 10
148.1726614506215
 20
-234.8412403459115
 30
0.0
 10
148.345859015134
 20
-234.8766357499444
 30
0.0
 10
148.6263929220904
 20
-234.9339668735629
 30
0.0
 10
148.9121546241686
 20
-234.9470424683131
 30
0.0
 10
149.0214911968678
 20
-234.952045380549
 30
0.0
  0
SPLINE
  5
2FAA8
330
15759
100
AcDbEntity
  8
0
100
AcDbSpline
210
0.0
220
0.0
230
1.0
 70
     8
 71
     3
 72
    12
 73
     8
 74
     0
 42
0.000000001
 43
0.0000000001
 40
0.0
 40
0.0
 40
0.0
 40
0.0
 40
0.2108665903232171
 40
0.3972851616874464
 40
0.5704493495020077
 40
0.7749324514904363
 40
1.0
 40
1.0
 40
1.0
 40
1.0
 10
149.0214911968678
 20
-234.952045380549
 30
0.0
 10
149.1591043779617
 20
-234.9440538048766
 30
0.0
 10
149.4183757723467
 20
-234.9289972023616
 30
0.0
 10
149.769754757558
 20
-234.7887387036426
 30
0.0
 10
150.0567562532842
 20
-234.5520366720484
 30
0.0
 10
150.2575446323089
 20
-234.1994829376308
 30
0.0
 10
150.279592451373
 20
-233.9182075231074
 30
0.0
 10
150.2911446363896
 20
-233.7708303327127
 30
0.0
  0
LINE
  5
2FAA9
330
15759
100
AcDbEntity
  8
0
100
AcDbLine
 10
139.1950545580357
 20
-202.4574854964776
 30
0.0
 11
155.1950571806401
 21
-202.4574854964776
 31
0.0
  0
LINE
  5
2FAAA
330
15759
100
AcDbEntity
  8
0
100
AcDbLine
 10
154.1950551540822
 20
-202.4574854964776
 30
0.0
 11
154.1950551540822
 21
-242.4574771518273
 31
0.0
  0
LINE
  5
2FAAB
330
15759
100
AcDbEntity
  8
0
100
AcDbLine
 10
139.1950545580357
 20
-242.4574771518273
 30
0.0
 11
155.1950571806401
 21
-242.4574771518273
 31
0.0
  0
ARC
  5
2FAAC
330
15759
100
AcDbEntity
  8
0
100
AcDbCircle
 10
-88.80494675326644
 20
-253.8580991064228
 30
0.0
 40
39.99999999999997
100
AcDbArc
 50
180.0
 51
269.9999823998815
  0
LINE
  5
2FAAD
330
15759
100
AcDbEntity
  8
0
100
AcDbLine
 10
141.1950586111515
 20
296.1419245605902
 30
0.0
 11
141.1950586111515
 21
-202.4574854964776
 31
0.0
  0
LINE
  5
2FAAE
330
15759
100
AcDbEntity
  8
0
100
AcDbLine
 10
141.1950586111515
 20
-242.4574771518273
 30
0.0
 11
141.1950586111515
 21
-253.8581022614999
 31
0.0
  0
ARC
  5
2FAAF
330
15759
100
AcDbEntity
  8
0
100
AcDbCircle
 10
101.1950532467335
 20
296.1419008935773
 30
0.0
 40
40.00000000000006
100
AcDbArc
 50
0.0
 51
90.0
  0
ARC
  5
2FAB0
330
15759
100
AcDbEntity
  8
0
100
AcDbCircle
 10
-88.80494675326644
 20
296.1419008935773
 30
0.0
 40
40.00000000000002
100
AcDbArc
 50
90.0
 51
180.0
  0
LINE
  5
2FAB1
330
15759
100
AcDbEntity
  8
0
100
AcDbLine
 10
-128.8049521176845
 20
-253.8581022614999
 30
0.0
 11
-128.8049521176845
 21
296.1419245605902
 31
0.0
  0
ARC
  5
2FAB2
330
15759
100
AcDbEntity
  8
0
100
AcDbCircle
 10
101.1950532467335
 20
-253.8580991064228
 30
0.0
 40
39.99999999999998
100
AcDbArc
 50
270.0
 51
359.9999812759685
  0
LINE
  5
2FAB3
330
15759
100
AcDbEntity
  8
0
100
AcDbLine
 10
101.1950520546406
 20
-293.8580939168496
 30
0.0
 11
-88.80494556117355
 21
-293.8580939168496
 31
0.0
  0
ARC
  5
2FAB4
330
15759
100
AcDbEntity
  8
0
100
AcDbCircle
 10
101.1950532467263
 20
-386.8249137992425
 30
0.0
 40
40.00000000000003
100
AcDbArc
 50
352.2534721379368
 51
90.00001984794442
  0
LINE
  5
2FAB5
330
15759
100
AcDbEntity
  8
0
100
AcDbLine
 10
140.8300099642247
 20
-392.2165462369485
 30
0.0
 11
111.73041143727
 21
-606.1333993072075
 31
0.0
  0
LINE
  5
2FAB6
330
15759
100
AcDbEntity
  8
0
100
AcDbLine
 10
-99.34030494380294
 20
-606.1333993072075
 30
0.0
 11
-128.4399034707576
 21
-392.2165462369485
 31
0.0
  0
ARC
  5
2FAB7
330
15759
100
AcDbEntity
  8
0
100
AcDbCircle
 10
6.195053246726274
 20
-246.8249137992425
 30
0.0
 40
400.0
100
AcDbArc
 50
259.4521475070066
 51
280.5478524929934
  0
ARC
  5
2FAB8
330
15759
100
AcDbEntity
  8
0
100
AcDbCircle
 10
72.09545090777374
 20
-600.7417650342686
 30
0.0
 40
40.0
100
AcDbArc
 50
280.5478524929934
 51
352.2534721379368
  0
ARC
  5
2FAB9
330
15759
100
AcDbEntity
  8
0
100
AcDbCircle
 10
-59.70534441431755
 20
-600.7417650342686
 30
0.0
 40
40.00000000000006
100
AcDbArc
 50
187.7465278620632
 51
259.4521475070066
  0
ARC
  5
2FABA
330
15759
100
AcDbEntity
  8
0
100
AcDbCircle
 10
-88.80494675327373
 20
-386.8249137992425
 30
0.0
 40
40.0
100
AcDbArc
 50
90.0
 51
187.746505105468
  0
LINE
  5
2FABB
330
15759
100
AcDbEntity
  8
0
100
AcDbLine
 10
-88.80494556117355
 20
-346.8249121303125
 30
0.0
 11
101.1950520546406
 21
-346.8249121303125
 31
0.0
  0
LINE
  5
2FABC
330
15759
100
AcDbEntity
  8
0
100
AcDbLine
 10
-58.3613666026622
 20
-344.3249145144982
 30
0.0
 11
-52.36136189389526
 21
-344.3249145144982
 31
0.0
  0
LINE
  5
2FABD
330
15759
100
AcDbEntity
  8
0
100
AcDbLine
 10
-52.36136189389526
 20
-343.8249209517999
 30
0.0
 11
-52.36136189389526
 21
-346.8249121303125
 31
0.0
  0
LINE
  5
2FABE
330
15759
100
AcDbEntity
  8
0
100
AcDbLine
 10
-58.3613666026622
 20
-343.8249209517999
 30
0.0
 11
-58.3613666026622
 21
-346.8249121303125
 31
0.0
  0
LINE
  5
2FABF
330
15759
100
AcDbEntity
  8
0
100
AcDbLine
 10
70.7514730961293
 20
-344.3249145144982
 30
0.0
 11
64.75146838736236
 21
-344.3249145144982
 31
0.0
  0
LINE
  5
2FAC0
330
15759
100
AcDbEntity
  8
0
100
AcDbLine
 10
64.75146838736236
 20
-346.8249121303125
 30
0.0
 11
64.75146838736236
 21
-343.8249209517999
 31
0.0
  0
LINE
  5
2FAC1
330
15759
100
AcDbEntity
  8
0
100
AcDbLine
 10
70.7514730961293
 20
-346.8249121303125
 30
0.0
 11
70.7514730961293
 21
-343.8249209517999
 31
0.0
  0
LINE
  5
2FAC2
330
15759
100
AcDbEntity
  8
0
100
AcDbLine
 10
-58.3613666026622
 20
-303.3249208325906
 30
0.0
 11
-52.36136189389526
 21
-303.3249208325906
 31
0.0
  0
LINE
  5
2FAC3
330
15759
100
AcDbEntity
  8
0
100
AcDbLine
 10
-52.36136189389526
 20
-303.3249208325906
 30
0.0
 11
-52.36136189389526
 21
-303.824914395289
 31
0.0
  0
LINE
  5
2FAC4
330
15759
100
AcDbEntity
  8
0
100
AcDbLine
 10
-58.3613666026622
 20
-303.3249208325906
 30
0.0
 11
-58.3613666026622
 21
-303.824914395289
 31
0.0
  0
LINE
  5
2FAC5
330
15759
100
AcDbEntity
  8
0
100
AcDbLine
 10
70.7514730961293
 20
-303.3249208325906
 30
0.0
 11
64.75146838736236
 21
-303.3249208325906
 31
0.0
  0
LINE
  5
2FAC6
330
15759
100
AcDbEntity
  8
0
100
AcDbLine
 10
64.75146838736236
 20
-303.824914395289
 30
0.0
 11
64.75146838736236
 21
-303.3249208325906
 31
0.0
  0
LINE
  5
2FAC7
330
15759
100
AcDbEntity
  8
0
100
AcDbLine
 10
70.7514730961293
 20
-303.824914395289
 30
0.0
 11
70.7514730961293
 21
-303.3249208325906
 31
0.0
  0
LINE
  5
2FAC8
330
15759
100
AcDbEntity
  8
0
100
AcDbLine
 10
-46.30494511413871
 20
-343.8249209517999
 30
0.0
 11
-46.30494511413871
 21
-303.824914395289
 31
0.0
  0
LINE
  5
2FAC9
330
15759
100
AcDbEntity
  8
0
100
AcDbLine
 10
-64.80494907784759
 20
-303.824914395289
 30
0.0
 11
-64.80494907784759
 21
-343.8249209517999
 31
0.0
  0
LINE
  5
2FACA
330
15759
100
AcDbEntity
  8
0
100
AcDbLine
 10
-65.80494365382492
 20
-342.824918925242
 30
0.0
 11
-65.80494365382492
 21
-304.8249164218469
 31
0.0
  0
LINE
  5
2FACB
330
15759
100
AcDbEntity
  8
0
100
AcDbLine
 10
-45.80494782615005
 20
-304.3249079579873
 30
0.0
 11
-45.80494782615005
 21
-343.3249124879403
 31
0.0
  0
LINE
  5
2FACC
330
15759
100
AcDbEntity
  8
0
100
AcDbLine
 10
77.19505557131469
 20
-343.8249209517999
 30
0.0
 11
77.19505557131469
 21
-303.824914395289
 31
0.0
  0
LINE
  5
2FACD
330
15759
100
AcDbEntity
  8
0
100
AcDbLine
 10
78.19505014729202
 20
-304.8249164218469
 30
0.0
 11
78.19505014729202
 21
-342.824918925242
 31
0.0
  0
LINE
  5
2FACE
330
15759
100
AcDbEntity
  8
0
100
AcDbLine
 10
58.19505431961715
 20
-343.3249124879403
 30
0.0
 11
58.19505431961715
 21
-304.3249079579873
 31
0.0
  0
LINE
  5
2FACF
330
15759
100
AcDbEntity
  8
0
100
AcDbLine
 10
58.69505160760581
 20
-303.824914395289
 30
0.0
 11
58.69505160760581
 21
-343.8249209517999
 31
0.0
  0
LINE
  5
2FAD0
330
15759
100
AcDbEntity
  8
0
100
AcDbLine
 10
-45.02176142025291
 20
-310.3131034965081
 30
0.0
 11
-39.02176043677627
 21
-310.3131034965081
 31
0.0
  0
LINE
  5
2FAD1
330
15759
100
AcDbEntity
  8
0
100
AcDbLine
 10
57.41186791372001
 20
-310.3131034965081
 30
0.0
 11
51.41186693024337
 21
-310.3131034965081
 31
0.0
  0
LINE
  5
2FAD2
330
15759
100
AcDbEntity
  8
0
100
AcDbLine
 10
57.41186791372001
 20
-295.6547269219918
 30
0.0
 11
51.41186693024337
 21
-295.6547269219918
 31
0.0
  0
LINE
  5
2FAD3
330
15759
100
AcDbEntity
  8
0
100
AcDbLine
 10
-45.02176142025291
 20
-295.6547269219918
 30
0.0
 11
-39.02176043677627
 21
-295.6547269219918
 31
0.0
  0
LINE
  5
2FAD4
330
15759
100
AcDbEntity
  8
0
100
AcDbLine
 10
-45.02176142025291
 20
-293.8580939168496
 30
0.0
 11
-45.02176142025291
 21
-343.8249209517999
 31
0.0
  0
LINE
  5
2FAD5
330
15759
100
AcDbEntity
  8
0
100
AcDbLine
 10
-39.02176043677627
 20
-293.8580939168496
 30
0.0
 11
-39.02176043677627
 21
-343.8249209517999
 31
0.0
  0
LINE
  5
2FAD6
330
15759
100
AcDbEntity
  8
0
100
AcDbLine
 10
57.41186791372001
 20
-343.8249209517999
 30
0.0
 11
57.41186791372001
 21
-293.8580939168496
 31
0.0
  0
LINE
  5
2FAD7
330
15759
100
AcDbEntity
  8
0
100
AcDbLine
 10
51.41186693024337
 20
-343.8249209517999
 30
0.0
 11
51.41186693024337
 21
-293.8580939168496
 31
0.0
  0
LINE
  5
2FAD8
330
15759
100
AcDbEntity
  8
0
100
AcDbLine
 10
-153.8049431769868
 20
538.451554477735
 30
0.0
 11
-143.80495271373
 21
538.451554477735
 31
0.0
  0
LINE
  5
2FAD9
330
15759
100
AcDbEntity
  8
0
100
AcDbLine
 10
-153.8049431769868
 20
600.9577533607917
 30
0.0
 11
-143.80495271373
 21
600.9577533607917
 31
0.0
  0
LINE
  5
2FADA
330
15759
100
AcDbEntity
  8
0
100
AcDbLine
 10
-153.8049431769868
 20
537.321092784925
 30
0.0
 11
-153.8049431769868
 21
620.0861951713996
 31
0.0
  0
LINE
  5
2FADB
330
15759
100
AcDbEntity
  8
0
100
AcDbLine
 10
-143.80495271373
 20
537.321092784925
 30
0.0
 11
-143.80495271373
 21
620.0861951713996
 31
0.0
  0
LINE
  5
2FADC
330
15759
100
AcDbEntity
  8
0
100
AcDbLine
 10
156.1950592071989
 20
538.451554477735
 30
0.0
 11
166.1950496704557
 21
538.451554477735
 31
0.0
  0
LINE
  5
2FADD
330
15759
100
AcDbEntity
  8
0
100
AcDbLine
 10
156.1950592071989
 20
600.9577533607917
 30
0.0
 11
166.1950496704557
 21
600.9577533607917
 31
0.0
  0
LINE
  5
2FADE
330
15759
100
AcDbEntity
  8
0
100
AcDbLine
 10
166.1950496704557
 20
537.321092784925
 30
0.0
 11
166.1950496704557
 21
620.0861951713996
 31
0.0
  0
LINE
  5
2FADF
330
15759
100
AcDbEntity
  8
0
100
AcDbLine
 10
156.1950592071989
 20
537.321092784925
 30
0.0
 11
156.1950592071989
 21
620.0861951713996
 31
0.0
  0
LINE
  5
2FAE0
330
15759
100
AcDbEntity
  8
0
100
AcDbLine
 10
11.19505313497484
 20
-343.8255318994088
 30
0.0
 11
1.195053358492259
 21
-343.8255318994088
 31
0.0
  0
LINE
  5
2FAE1
330
15759
100
AcDbEntity
  8
0
100
AcDbLine
 10
11.19505313497484
 20
-343.8255318994088
 30
0.0
 11
11.19505313497484
 21
-346.8249121303125
 31
0.0
  0
LINE
  5
2FAE2
330
15759
100
AcDbEntity
  8
0
100
AcDbLine
 10
1.195053358492259
 20
-343.8255318994088
 30
0.0
 11
1.195053358492259
 21
-346.8249121303125
 31
0.0
  0
LINE
  5
2FAE3
330
15759
100
AcDbEntity
  8
0
100
AcDbLine
 10
-36.80494821358025
 20
-303.824914395289
 30
0.0
 11
-36.80494821358025
 21
-343.8249209517999
 31
0.0
  0
LINE
  5
2FAE4
330
15759
100
AcDbEntity
  8
0
100
AcDbLine
 10
-37.80494651484787
 20
-342.824918925242
 30
0.0
 11
-37.80494651484787
 21
-304.8249164218469
 31
0.0
  0
LINE
  5
2FAE5
330
15759
100
AcDbEntity
  8
0
100
AcDbLine
 10
50.19505300831497
 20
-304.8249164218469
 30
0.0
 11
50.19505300831497
 21
-342.824918925242
 31
0.0
  0
LINE
  5
2FAE6
330
15759
100
AcDbEntity
  8
0
100
AcDbLine
 10
49.19505470704734
 20
-343.8249209517999
 30
0.0
 11
49.19505470704734
 21
-303.824914395289
 31
0.0
  0
LINE
  5
2FAE7
330
15759
100
AcDbEntity
  8
0
100
AcDbLine
 10
256.1950532467345
 20
553.675057590528
 30
0.0
 11
256.1950532467345
 21
443.675102890058
 31
0.0
  0
LINE
  5
2FAE8
330
15759
100
AcDbEntity
  8
0
100
AcDbLine
 10
-243.8049467532656
 20
553.675057590528
 30
0.0
 11
-243.8049467532656
 21
443.675102890058
 31
0.0
  0
LINE
  5
2FAE9
330
15759
100
AcDbEntity
  8
0
100
AcDbLine
 10
256.1950532467335
 20
-446.3249144697947
 30
0.0
 11
256.1950532467335
 21
-556.3249120111031
 31
0.0
  0
LINE
  5
2FAEA
330
15759
100
AcDbEntity
  8
0
100
AcDbLine
 10
-243.8049467532664
 20
-446.3249144697947
 30
0.0
 11
-243.8049467532664
 21
-556.3249120111031
 31
0.0
  0
LINE
  5
2FAEB
330
15759
100
AcDbEntity
  8
0
100
AcDbLine
 10
-66.52176401305496
 20
-335.8249196404977
 30
0.0
 11
-66.52176401305496
 21
-311.8249157065911
 31
0.0
  0
LINE
  5
2FAEC
330
15759
100
AcDbEntity
  8
0
100
AcDbLine
 10
-69.02176162886917
 20
-335.8249196404977
 30
0.0
 11
-69.02176162886917
 21
-311.8249157065911
 31
0.0
  0
LINE
  5
2FAED
330
15759
100
AcDbEntity
  8
0
100
AcDbLine
 10
78.91187050652206
 20
-335.8249196404977
 30
0.0
 11
78.91187050652206
 21
-311.8249157065911
 31
0.0
  0
LINE
  5
2FAEE
330
15759
100
AcDbEntity
  8
0
100
AcDbLine
 10
81.41186812233627
 20
-335.8249196404977
 30
0.0
 11
81.41186812233627
 21
-311.8249157065911
 31
0.0
  0
SPLINE
  5
2FAEF
330
15759
100
AcDbEntity
  8
0
100
AcDbSpline
210
0.0
220
0.0
230
1.0
 70
     8
 71
     3
 72
    13
 73
     9
 74
     0
 42
0.000000001
 43
0.0000000001
 40
0.0
 40
0.0
 40
0.0
 40
0.0
 40
0.0002372575329883
 40
0.1905783222748004
 40
0.3808074453557554
 40
0.6653327645086995
 40
0.9497000965247281
 40
1.0
 40
1.0
 40
1.0
 40
1.0
 10
-73.32835367608367
 20
-321.5043672914071
 30
0.0
 10
-73.32831393849573
 20
-321.5034483590898
 30
0.0
 10
-73.29639451881758
 20
-320.765311291867
 30
0.0
 10
-73.23709190250247
 20
-319.3962828288495
 30
0.0
 10
-73.12957646214363
 20
-317.2546732334704
 30
0.0
 10
-73.00741747016309
 20
-315.5602756280314
 30
0.0
 10
-72.9076055901578
 20
-314.6969752524856
 30
0.0
 10
-72.85368936987016
 20
-314.887224707345
 30
0.0
 10
-72.8455858557254
 20
-314.9158188695474
 30
0.0
  0
SPLINE
  5
2FAF0
330
15759
100
AcDbEntity
  8
0
100
AcDbSpline
210
0.0
220
0.0
230
1.0
 70
     8
 71
     3
 72
    14
 73
    10
 74
     0
 42
0.000000001
 43
0.0000000001
 40
0.0
 40
0.0
 40
0.0
 40
0.0
 40
0.104838745869183
 40
0.283693677407902
 40
0.4624242277705561
 40
0.6412549627253722
 40
0.7608184683231453
 40
0.8804521277169449
 40
1.0
 40
1.0
 40
1.0
 40
1.0
 10
-71.98801657843887
 20
-329.8913368577523
 30
0.0
 10
-71.96114264498556
 20
-330.3819079285276
 30
0.0
 10
-71.88842177309289
 20
-331.7093933915093
 30
0.0
 10
-71.7698747187469
 20
-332.7831360156233
 30
0.0
 10
-71.63239412952771
 20
-332.9387159621437
 30
0.0
 10
-71.50992621475324
 20
-331.9268312208333
 30
0.0
 10
-71.40323779406481
 20
-330.3409377189128
 30
0.0
 10
-71.311512934034
 20
-328.5870031414451
 30
0.0
 10
-71.25040978572087
 20
-327.1947737291157
 30
0.0
 10
-71.21986916947662
 20
-326.4989086980386
 30
0.0
  0
LINE
  5
2FAF1
330
15759
100
AcDbEntity
  8
0
100
AcDbLine
 10
-71.21986916947662
 20
-326.4989086980386
 30
0.0
 11
-69.02176162886917
 21
-326.5805521602197
 31
0.0
  0
SPLINE
  5
2FAF2
330
15759
100
AcDbEntity
  8
0
100
AcDbSpline
210
0.0
220
0.0
230
1.0
 70
     8
 71
     3
 72
    15
 73
    11
 74
     0
 42
0.000000001
 43
0.0000000001
 40
0.0
 40
0.0
 40
0.0
 40
0.0
 40
0.1041385234750175
 40
0.2083518644147711
 40
0.3125037829744499
 40
0.468282373160898
 40
0.6239779423264704
 40
0.7797792808566486
 40
0.9354876001541493
 40
1.0
 40
1.0
 40
1.0
 40
1.0
 10
-71.22176161694824
 20
-323.8026478881402
 30
0.0
 10
-71.19122100303229
 20
-323.0581726893288
 30
0.0
 10
-71.13011783354614
 20
-321.5686874296298
 30
0.0
 10
-71.03839297824833
 20
-319.4729121766723
 30
0.0
 10
-70.93170570863822
 20
-317.3436837073932
 30
0.0
 10
-70.80923138862726
 20
-315.5427249079439
 30
0.0
 10
-70.67176760072925
 20
-314.6462964253296
 30
0.0
 10
-70.5342695135705
 20
-315.0622675973282
 30
0.0
 10
-70.42361742530648
 20
-316.2191825172449
 30
0.0
 10
-70.3588130207072
 20
-317.4611002652091
 30
0.0
 10
-70.33982894110977
 20
-317.8249129647775
 30
0.0
  0
SPLINE
  5
2FAF3
330
15759
100
AcDbEntity
  8
0
100
AcDbSpline
210
0.0
220
0.0
230
1.0
 70
     8
 71
     3
 72
    12
 73
     8
 74
     0
 42
0.000000001
 43
0.0000000001
 40
0.0
 40
0.0
 40
0.0
 40
0.0
 40
0.111103832142343
 40
0.4068059261582266
 40
0.6045068154915279
 40
0.8023244497302249
 40
1.0
 40
1.0
 40
1.0
 40
1.0
 10
-69.48595515179931
 20
-332.6643535489602
 30
0.0
 10
-69.46873177035832
 20
-332.7026240860178
 30
0.0
 10
-69.40566847629179
 20
-332.8427513973074
 30
0.0
 10
-69.31181637332065
 20
-331.924434164408
 30
0.0
 10
-69.20513060306712
 20
-330.4012294635722
 30
0.0
 10
-69.11340534027567
 20
-328.6552504587198
 30
0.0
 10
-69.0523022154166
 20
-327.2719526062538
 30
0.0
 10
-69.02176162886917
 20
-326.5805521602197
 30
0.0
  0
LINE
  5
2FAF4
330
15759
100
AcDbEntity
  8
0
100
AcDbLine
 10
-73.41986915755569
 20
-323.712466060595
 30
0.0
 11
-71.22176161694824
 21
-323.8026478881402
 31
0.0
  0
LINE
  5
2FAF5
330
15759
100
AcDbEntity
  8
0
100
AcDbLine
 10
-71.23893520522415
 20
-325.6365635985894
 30
0.0
 11
-71.21986916947662
 21
-326.4989086980386
 31
0.0
  0
SPLINE
  5
2FAF6
330
15759
100
AcDbEntity
  8
0
100
AcDbSpline
210
0.0
220
0.0
230
1.0
 70
     8
 71
     3
 72
     9
 73
     5
 74
     0
 42
0.000000001
 43
0.0000000001
 40
0.0
 40
0.0
 40
0.0
 40
0.0
 40
0.6233601423797302
 40
0.9999999999999998
 40
0.9999999999999998
 40
0.9999999999999998
 40
0.9999999999999998
 10
-71.53898498702346
 20
-329.3032625312371
 30
0.0
 10
-71.57384661599735
 20
-329.5306704191207
 30
0.0
 10
-71.629771957706
 20
-329.8954802175395
 30
0.0
 10
-71.68569450184532
 20
-329.8742315109594
 30
0.0
 10
-71.70675716090499
 20
-329.8662284011407
 30
0.0
  0
SPLINE
  5
2FAF7
330
15759
100
AcDbEntity
  8
0
100
AcDbSpline
210
0.0
220
0.0
230
1.0
 70
     8
 71
     3
 72
     9
 73
     5
 74
     0
 42
0.000000001
 43
0.0000000001
 40
0.0
 40
0.0
 40
0.0
 40
0.0
 40
0.7280297274290227
 40
1.0
 40
1.0
 40
1.0
 40
1.0
 10
-71.53898498702346
 20
-329.3032625312371
 30
0.0
 10
-71.53064712206196
 20
-329.2406587291189
 30
0.0
 10
-71.51919447850833
 20
-329.1546680068204
 30
0.0
 10
-71.50770342954729
 20
-329.0569765427317
 30
0.0
 10
-71.50457820582687
 20
-329.0304073686166
 30
0.0
  0
LINE
  5
2FAF8
330
15759
100
AcDbEntity
  8
0
100
AcDbLine
 10
-71.42454406905471
 20
-328.2274433965249
 30
0.0
 11
-71.50457820582687
 21
-329.0304073686166
 31
0.0
  0
LINE
  5
2FAF9
330
15759
100
AcDbEntity
  8
0
100
AcDbLine
 10
-71.42454406905471
 20
-328.2274433965249
 30
0.0
 11
-71.33463046241104
 21
-327.0711281890435
 31
0.0
  0
LINE
  5
2FAFA
330
15759
100
AcDbEntity
  8
0
100
AcDbLine
 10
-71.23898735928833
 20
-325.6373533601327
 30
0.0
 11
-71.33463046241104
 21
-327.0711281890435
 31
0.0
  0
LINE
  5
2FAFB
330
15759
100
AcDbEntity
  8
0
100
AcDbLine
 10
-71.23898735928833
 20
-325.6373533601327
 30
0.0
 11
-71.23893520522415
 21
-325.6365635985894
 31
0.0
  0
LINE
  5
2FAFC
330
15759
100
AcDbEntity
  8
0
100
AcDbLine
 10
-69.02176162886917
 20
-326.5805521602197
 30
0.0
 11
-69.04073825764953
 21
-325.7223048800988
 31
0.0
  0
SPLINE
  5
2FAFD
330
15759
100
AcDbEntity
  8
0
100
AcDbSpline
210
0.0
220
0.0
230
1.0
 70
     8
 71
     3
 72
    12
 73
     8
 74
     0
 42
0.000000001
 43
0.0000000001
 40
0.0
 40
0.0
 40
0.0
 40
0.0
 40
0.081820632574435
 40
0.3330676852451476
 40
0.5843143045642147
 40
0.835565984298476
 40
1.0
 40
1.0
 40
1.0
 40
1.0
 10
-71.15651688266098
 20
-322.473464309649
 30
0.0
 10
-71.14300373126844
 20
-322.2517444659061
 30
0.0
 10
-71.08799567384358
 20
-321.3491883158822
 30
0.0
 10
-70.99151735106443
 20
-319.9464787452198
 30
0.0
 10
-70.8667449792747
 20
-318.5696025109209
 30
0.0
 10
-70.75675526756549
 20
-317.7957621927817
 30
0.0
 10
-70.68799299676993
 20
-317.8012853731015
 30
0.0
 10
-70.66079250264465
 20
-317.8034701938195
 30
0.0
  0
LINE
  5
2FAFE
330
15759
100
AcDbEntity
  8
0
100
AcDbLine
 10
-71.22176161694824
 20
-323.8026478881402
 30
0.0
 11
-71.24044767308532
 21
-323.8379487390084
 31
0.0
  0
ELLIPSE
  5
2FAFF
330
15759
100
AcDbEntity
  8
0
100
AcDbEllipse
 10
-73.41987138413333
 20
-323.8249137992425
 30
0.0
 11
148.9543316475316
 21
-6.099525456831977
 31
0.0
210
0.0
220
0.0
230
1.0
 40
0.0005108062434936
 41
1.556185250405924
 42
1.570817243781002
  0
LINE
  5
2FB00
330
15759
100
AcDbEntity
  8
0
100
AcDbLine
 10
-71.22940591264068
 20
-325.6369063252969
 30
0.0
 11
-71.23893520522415
 21
-325.6365635985894
 31
0.0
  0
ELLIPSE
  5
2FB01
330
15759
100
AcDbEntity
  8
0
100
AcDbEllipse
 10
-71.2198713841326
 20
-323.8249137992425
 30
0.0
 11
148.9543148675571
 21
-5.825403895122385
 31
0.0
210
0.0
220
0.0
230
1.0
 40
0.012148723461313
 41
4.712800109074865
 42
4.727494161423527
  0
LINE
  5
2FB02
330
15759
100
AcDbEntity
  8
0
100
AcDbLine
 10
251.1950580151061
 20
525.2569934730964
 30
0.0
 11
141.1950586111525
 21
525.2569934730964
 31
0.0
  0
LINE
  5
2FB03
330
15759
100
AcDbEntity
  8
0
100
AcDbLine
 10
-128.8049521176835
 20
525.2569934730964
 30
0.0
 11
-238.8049515216371
 21
525.2569934730964
 31
0.0
  0
LINE
  5
2FB04
330
15759
100
AcDbEntity
  8
0
100
AcDbLine
 10
251.1950580151061
 20
472.0932266121344
 30
0.0
 11
141.1950586111525
 21
472.0932266121344
 31
0.0
  0
LINE
  5
2FB05
330
15759
100
AcDbEntity
  8
0
100
AcDbLine
 10
-128.8049521176835
 20
472.0932266121344
 30
0.0
 11
-238.8049515216371
 21
472.0932266121344
 31
0.0
  0
LINE
  5
2FB06
330
15759
100
AcDbEntity
  8
0
100
AcDbLine
 10
129.6037433416813
 20
-474.7430532094476
 30
0.0
 11
251.1950580151051
 21
-474.7430532094476
 31
0.0
  0
LINE
  5
2FB07
330
15759
100
AcDbEntity
  8
0
100
AcDbLine
 10
-238.804951521638
 20
-474.7430532094476
 30
0.0
 11
-117.2136368482142
 21
-474.7430532094476
 31
0.0
  0
LINE
  5
2FB08
330
15759
100
AcDbEntity
  8
0
100
AcDbLine
 10
-238.804951521638
 20
-527.9067733878655
 30
0.0
 11
-109.9816562860042
 21
-527.9067733878655
 31
0.0
  0
LINE
  5
2FB09
330
15759
100
AcDbEntity
  8
0
100
AcDbLine
 10
122.3717627794713
 20
-527.9067733878655
 30
0.0
 11
251.1950580151051
 21
-527.9067733878655
 31
0.0
  0
LINE
  5
2FB0A
330
15759
100
AcDbEntity
  8
0
100
AcDbLine
 10
117.8450507791021
 20
590.6611701851325
 30
0.0
 11
117.8450507791021
 21
605.5111905937629
 31
0.0
  0
LINE
  5
2FB0B
330
15759
100
AcDbEntity
  8
0
100
AcDbLine
 10
117.4700556070784
 20
590.6611701851325
 30
0.0
 11
117.4700556070784
 21
605.5111905937629
 31
0.0
  0
LINE
  5
2FB0C
330
15759
100
AcDbEntity
  8
0
100
AcDbLine
 10
-105.4549442856332
 20
605.5111905937629
 30
0.0
 11
-105.4549442856332
 21
590.6611701851325
 31
0.0
  0
LINE
  5
2FB0D
330
15759
100
AcDbEntity
  8
0
100
AcDbLine
 10
-105.0799491136094
 20
605.5111905937629
 30
0.0
 11
-105.0799491136094
 21
590.6611701851325
 31
0.0
  0
SPLINE
  5
2FB0E
330
15759
100
AcDbEntity
  8
0
100
AcDbSpline
210
0.0
220
0.0
230
1.0
 70
     8
 71
     3
 72
    17
 73
    13
 74
     0
 42
0.000000001
 43
0.0000000001
 40
0.0
 40
0.0
 40
0.0
 40
0.0
 40
0.0905088673705994
 40
0.1964763108652429
 40
0.3055802826888921
 40
0.4124284611630032
 40
0.5224399649519653
 40
0.6264549233994576
 40
0.7333288341783021
 40
0.829698592752655
 40
0.9283938967166921
 40
1.0
 40
1.0
 40
1.0
 40
1.0
 10
-252.3485871284029
 20
473.6750742798285
 30
0.0
 10
-252.3401641756973
 20
472.2548006488795
 30
0.0
 10
-252.3218796614565
 20
469.1716759613773
 30
0.0
 10
-252.1627975000483
 20
464.4816370061162
 30
0.0
 10
-251.8894180675125
 20
459.8056621648429
 30
0.0
 10
-251.5071155339392
 20
455.4787029807012
 30
0.0
 10
-251.0462449269034
 20
451.7398843001865
 30
0.0
 10
-250.5280627982829
 20
448.6240542576888
 30
0.0
 10
-250.0041989411475
 20
446.2931181370367
 30
0.0
 10
-249.5330446652261
 20
444.7179237062155
 30
0.0
 10
-249.1575137301261
 20
443.8424621093363
 30
0.0
 10
-249.1535201751394
 20
443.842973123701
 30
0.0
 10
-249.1518410174867
 20
443.8431879883246
 30
0.0
  0
SPLINE
  5
2FB0F
330
15759
100
AcDbEntity
  8
0
100
AcDbSpline
210
0.0
220
0.0
230
1.0
 70
     8
 71
     3
 72
    17
 73
    13
 74
     0
 42
0.000000001
 43
0.0000000001
 40
0.0
 40
0.0
 40
0.0
 40
0.0
 40
0.071599005599026
 40
0.167942833803847
 40
0.2666660514536183
 40
0.3706831646386371
 40
0.4775555508664873
 40
0.5844119834881107
 40
0.694418713203265
 40
0.8003892880437149
 40
0.9094904827702576
 40
1.0
 40
1.0
 40
1.0
 40
1.0
 10
-249.1567285983583
 20
553.4969589119391
 30
0.0
 10
-249.1563276059714
 20
553.5014313149113
 30
0.0
 10
-249.1553870370662
 20
553.5119217962128
 30
0.0
 10
-249.5299407622915
 20
552.6407157879439
 30
0.0
 10
-249.9955874531988
 20
551.0900150676897
 30
0.0
 10
-250.5231408148357
 20
548.7512440265418
 30
0.0
 10
-251.0370619249661
 20
545.6740206962022
 30
0.0
 10
-251.5028288669164
 20
541.9118546270365
 30
0.0
 10
-251.8830629053264
 20
537.6315570205187
 30
0.0
 10
-252.160622597803
 20
532.9165813123508
 30
0.0
 10
-252.3215475649595
 20
528.2275273060004
 30
0.0
 10
-252.3401515296864
 20
525.0953223828692
 30
0.0
 10
-252.3485871284029
 20
523.6750862007575
 30
0.0
  0
SPLINE
  5
2FB10
330
15759
100
AcDbEntity
  8
0
100
AcDbSpline
210
0.0
220
0.0
230
1.0
 70
     8
 71
     3
 72
    17
 73
    13
 74
     0
 42
0.000000001
 43
0.0000000001
 40
0.0
 40
0.0
 40
0.0
 40
0.0
 40
0.0347861454284135
 40
0.1449970081675329
 40
0.2514757520352084
 40
0.3610617974858915
 40
0.4664133144750446
 40
0.5747500884081074
 40
0.6795314636388757
 40
0.7873054840741213
 40
0.892133162355336
 40
1.0
 40
1.0
 40
1.0
 40
1.0
 10
261.5419475109557
 20
443.8431879883246
 30
0.0
 10
261.5296577912086
 20
443.8174315761462
 30
0.0
 10
261.478431287891
 20
443.7100726647003
 30
0.0
 10
261.8162636394191
 20
444.4135793695531
 30
0.0
 10
262.3031962571658
 20
445.9415525833319
 30
0.0
 10
262.8537661686023
 20
448.2902929647607
 30
0.0
 10
263.3798055040497
 20
451.3536624245789
 30
0.0
 10
263.8451647177426
 20
455.0000132667665
 30
0.0
 10
264.233234401494
 20
459.1980299150309
 30
0.0
 10
264.5179618389302
 20
463.758257662961
 30
0.0
 10
264.703513033859
 20
468.6429851484644
 30
0.0
 10
264.7268555798473
 20
471.9818085904335
 30
0.0
 10
264.7386936218718
 20
473.6750742798285
 30
0.0
  0
SPLINE
  5
2FB11
330
15759
100
AcDbEntity
  8
0
100
AcDbSpline
210
0.0
220
0.0
230
1.0
 70
     8
 71
     3
 72
    17
 73
    13
 74
     0
 42
0.000000001
 43
0.0000000001
 40
0.0
 40
0.0
 40
0.0
 40
0.0
 40
0.1048239506204171
 40
0.2126920443740375
 40
0.3174693156168022
 40
0.4252473212048295
 40
0.5305949011613213
 40
0.6389344343923867
 40
0.7454238343502797
 40
0.8549978930890144
 40
0.9614629683342441
 40
1.0
 40
1.0
 40
1.0
 40
1.0
 10
264.7386936218718
 20
523.6750862007575
 30
0.0
 10
264.7274798715443
 20
525.3204100665389
 30
0.0
 10
264.7047267176313
 20
528.6588388759773
 30
0.0
 10
264.5223875642041
 20
533.5027235076522
 30
0.0
 10
264.2365358593088
 20
538.1097987945431
 30
0.0
 10
263.8531063080627
 20
542.2769150329623
 30
0.0
 10
263.3846534774493
 20
545.9643140696571
 30
0.0
 10
262.8638336812583
 20
549.0088105435461
 30
0.0
 10
262.308860714249
 20
551.3890456562694
 30
0.0
 10
261.8256980975093
 20
552.911111151945
 30
0.0
 10
261.483673464616
 20
553.6299789261756
 30
0.0
 10
261.5335732794047
 20
553.5248886305853
 30
0.0
 10
261.5468350918273
 20
553.4969589119391
 30
0.0
  0
SPLINE
  5
2FB12
330
15759
100
AcDbEntity
  8
0
100
AcDbSpline
210
0.0
220
0.0
230
1.0
 70
     8
 71
     3
 72
    17
 73
    13
 74
     0
 42
0.000000001
 43
0.0000000001
 40
0.0
 40
0.0
 40
0.0
 40
0.0
 40
0.0905087774284019
 40
0.1964763624012613
 40
0.305580175017423
 40
0.4124291414760279
 40
0.5224401635008566
 40
0.6264548161577643
 40
0.7333287140053639
 40
0.8296984076544646
 40
0.92839391000243
 40
1.0
 40
1.0
 40
1.0
 40
1.0
 10
-252.3485871284038
 20
-526.3249145443005
 30
0.0
 10
-252.3401641077116
 20
-527.7451867540621
 30
0.0
 10
-252.3218794229151
 20
-530.8283122289794
 30
0.0
 10
-252.1627982607288
 20
-535.518353207135
 30
0.0
 10
-251.8894157935729
 20
-540.1943300199855
 30
0.0
 10
-251.5071188511329
 20
-544.5213192844239
 30
0.0
 10
-251.046244243761
 20
-548.260117473299
 30
0.0
 10
-250.5280619834784
 20
-551.3759198249754
 30
0.0
 10
-250.0041992673987
 20
-553.7068684360638
 30
0.0
 10
-249.5330439097606
 20
-555.2820258323408
 30
0.0
 10
-249.1575139901697
 20
-556.1575752952339
 30
0.0
 10
-249.1535202506102
 20
-556.1570484384064
 30
0.0
 10
-249.1518410174876
 20
-556.1568269128365
 30
0.0
  0
SPLINE
  5
2FB13
330
15759
100
AcDbEntity
  8
0
100
AcDbSpline
210
0.0
220
0.0
230
1.0
 70
     8
 71
     3
 72
    17
 73
    13
 74
     0
 42
0.000000001
 43
0.0000000001
 40
0.0
 40
0.0
 40
0.0
 40
0.0
 40
0.0715990317752364
 40
0.167942886353368
 40
0.266665996547957
 40
0.3706828001906603
 40
0.4775561006418209
 40
0.5844110853876606
 40
0.6944176116550742
 40
0.8003894388986216
 40
0.9094905213431003
 40
1.0
 40
1.0
 40
1.0
 40
1.0
 10
-249.1567285983592
 20
-446.5030355001253
 30
0.0
 10
-249.1563276009265
 20
-446.4985757141476
 30
0.0
 10
-249.1553870202415
 20
-446.4881148278582
 30
0.0
 10
-249.5299406250242
 20
-447.3593132413189
 30
0.0
 10
-249.9955862941761
 20
-448.9100047619176
 30
0.0
 10
-250.523145471544
 20
-451.2487209158898
 30
0.0
 10
-251.0370544319712
 20
-454.3260375334648
 30
0.0
 10
-251.5028327094015
 20
-458.0880994109466
 30
0.0
 10
-251.8830651554426
 20
-462.3684087711808
 30
0.0
 10
-252.1606205913276
 20
-467.0834091159522
 30
0.0
 10
-252.321547857443
 20
-471.7724755580929
 30
0.0
 10
-252.3401516190215
 20
-474.9046781886063
 30
0.0
 10
-252.3485871284038
 20
-476.3249137992424
 30
0.0
  0
SPLINE
  5
2FB14
330
15759
100
AcDbEntity
  8
0
100
AcDbSpline
210
0.0
220
0.0
230
1.0
 70
     8
 71
     3
 72
    17
 73
    13
 74
     0
 42
0.000000001
 43
0.0000000001
 40
0.0
 40
0.0
 40
0.0
 40
0.0
 40
0.0347150638102217
 40
0.1449339514080683
 40
0.2514206374080294
 40
0.3610145606920839
 40
0.4663741733966926
 40
0.5747186496145281
 40
0.6795083551239642
 40
0.7872900501537235
 40
0.8921247907406865
 40
1.0
 40
1.0
 40
1.0
 40
1.0
 10
261.54188790631
 20
-556.1569312209648
 30
0.0
 10
261.5296358546284
 20
-556.182616276048
 30
0.0
 10
261.4784840470847
 20
-556.2898503155956
 30
0.0
 10
261.8162810958374
 20
-555.5864230662773
 30
0.0
 10
262.3031904749832
 20
-554.0584525563608
 30
0.0
 10
262.8537694180586
 20
-551.709736823177
 30
0.0
 10
263.3798028772099
 20
-548.6463248303843
 30
0.0
 10
263.8451674893613
 20
-544.9999925923002
 30
0.0
 10
264.2332323092696
 20
-540.8019461898621
 30
0.0
 10
264.517961630535
 20
-536.2417309656339
 30
0.0
 10
264.7035136897021
 20
-531.3570093476774
 30
0.0
 10
264.7268557608941
 20
-528.0181878119765
 30
0.0
 10
264.7386936218709
 20
-526.3249145443005
 30
0.0
  0
SPLINE
  5
2FB15
330
15759
100
AcDbEntity
  8
0
100
AcDbSpline
210
0.0
220
0.0
230
1.0
 70
     8
 71
     3
 72
    17
 73
    13
 74
     0
 42
0.000000001
 43
0.0000000001
 40
0.0
 40
0.0
 40
0.0
 40
0.0
 40
0.1048321088844992
 40
0.21270856618352
 40
0.3174930601144536
 40
0.4252786715505433
 40
0.5306335202782812
 40
0.6389814408884523
 40
0.7454781085665216
 40
0.8550604478825912
 40
0.9615332822847289
 40
0.9999999999999998
 40
0.9999999999999998
 40
0.9999999999999998
 40
0.9999999999999998
 10
264.7386936218709
 20
-476.3249137992424
 30
0.0
 10
264.7274798085082
 20
-474.6795814939214
 30
0.0
 10
264.704726530078
 20
-471.3411360568825
 30
0.0
 10
264.5223889232757
 20
-466.4972358851082
 30
0.0
 10
264.2365351924773
 20
-461.8901686064637
 30
0.0
 10
263.8531073811782
 20
-457.7230597888374
 30
0.0
 10
263.3846499102137
 20
-454.0356970909161
 30
0.0
 10
262.8638390980404
 20
-450.9911363939863
 30
0.0
 10
262.3088513667781
 20
-448.610975510237
 30
0.0
 10
261.8257237642711
 20
-447.0888900285317
 30
0.0
 10
261.4837071569882
 20
-446.370023675463
 30
0.0
 10
261.5335714014027
 20
-446.4750676071925
 30
0.0
 10
261.5468052895039
 20
-446.5029460931582
 30
0.0
  0
LINE
  5
2FB16
330
15759
100
AcDbEntity
  8
0
100
AcDbLine
 10
-13.80494630623161
 20
-346.8249121303125
 30
0.0
 11
-13.80494630623161
 21
-343.8249209517999
 31
0.0
  0
LINE
  5
2FB17
330
15759
100
AcDbEntity
  8
0
100
AcDbLine
 10
-13.80494630623161
 20
-303.824914395289
 30
0.0
 11
-13.80494630623161
 21
-293.8580939168496
 31
0.0
  0
LINE
  5
2FB18
330
15759
100
AcDbEntity
  8
0
100
AcDbLine
 10
26.19505279969871
 20
-346.8249121303125
 30
0.0
 11
26.19505279969871
 21
-343.8249209517999
 31
0.0
  0
LINE
  5
2FB19
330
15759
100
AcDbEntity
  8
0
100
AcDbLine
 10
26.19505279969871
 20
-303.824914395289
 30
0.0
 11
26.19505279969871
 21
-293.8580939168496
 31
0.0
  0
LINE
  5
2FB1A
330
15759
100
AcDbEntity
  8
0
100
AcDbLine
 10
267.1950606377104
 20
523.6750862007575
 30
0.0
 11
251.1950580151061
 21
523.6750862007575
 31
0.0
  0
LINE
  5
2FB1B
330
15759
100
AcDbEntity
  8
0
100
AcDbLine
 10
267.1950606377104
 20
473.6750742798285
 30
0.0
 11
251.1950580151061
 21
473.6750742798285
 31
0.0
  0
LINE
  5
2FB1C
330
15759
100
AcDbEntity
  8
0
100
AcDbLine
 10
267.1950606377095
 20
-476.3249137992424
 30
0.0
 11
251.1950580151051
 21
-476.3249137992424
 31
0.0
  0
LINE
  5
2FB1D
330
15759
100
AcDbEntity
  8
0
100
AcDbLine
 10
267.1950606377095
 20
-526.3249145443005
 30
0.0
 11
251.1950580151051
 21
-526.3249145443005
 31
0.0
  0
ATTDEF
  5
2FB1E
102
{ACAD_XDICTIONARY
360
2FB1F
102
}
330
15759
100
AcDbEntity
  8
0
100
AcDbText
 10
-156.2970118549129
 20
-947.9409126936479
 30
0.0
 40
100.0
  1
751H
  7
Annotative
 72
     1
 11
10.6879813238047
 21
-897.9409126936479
 31
0.0
100
AcDbAttributeDefinition
280
     0
  3
Tag Number?
  2
751H
 70
     0
 74
     2
280
     1
1001
AcadAnnotative
1000
AnnotativeData
1002
{
1070
     1
1070
     1
1002
}
1001
AcadAnnoPO
1070
     1
  0
ENDBLK
  5
1575B
330
15759
100
AcDbEntity
  8
0
100
AcDbBlockEnd
  0
ENDSEC
  0
SECTION
  2
ENTITIES
  0
INSERT
  5
159B5
330
1F
100
AcDbEntity
  8
0
100
AcDbBlockReference
 66
     1
  2
751G - Adjustable Incline Bench
 10
2226.213860290853
 20
7233.515242484834
 30
0.0
  0
ATTRIB
  5
159B7
102
{ACAD_XDICTIONARY
360
159B8
102
}
330
159B5
100
AcDbEntity
  8
0
100
AcDbText
 10
2066.028717467318
 20
6285.574329791187
 30
0.0
 40
100.0
  1
751G
  7
Annotative
 72
     1
 11
2236.901841614657
 21
6335.574329791187
 31
0.0
100
AcDbAttribute
280
     0
  2
XXX
 70
     0
 74
     2
280
     1
1001
AcadAnnotative
1000
AnnotativeData
1002
{
1070
     1
1070
     1
1002
}
1001
AcadAnnoPO
1070
     1
  0
SEQEND
  5
159B6
330
159B5
100
AcDbEntity
  8
0
  0
VIEWPORT
  5
27942
102
{ACAD_XDICTIONARY
360
27943
102
}
330
D2
100
AcDbEntity
 67
     1
  8
0
100
AcDbViewport
 10
132.9126456575008
 20
79.43971249921216
 30
0.0
 40
59.17324646995997
 41
34.90838257121704
 68
     1
 69
     1
 12
132.9126456575008
 22
79.43971249921216
 13
0.0
 23
0.0
 14
10.0
 24
10.0
 15
10.0
 25
10.0
 16
0.0
 26
0.0
 36
1.0
 17
0.0
 27
0.0
 37
0.0
 42
50.0
 43
0.0
 44
0.0
 45
34.90838257121704
 50
0.0
 51
0.0
 72
  1000
 90
   557088
  1

281
     0
 71
     1
 74
     0
110
0.0
120
0.0
130
0.0
111
1.0
121
0.0
131
0.0
112
0.0
122
1.0
132
0.0
 79
     0
146
0.0
170
     0
 61
     5
348
F5
292
     1
282
     1
141
0.0
142
0.0
 63
   250
421
  3355443
  0
VIEWPORT
  5
27946
102
{ACAD_XDICTIONARY
360
27947
102
}
330
D2
100
AcDbEntity
 67
     1
  8
0
100
AcDbViewport
 10
128.5
 20
97.5
 30
0.0
 40
205.6
 41
156.0
 68
     2
 69
     2
 12
24354.21263936498
 22
7931.021756414132
 13
0.0
 23
0.0
 14
10.0
 24
10.0
 15
10.0
 25
10.0
 16
0.0
 26
0.0
 36
1.0
 17
0.0
 27
0.0
 37
0.0
 42
50.0
 43
0.0
 44
0.0
 45
40739.08749714598
 50
0.0
 51
0.0
 72
  1000
 90
   819808
  1

281
     0
 71
     1
 74
     0
110
0.0
120
0.0
130
0.0
111
1.0
121
0.0
131
0.0
112
0.0
122
1.0
132
0.0
 79
     0
146
0.0
170
     0
 61
     5
348
F5
292
     1
282
     1
141
0.0
142
0.0
 63
   250
421
  3355443
  0
ENDSEC
  0
SECTION
  2
OBJECTS
  0
DICTIONARY
  5
C
330
0
100
AcDbDictionary
281
     1
  3
ACAD_CIP_PREVIOUS_PRODUCT_INFO
350
216
  3
ACAD_COLOR
350
6B
  3
ACAD_DETAILVIEWSTYLE
350
21B
  3
ACAD_GROUP
350
D
  3
ACAD_LAST_SAVED_VERSION_INFO
350
11342
  3
ACAD_LAYOUT
350
1A
  3
ACAD_MATERIAL
350
6A
  3
ACAD_MLEADERSTYLE
350
12D
  3
ACAD_MLINESTYLE
350
17
  3
ACAD_PLOTSETTINGS
350
19
  3
ACAD_PLOTSTYLENAME
350
E
  3
ACAD_SCALELIST
350
10C
  3
ACAD_SECTIONVIEWSTYLE
350
219
  3
ACAD_TABLESTYLE
350
7E
  3
ACAD_VISUALSTYLE
350
EF
  3
ACDB_RECOMPOSE_DATA
350
352BB
  3
AcDbVariableDictionary
350
5E
  0
DICTIONARY
  5
1FF
330
2
100
AcDbDictionary
280
     1
281
     1
  3
ACAD_LAYERSTATES
360
200
  0
DICTIONARY
  5
13C
330
10
100
AcDbDictionary
280
     1
281
     1
  0
DICTIONARY
  5
1CE
330
1F
100
AcDbDictionary
280
     1
281
     1
  3
ACAD_SORTENTS
360
10C81
  0
DICTIONARY
  5
2FB23
330
15759
100
AcDbDictionary
280
     1
281
     1
  0
DICTIONARY
  5
2FB1F
330
2FB1E
100
AcDbDictionary
280
     1
281
     1
  3
AcDbContextDataManager
360
2FB20
  0
DICTIONARY
  5
159B8
330
159B7
100
AcDbDictionary
280
     1
281
     1
  3
AcDbContextDataManager
360
159B9
  0
DICTIONARY
  5
27943
330
27942
100
AcDbDictionary
280
     1
281
     1
  3
ASDK_XREC_ANNOTATION_SCALE_INFO
360
27944
  0
DICTIONARY
  5
27947
330
27946
100
AcDbDictionary
280
     1
281
     1
  3
ASDK_XREC_ANNOTATION_SCALE_INFO
360
27948
  0
XRECORD
  5
216
102
{ACAD_REACTORS
330
C
102
}
330
C
100
AcDbXrecord
280
     1
300
ACDLT
300
2019
300
ACDLT_F_S
  0
DICTIONARY
  5
6B
102
{ACAD_REACTORS
330
C
102
}
330
C
100
AcDbDictionary
281
     1
  0
DICTIONARY
  5
21B
102
{ACAD_REACTORS
330
C
102
}
330
C
100
AcDbDictionary
281
     1
  3
Metric50
350
21C
  0
DICTIONARY
  5
D
102
{ACAD_REACTORS
330
C
102
}
330
C
100
AcDbDictionary
281
     1
  0
XRECORD
  5
11342
102
{ACAD_REACTORS
330
C
102
}
330
C
100
AcDbXrecord
280
     1
300
{3D74595D-0D62-CC42-A1C3-C6954A981475}
301
{999202B2-484E-9C47-848E-DA00BEB8D0DD}
302
{3D74595D-0D62-CC42-A1C3-C6954A981475}
303

  0
DICTIONARY
  5
1A
102
{ACAD_REACTORS
330
C
102
}
330
C
100
AcDbDictionary
281
     1
  3
Layout1
350
D3
  3
Layout2
350
D7
  3
Model
350
22
  0
DICTIONARY
  5
6A
102
{ACAD_REACTORS
330
C
102
}
330
C
100
AcDbDictionary
281
     1
  3
ByBlock
350
ED
  3
ByLayer
350
EC
  3
Global
350
EE
  0
DICTIONARY
  5
12D
102
{ACAD_REACTORS
330
C
102
}
330
C
100
AcDbDictionary
281
     1
  3
Standard
350
12E
  0
DICTIONARY
  5
17
102
{ACAD_REACTORS
330
C
102
}
330
C
100
AcDbDictionary
281
     1
  3
Standard
350
18
  0
DICTIONARY
  5
19
102
{ACAD_REACTORS
330
C
102
}
330
C
100
AcDbDictionary
281
     1
  0
ACDBDICTIONARYWDFLT
  5
E
102
{ACAD_REACTORS
330
C
102
}
330
C
100
AcDbDictionary
281
     1
  3
Normal
350
F
100
AcDbDictionaryWithDefault
340
F
  0
DICTIONARY
  5
10C
102
{ACAD_REACTORS
330
C
102
}
330
C
100
AcDbDictionary
281
     1
  3
A0
350
10D
  3
A1
350
1BE
  3
A2
350
1BF
  3
A3
350
1C0
  3
A4
350
1C1
  3
A5
350
1C2
  3
A6
350
1C3
  3
A7
350
1C4
  3
A8
350
1C5
  3
A9
350
1C6
  3
B0
350
1C7
  3
B1
350
1C8
  3
B2
350
1C9
  3
B3
350
1CA
  3
B4
350
1CB
  3
B5
350
1CC
  3
B6
350
1CD
  0
DICTIONARY
  5
219
102
{ACAD_REACTORS
330
C
102
}
330
C
100
AcDbDictionary
281
     1
  3
Metric50
350
21A
  0
DICTIONARY
  5
7E
102
{ACAD_REACTORS
330
C
102
}
330
C
100
AcDbDictionary
281
     1
  3
Standard
350
7F
  0
DICTIONARY
  5
EF
102
{ACAD_REACTORS
330
C
102
}
330
C
100
AcDbDictionary
281
     1
  3
2dWireframe
350
F5
  3
Basic
350
F4
  3
Brighten
350
FB
  3
ColorChange
350
FF
  3
Conceptual
350
F8
  3
Dim
350
FA
  3
EdgeColorOff
350
1E6
  3
Facepattern
350
FE
  3
Flat
350
F0
  3
FlatWithEdges
350
F1
  3
Gouraud
350
F2
  3
GouraudWithEdges
350
F3
  3
Hidden
350
F7
  3
JitterOff
350
1E4
  3
Linepattern
350
FD
  3
OverhangOff
350
1E5
  3
Realistic
350
F9
  3
Shaded
350
1F3
  3
Shaded with edges
350
1F2
  3
Shades of Gray
350
1EF
  3
Sketchy
350
1F0
  3
Thicken
350
FC
  3
Wireframe
350
F6
  3
X-Ray
350
1F1
  0
XRECORD
  5
352BB
102
{ACAD_REACTORS
330
C
102
}
330
C
100
AcDbXrecord
280
     1
 90
        1
330
7F
  0
DICTIONARY
  5
5E
102
{ACAD_REACTORS
330
C
102
}
330
C
100
AcDbDictionary
281
     1
  3
CANNOSCALE
350
146
  3
CENTEREXE
350
259
  3
CENTERLTYPEFILE
350
25A
  3
CMLEADERSTYLE
350
145
  3
CTABLESTYLE
350
84
  3
CVIEWDETAILSTYLE
350
227
  3
CVIEWSECTIONSTYLE
350
228
  3
DIMASSOC
350
5F
  3
HIDETEXT
350
63
  3
HPCOLOR
350
1FFCA
  3
HPTRANSPARENCY
350
1FFC9
  3
LAYEREVAL
350
1AE
  3
LAYERNOTIFY
350
1AF
  0
DICTIONARY
  5
200
102
{ACAD_REACTORS
330
1FF
102
}
330
1FF
100
AcDbDictionary
281
     1
  0
SORTENTSTABLE
  5
10C81
102
{ACAD_REACTORS
330
1CE
102
}
330
1CE
100
AcDbSortentsTable
330
1F
331
159B5
  5
1EA05
  0
DICTIONARY
  5
2FB20
102
{ACAD_REACTORS
330
2FB1F
102
}
330
2FB1F
100
AcDbDictionary
281
     1
  3
ACDB_ANNOTATIONSCALES
350
2FB21
  0
DICTIONARY
  5
159B9
102
{ACAD_REACTORS
330
159B8
102
}
330
159B8
100
AcDbDictionary
281
     1
  3
ACDB_ANNOTATIONSCALES
350
159BA
  0
XRECORD
  5
27944
102
{ACAD_REACTORS
330
27943
102
}
330
27943
100
AcDbXrecord
280
     1
 90
        1
340
10D
  0
XRECORD
  5
27948
102
{ACAD_REACTORS
330
27947
102
}
330
27947
100
AcDbXrecord
280
     1
 90
        1
340
10D
  0
ACDBDETAILVIEWSTYLE
  5
21C
102
{ACAD_REACTORS
330
21B
102
}
330
21B
100
AcDbModelDocViewStyle
 70
     0
  3
Metric50
290
     0
300
Metric50
 90
        0
100
AcDbDetailViewStyle
 70
     0
 71
     0
 90
        3
 71
     1
340
11
 62
   256
 40
5.0
340
0
 62
   256
 40
5.0
300

 40
0.0
280
     1
 71
     2
340
16
 90
       25
 62
   256
 71
     3
340
11
 62
   256
 40
5.0
 90
        0
 40
15.0
 90
        1
300
%<\AcVar ViewDetailId>% (%<\AcVar ViewScale \f "%sn">%)
 71
     4
340
16
 90
       25
 62
   256
340
16
 90
       25
 62
   256
280
     0
  0
LAYOUT
  5
D3
102
{ACAD_REACTORS
330
1A
102
}
330
1A
100
AcDbPlotSettings
  1

  2
none_device
  4
ISO_A4_(210.00_x_297.00_MM)
  6

 40
7.5
 41
20.0
 42
7.5
 43
20.0
 44
210.0
 45
297.0
 46
0.0
 47
0.0
 48
0.0
 49
0.0
140
0.0
141
0.0
142
1.0
143
1.0
 70
   688
 72
     1
 73
     1
 74
     5
  7

 75
    16
147
1.0
 76
     0
 77
     2
 78
   300
148
0.0
149
0.0
100
AcDbLayout
  1
Layout1
 70
     1
 71
     1
 10
-20.0
 20
-7.5
 11
277.0
 21
202.5
 12
0.0
 22
0.0
 32
0.0
 14
25.69999999999999
 24
19.5
 34
0.0
 15
231.3
 25
175.5
 35
0.0
146
0.0
 13
0.0
 23
0.0
 33
0.0
 16
1.0
 26
0.0
 36
0.0
 17
0.0
 27
1.0
 37
0.0
 76
     0
330
D2
331
27942
1001
ACAD_PSEXT
1000
None
1000
None
1000
Not applicable
1000
The layout will not be plotted unless a new plotter configuration name is selected.
1070
     0
  0
LAYOUT
  5
D7
102
{ACAD_REACTORS
330
1A
102
}
330
1A
100
AcDbPlotSettings
  1

  2
C:\Documents and Settings\basas\Application Data\Autodesk\AutoCAD 2005\R16.1\enu\plotters\Default Windows System Printer.pc3
  4

  6

 40
0.0
 41
0.0
 42
0.0
 43
0.0
 44
0.0
 45
0.0
 46
0.0
 47
0.0
 48
0.0
 49
0.0
140
0.0
141
0.0
142
1.0
143
1.0
 70
   688
 72
     0
 73
     0
 74
     5
  7

 75
    16
147
1.0
 76
     0
 77
     2
 78
   300
148
0.0
149
0.0
100
AcDbLayout
  1
Layout2
 70
     1
 71
     2
 10
0.0
 20
0.0
 11
12.0
 21
9.0
 12
0.0
 22
0.0
 32
0.0
 14
0.0
 24
0.0
 34
0.0
 15
0.0
 25
0.0
 35
0.0
146
0.0
 13
0.0
 23
0.0
 33
0.0
 16
1.0
 26
0.0
 36
0.0
 17
0.0
 27
1.0
 37
0.0
 76
     0
330
D6
  0
LAYOUT
  5
22
102
{ACAD_XDICTIONARY
360
205
102
}
102
{ACAD_REACTORS
330
1A
102
}
330
1A
100
AcDbPlotSettings
  1

  2
none_device
  4
ISO_A4_(210.00_x_297.00_MM)
  6

 40
7.5
 41
20.0
 42
7.5
 43
20.0
 44
210.0
 45
297.0
 46
11.54999923706054
 47
-13.65000009536743
 48
0.0
 49
0.0
140
0.0
141
0.0
142
1.0
143
8.704084754739808
 70
 11952
 72
     1
 73
     0
 74
     0
  7

 75
     0
147
0.1148885871608098
 76
     0
 77
     2
 78
   300
148
0.0
149
0.0
100
AcDbLayout
  1
Model
 70
     1
 71
     0
 10
0.0
 20
0.0
 11
12.0
 21
9.0
 12
0.0
 22
0.0
 32
0.0
 14
0.0
 24
0.0
 34
0.0
 15
0.0
 25
0.0
 35
0.0
146
0.0
 13
0.0
 23
0.0
 33
0.0
 16
1.0
 26
0.0
 36
0.0
 17
0.0
 27
1.0
 37
0.0
 76
     0
330
1F
331
EA
1001
ACAD_PSEXT
1000
None
1000
None
1000
Not applicable
1000
The layout will not be plotted unless a new plotter configuration name is selected.
1070
     0
  0
MATERIAL
  5
ED
102
{ACAD_XDICTIONARY
360
1F9
102
}
102
{ACAD_REACTORS
330
6A
102
}
330
6A
100
AcDbMaterial
  1
ByBlock
 94
       63
  0
MATERIAL
  5
EC
102
{ACAD_XDICTIONARY
360
1F7
102
}
102
{ACAD_REACTORS
330
6A
102
}
330
6A
100
AcDbMaterial
  1
ByLayer
 94
       63
  0
MATERIAL
  5
EE
102
{ACAD_XDICTIONARY
360
173
102
}
102
{ACAD_REACTORS
330
6A
102
}
330
6A
100
AcDbMaterial
  1
Global
 43
0.0007999999797903
 43
0.0
 43
0.0
 43
0.0
 43
0.0
 43
0.0007999999797903
 43
0.0
 43
0.0
 43
0.0
 43
0.0
 43
1.0
 43
0.0
 43
0.0
 43
0.0
 43
0.0
 43
1.0
 49
0.0007999999797903
 49
0.0
 49
0.0
 49
0.0
 49
0.0
 49
0.0007999999797903
 49
0.0
 49
0.0
 49
0.0
 49
0.0
 49
1.0
 49
0.0
 49
0.0
 49
0.0
 49
0.0
 49
1.0
142
0.0007999999797903
142
0.0
142
0.0
142
0.0
142
0.0
142
0.0007999999797903
142
0.0
142
0.0
142
0.0
142
0.0
142
1.0
142
0.0
142
0.0
142
0.0
142
0.0
142
1.0
144
0.0007999999797903
144
0.0
144
0.0
144
0.0
144
0.0
144
0.0007999999797903
144
0.0
144
0.0
144
0.0
144
0.0
144
1.0
144
0.0
144
0.0
144
0.0
144
0.0
144
1.0
 94
       63
1001
ACAD
1070
    -1
1070
     3
1070
     0
1000

1071
        0
1070
     0
  0
MLEADERSTYLE
  5
12E
102
{ACAD_REACTORS
330
12D
102
}
330
12D
100
AcDbMLeaderStyle
179
     2
170
     2
171
     1
172
     0
 90
        2
 40
0.0
 41
0.0
173
     1
 91
-1056964608
340
14
 92
       -2
290
     1
 42
2.0
291
     1
 43
8.0
  3
Standard
 44
4.0
300

342
11
174
     1
178
     1
175
     1
176
     0
 93
-1056964608
 45
4.0
292
     0
297
     0
 46
4.0
 94
-1056964608
 47
1.0
 49
1.0
140
1.0
293
     1
141
0.0
294
     1
177
     0
142
1.0
295
     0
296
     0
143
3.75
271
     0
272
     9
273
     9
298
     0
  0
MLINESTYLE
  5
18
102
{ACAD_REACTORS
330
17
102
}
330
17
100
AcDbMlineStyle
  2
STANDARD
 70
     0
  3

 62
   256
 51
90.0
 52
90.0
 71
     2
 49
0.5
 62
   256
  6
BYLAYER
 49
-0.5
 62
   256
  6
BYLAYER
  0
ACDBPLACEHOLDER
  5
F
102
{ACAD_REACTORS
330
E
102
}
330
E
  0
SCALE
  5
10D
102
{ACAD_REACTORS
330
10C
102
}
330
10C
100
AcDbScale
 70
     0
300
1:1
140
1.0
141
1.0
290
     1
  0
SCALE
  5
1BE
102
{ACAD_REACTORS
330
10C
102
}
330
10C
100
AcDbScale
 70
     0
300
1:2
140
1.0
141
2.0
290
     0
  0
SCALE
  5
1BF
102
{ACAD_REACTORS
330
10C
102
}
330
10C
100
AcDbScale
 70
     0
300
1:4
140
1.0
141
4.0
290
     0
  0
SCALE
  5
1C0
102
{ACAD_REACTORS
330
10C
102
}
330
10C
100
AcDbScale
 70
     0
300
1:5
140
1.0
141
5.0
290
     0
  0
SCALE
  5
1C1
102
{ACAD_REACTORS
330
10C
102
}
330
10C
100
AcDbScale
 70
     0
300
1:8
140
1.0
141
8.0
290
     0
  0
SCALE
  5
1C2
102
{ACAD_REACTORS
330
10C
102
}
330
10C
100
AcDbScale
 70
     0
300
1:10
140
1.0
141
10.0
290
     0
  0
SCALE
  5
1C3
102
{ACAD_REACTORS
330
10C
102
}
330
10C
100
AcDbScale
 70
     0
300
1:16
140
1.0
141
16.0
290
     0
  0
SCALE
  5
1C4
102
{ACAD_REACTORS
330
10C
102
}
330
10C
100
AcDbScale
 70
     0
300
1:20
140
1.0
141
20.0
290
     0
  0
SCALE
  5
1C5
102
{ACAD_REACTORS
330
10C
102
}
330
10C
100
AcDbScale
 70
     0
300
1:30
140
1.0
141
30.0
290
     0
  0
SCALE
  5
1C6
102
{ACAD_REACTORS
330
10C
102
}
330
10C
100
AcDbScale
 70
     0
300
1:40
140
1.0
141
40.0
290
     0
  0
SCALE
  5
1C7
102
{ACAD_REACTORS
330
10C
102
}
330
10C
100
AcDbScale
 70
     0
300
1:50
140
1.0
141
50.0
290
     0
  0
SCALE
  5
1C8
102
{ACAD_REACTORS
330
10C
102
}
330
10C
100
AcDbScale
 70
     0
300
1:100
140
1.0
141
100.0
290
     0
  0
SCALE
  5
1C9
102
{ACAD_REACTORS
330
10C
102
}
330
10C
100
AcDbScale
 70
     0
300
2:1
140
2.0
141
1.0
290
     0
  0
SCALE
  5
1CA
102
{ACAD_REACTORS
330
10C
102
}
330
10C
100
AcDbScale
 70
     0
300
4:1
140
4.0
141
1.0
290
     0
  0
SCALE
  5
1CB
102
{ACAD_REACTORS
330
10C
102
}
330
10C
100
AcDbScale
 70
     0
300
8:1
140
8.0
141
1.0
290
     0
  0
SCALE
  5
1CC
102
{ACAD_REACTORS
330
10C
102
}
330
10C
100
AcDbScale
 70
     0
300
10:1
140
10.0
141
1.0
290
     0
  0
SCALE
  5
1CD
102
{ACAD_REACTORS
330
10C
102
}
330
10C
100
AcDbScale
 70
     0
300
100:1
140
100.0
141
1.0
290
     0
  0
ACDBSECTIONVIEWSTYLE
  5
21A
102
{ACAD_REACTORS
330
219
102
}
330
219
100
AcDbModelDocViewStyle
 70
     0
  3
Metric50
290
     0
300
Metric50
 90
        0
100
AcDbSectionViewStyle
 70
     0
 71
     0
 90
      102
 71
     1
340
11
 62
   256
 40
5.0
340
0
340
0
 62
   256
 40
5.0
300
I, O, Q, S, X, Z
 40
10.0
 90
        0
 40
2.5
 90
        0
 71
     2
340
16
 90
       25
 62
   256
340
16
 90
       50
 62
   256
 40
5.0
 40
2.5
 40
5.0
 71
     3
340
11
 62
   256
 40
5.0
 90
        0
 40
15.0
 90
        1
300
%<\AcVar ViewSectionStartId>%-%<\AcVar ViewSectionEndId>% (%<\AcVar ViewScale \f "%sn">%)
 71
     4
 62
   256
 62
   257
300
ANSI31
 40
1.0
 90
        0
290
     0
290
     0
 90
        6
 40
0.0
 40
1.570796326794896
 40
0.2617993877991494
 40
1.308996938995747
 40
-0.2617993877991494
 40
1.832595714594046
  0
TABLESTYLE
  5
7F
102
{ACAD_XDICTIONARY
360
162
102
}
102
{ACAD_REACTORS
330
7E
102
}
330
7E
100
AcDbTableStyle
280
     0
  3
Standard
 70
     0
 71
     0
 40
1.5
 41
1.5
280
     0
281
     0
  7
Standard
140
4.5
170
     2
 62
     0
 63
     7
283
     0
 90
      512
 91
        0
  1

274
    -2
284
     1
 64
     0
275
    -2
285
     1
 65
     0
276
    -2
286
     1
 66
     0
277
    -2
287
     1
 67
     0
278
    -2
288
     1
 68
     0
279
    -2
289
     1
 69
     0
  7
Standard
140
6.0
170
     5
 62
     0
 63
     7
283
     0
 90
      512
 91
        0
  1

274
    -2
284
     1
 64
     0
275
    -2
285
     1
 65
     0
276
    -2
286
     1
 66
     0
277
    -2
287
     1
 67
     0
278
    -2
288
     1
 68
     0
279
    -2
289
     1
 69
     0
  7
Standard
140
4.5
170
     5
 62
     0
 63
     7
283
     0
 90
      512
 91
        0
  1

274
    -2
284
     1
 64
     0
275
    -2
285
     1
 65
     0
276
    -2
286
     1
 66
     0
277
    -2
287
     1
 67
     0
278
    -2
288
     1
 68
     0
279
    -2
289
     1
 69
     0
  0
VISUALSTYLE
  5
F5
102
{ACAD_REACTORS
330
EF
102
}
330
EF
100
AcDbVisualStyle
  2
2dWireframe
 70
     4
177
     3
291
     0
 70
    58
 90
        0
176
     1
 90
        2
176
     1
 90
        1
176
     1
 90
        0
176
     1
 40
0.6
176
     1
 40
30.0
176
     1
 62
     7
420
 16777215
176
     1
 90
        1
176
     1
 90
        4
176
     1
 62
     7
176
     1
 62
   257
176
     1
 90
        1
176
     1
 90
        1
176
     1
 40
1.0
176
     1
 90
        0
176
     1
 62
   257
176
     1
 40
1.0
176
     1
 90
        1
176
     1
 90
        6
176
     1
 90
        2
176
     1
 62
     7
176
     1
 90
        5
176
     1
 90
        0
176
     1
 90
        0
176
     1
290
     0
176
     1
 90
        1
176
     1
 40
0.0
176
     1
 90
        0
176
     1
290
     1
176
     1
290
     1
176
     1
290
     0
176
     1
290
     0
176
     1
290
     0
176
     1
290
     0
176
     1
290
     0
176
     1
290
     0
176
     1
290
     0
176
     1
 90
       50
176
     1
 40
0.0
176
     1
 40
1.0
176
     1
 90
        0
176
     1
 62
    18
420
        0
176
     1
 90
       50
176
     1
 90
        3
176
     1
 62
     5
420
      255
176
     1
290
     0
176
     1
 90
       50
176
     1
 90
       50
176
     1
 90
       50
176
     1
290
     0
176
     1
 90
       50
176
     1
 62
   256
176
     0
 40
1.0
176
     0
 90
        2
176
     1
  1
strokes_ogs.tif
176
     1
290
     0
176
     1
 40
1.0
176
     1
 40
1.0
176
     1
  0
VISUALSTYLE
  5
F4
102
{ACAD_REACTORS
330
EF
102
}
330
EF
100
AcDbVisualStyle
  2
Basic
 70
     7
177
     3
291
     1
 70
    58
 90
        1
176
     1
 90
        0
176
     1
 90
        1
176
     1
 90
        0
176
     1
 40
0.6
176
     1
 40
30.0
176
     1
 62
     7
420
 16777215
176
     1
 90
        0
176
     1
 90
        4
176
     1
 62
     7
176
     1
 62
   257
176
     1
 90
        1
176
     1
 90
        1
176
     1
 40
1.0
176
     1
 90
        8
176
     1
 62
     7
176
     1
 40
1.0
176
     1
 90
        1
176
     1
 90
        6
176
     1
 90
        2
176
     1
 62
     7
176
     1
 90
        5
176
     1
 90
        0
176
     1
 90
        0
176
     1
290
     0
176
     1
 90
        1
176
     1
 40
0.0
176
     1
 90
        0
176
     1
290
     0
176
     1
290
     1
176
     1
290
     1
176
     1
290
     0
176
     1
290
     0
176
     1
290
     0
176
     1
290
     0
176
     1
290
     0
176
     1
290
     0
176
     1
 90
       50
176
     1
 40
0.0
176
     1
 40
1.0
176
     1
 90
        0
176
     1
 62
    18
420
        0
176
     1
 90
       50
176
     1
 90
        3
176
     1
 62
     5
420
      255
176
     1
290
     0
176
     1
 90
       50
176
     1
 90
       50
176
     1
 90
       50
176
     1
290
     0
176
     1
 90
       50
176
     1
 62
   256
176
     0
 40
1.0
176
     0
 90
        2
176
     1
  1
strokes_ogs.tif
176
     1
290
     0
176
     1
 40
1.0
176
     1
 40
1.0
176
     1
  0
VISUALSTYLE
  5
FB
102
{ACAD_REACTORS
330
EF
102
}
330
EF
100
AcDbVisualStyle
  2
Brighten
 70
    12
177
     3
291
     1
 70
    58
 90
        2
176
     1
 90
        2
176
     1
 90
        1
176
     1
 90
        0
176
     1
 40
0.6
176
     1
 40
30.0
176
     1
 62
     7
420
 16777215
176
     1
 90
        1
176
     1
 90
        4
176
     1
 62
     7
176
     1
 62
   257
176
     1
 90
        1
176
     1
 90
        1
176
     1
 40
1.0
176
     1
 90
        8
176
     1
 62
     7
176
     1
 40
1.0
176
     1
 90
        1
176
     1
 90
        6
176
     1
 90
        2
176
     1
 62
     7
176
     1
 90
        5
176
     1
 90
        0
176
     1
 90
        0
176
     1
290
     0
176
     1
 90
        1
176
     1
 40
50.0
176
     1
 90
        0
176
     1
290
     0
176
     1
290
     1
176
     1
290
     1
176
     1
290
     0
176
     1
290
     0
176
     1
290
     0
176
     1
290
     0
176
     1
290
     0
176
     1
290
     0
176
     1
 90
       50
176
     1
 40
0.0
176
     1
 40
1.0
176
     1
 90
        0
176
     1
 62
    18
420
        0
176
     1
 90
       50
176
     1
 90
        3
176
     1
 62
     5
420
      255
176
     1
290
     0
176
     1
 90
       50
176
     1
 90
       50
176
     1
 90
       50
176
     1
290
     0
176
     1
 90
       50
176
     1
 62
   256
176
     0
 40
1.0
176
     0
 90
        2
176
     1
  1
strokes_ogs.tif
176
     1
290
     0
176
     1
 40
1.0
176
     1
 40
1.0
176
     1
  0
VISUALSTYLE
  5
FF
102
{ACAD_REACTORS
330
EF
102
}
330
EF
100
AcDbVisualStyle
  2
ColorChange
 70
    16
177
     3
291
     1
 70
    58
 90
        2
176
     1
 90
        2
176
     1
 90
        3
176
     1
 90
        0
176
     1
 40
0.6
176
     1
 40
30.0
176
     1
 62
     8
420
  8421504
176
     1
 90
        1
176
     1
 90
        4
176
     1
 62
     7
176
     1
 62
   257
176
     1
 90
        1
176
     1
 90
        1
176
     1
 40
1.0
176
     1
 90
        8
176
     1
 62
     8
420
  8421504
176
     1
 40
1.0
176
     1
 90
        1
176
     1
 90
        6
176
     1
 90
        2
176
     1
 62
     7
176
     1
 90
        5
176
     1
 90
        0
176
     1
 90
        0
176
     1
290
     0
176
     1
 90
        1
176
     1
 40
0.0
176
     1
 90
        0
176
     1
290
     0
176
     1
290
     1
176
     1
290
     1
176
     1
290
     0
176
     1
290
     0
176
     1
290
     0
176
     1
290
     0
176
     1
290
     0
176
     1
290
     0
176
     1
 90
       50
176
     1
 40
0.0
176
     1
 40
1.0
176
     1
 90
        0
176
     1
 62
    18
420
        0
176
     1
 90
       50
176
     1
 90
        3
176
     1
 62
     5
420
      255
176
     1
290
     0
176
     1
 90
       50
176
     1
 90
       50
176
     1
 90
       50
176
     1
290
     0
176
     1
 90
       50
176
     1
 62
   256
176
     0
 40
1.0
176
     0
 90
        2
176
     1
  1
strokes_ogs.tif
176
     1
290
     0
176
     1
 40
1.0
176
     1
 40
1.0
176
     1
  0
VISUALSTYLE
  5
F8
102
{ACAD_REACTORS
330
EF
102
}
330
EF
100
AcDbVisualStyle
  2
Conceptual
 70
     9
177
     3
291
     0
 70
    58
 90
        3
176
     1
 90
        2
176
     1
 90
        1
176
     1
 90
        0
176
     1
 40
0.6
176
     1
 40
30.0
176
     1
 62
     7
420
 16777215
176
     1
 90
        2
176
     1
 90
        2
176
     1
 62
     7
176
     1
 62
   257
176
     1
 90
        1
176
     1
 90
        1
176
     1
 40
40.0
176
     1
 90
        8
176
     1
 62
     7
176
     1
 40
1.0
176
     1
 90
        1
176
     1
 90
        6
176
     1
 90
        2
176
     1
 62
     7
176
     1
 90
        3
176
     1
 90
        0
176
     1
 90
        0
176
     1
290
     0
176
     1
 90
        1
176
     1
 40
0.0
176
     1
 90
        0
176
     1
290
     0
176
     1
290
     1
176
     1
290
     1
176
     1
290
     0
176
     1
290
     0
176
     1
290
     0
176
     1
290
     0
176
     1
290
     0
176
     1
290
     0
176
     1
 90
       50
176
     1
 40
0.0
176
     1
 40
1.0
176
     1
 90
        0
176
     1
 62
    18
420
        0
176
     1
 90
       50
176
     1
 90
        3
176
     1
 62
     5
420
      255
176
     1
290
     0
176
     1
 90
       50
176
     1
 90
       50
176
     1
 90
       50
176
     1
290
     0
176
     1
 90
       50
176
     1
 62
   256
176
     0
 40
1.0
176
     0
 90
        2
176
     1
  1
strokes_ogs.tif
176
     1
290
     0
176
     1
 40
1.0
176
     1
 40
1.0
176
     1
  0
VISUALSTYLE
  5
FA
102
{ACAD_REACTORS
330
EF
102
}
330
EF
100
AcDbVisualStyle
  2
Dim
 70
    11
177
     3
291
     1
 70
    58
 90
        2
176
     1
 90
        2
176
     1
 90
        1
176
     1
 90
        0
176
     1
 40
0.6
176
     1
 40
30.0
176
     1
 62
     7
420
 16777215
176
     1
 90
        1
176
     1
 90
        4
176
     1
 62
     7
176
     1
 62
   257
176
     1
 90
        1
176
     1
 90
        1
176
     1
 40
1.0
176
     1
 90
        8
176
     1
 62
     7
176
     1
 40
1.0
176
     1
 90
        1
176
     1
 90
        6
176
     1
 90
        2
176
     1
 62
     7
176
     1
 90
        5
176
     1
 90
        0
176
     1
 90
        0
176
     1
290
     0
176
     1
 90
        1
176
     1
 40
-50.0
176
     1
 90
        0
176
     1
290
     0
176
     1
290
     1
176
     1
290
     1
176
     1
290
     0
176
     1
290
     0
176
     1
290
     0
176
     1
290
     0
176
     1
290
     0
176
     1
290
     0
176
     1
 90
       50
176
     1
 40
0.0
176
     1
 40
1.0
176
     1
 90
        0
176
     1
 62
    18
420
        0
176
     1
 90
       50
176
     1
 90
        3
176
     1
 62
     5
420
      255
176
     1
290
     0
176
     1
 90
       50
176
     1
 90
       50
176
     1
 90
       50
176
     1
290
     0
176
     1
 90
       50
176
     1
 62
   256
176
     0
 40
1.0
176
     0
 90
        2
176
     1
  1
strokes_ogs.tif
176
     1
290
     0
176
     1
 40
1.0
176
     1
 40
1.0
176
     1
  0
VISUALSTYLE
  5
1E6
102
{ACAD_REACTORS
330
EF
102
}
330
EF
100
AcDbVisualStyle
  2
EdgeColorOff
 70
    22
177
     3
291
     1
 70
    58
 90
        2
176
     0
 90
        2
176
     0
 90
        0
176
     0
 90
        0
176
     0
 40
0.6
176
     0
 40
30.0
176
     0
 62
     7
420
 16777215
176
     0
 90
        1
176
     0
 90
        4
176
     0
 62
     7
176
     0
 62
   257
176
     0
 90
        1
176
     0
 90
        1
176
     0
 40
1.0
176
     0
 90
        8
176
     2
 62
     7
176
     0
 40
1.0
176
     0
 90
        1
176
     0
 90
        6
176
     0
 90
        2
176
     0
 62
     7
176
     0
 90
        5
176
     0
 90
        0
176
     0
 90
        0
176
     0
290
     0
176
     0
 90
        1
176
     0
 40
0.0
176
     0
 90
        0
176
     0
290
     0
176
     1
290
     1
176
     1
290
     1
176
     1
290
     0
176
     1
290
     0
176
     1
290
     0
176
     1
290
     0
176
     1
290
     0
176
     1
290
     0
176
     1
 90
       50
176
     1
 40
0.0
176
     1
 40
1.0
176
     1
 90
        0
176
     1
 62
    18
420
        0
176
     1
 90
       50
176
     1
 90
        3
176
     1
 62
     5
420
      255
176
     1
290
     0
176
     1
 90
       50
176
     1
 90
       50
176
     1
 90
       50
176
     1
290
     0
176
     1
 90
       50
176
     1
 62
   256
176
     0
 40
1.0
176
     0
 90
        2
176
     1
  1
strokes_ogs.tif
176
     1
290
     0
176
     1
 40
1.0
176
     1
 40
1.0
176
     1
  0
VISUALSTYLE
  5
FE
102
{ACAD_REACTORS
330
EF
102
}
330
EF
100
AcDbVisualStyle
  2
Facepattern
 70
    15
177
     3
291
     1
 70
    58
 90
        2
176
     1
 90
        2
176
     1
 90
        1
176
     1
 90
        0
176
     1
 40
0.6
176
     1
 40
30.0
176
     1
 62
     7
420
 16777215
176
     1
 90
        1
176
     1
 90
        4
176
     1
 62
     7
176
     1
 62
   257
176
     1
 90
        1
176
     1
 90
        1
176
     1
 40
1.0
176
     1
 90
        8
176
     1
 62
     7
176
     1
 40
1.0
176
     1
 90
        1
176
     1
 90
        6
176
     1
 90
        2
176
     1
 62
     7
176
     1
 90
        5
176
     1
 90
        0
176
     1
 90
        0
176
     1
290
     0
176
     1
 90
        1
176
     1
 40
0.0
176
     1
 90
        0
176
     1
290
     0
176
     1
290
     1
176
     1
290
     1
176
     1
290
     0
176
     1
290
     0
176
     1
290
     0
176
     1
290
     0
176
     1
290
     0
176
     1
290
     0
176
     1
 90
       50
176
     1
 40
0.0
176
     1
 40
1.0
176
     1
 90
        0
176
     1
 62
    18
420
        0
176
     1
 90
       50
176
     1
 90
        3
176
     1
 62
     5
420
      255
176
     1
290
     0
176
     1
 90
       50
176
     1
 90
       50
176
     1
 90
       50
176
     1
290
     0
176
     1
 90
       50
176
     1
 62
   256
176
     0
 40
1.0
176
     0
 90
        2
176
     1
  1
strokes_ogs.tif
176
     1
290
     0
176
     1
 40
1.0
176
     1
 40
1.0
176
     1
  0
VISUALSTYLE
  5
F0
102
{ACAD_REACTORS
330
EF
102
}
330
EF
100
AcDbVisualStyle
  2
Flat
 70
     0
177
     3
291
     1
 70
    58
 90
        2
176
     1
 90
        1
176
     1
 90
        1
176
     1
 90
        2
176
     1
 40
0.6
176
     1
 40
30.0
176
     1
 62
     7
420
 16777215
176
     1
 90
        0
176
     1
 90
        0
176
     1
 62
     7
176
     1
 62
   257
176
     1
 90
        1
176
     1
 90
        1
176
     1
 40
1.0
176
     1
 90
        8
176
     1
 62
     7
176
     1
 40
1.0
176
     1
 90
        1
176
     1
 90
        6
176
     1
 90
        2
176
     1
 62
     7
176
     1
 90
        5
176
     1
 90
        0
176
     1
 90
        0
176
     1
290
     0
176
     1
 90
       13
176
     1
 40
0.0
176
     1
 90
        0
176
     1
290
     0
176
     1
290
     1
176
     1
290
     1
176
     1
290
     0
176
     1
290
     0
176
     1
290
     0
176
     1
290
     0
176
     1
290
     0
176
     1
290
     0
176
     1
 90
       50
176
     1
 40
0.0
176
     1
 40
1.0
176
     1
 90
        0
176
     1
 62
    18
420
        0
176
     1
 90
       50
176
     1
 90
        3
176
     1
 62
     5
420
      255
176
     1
290
     0
176
     1
 90
       50
176
     1
 90
       50
176
     1
 90
       50
176
     1
290
     0
176
     1
 90
       50
176
     1
 62
   256
176
     0
 40
1.0
176
     0
 90
        2
176
     1
  1
strokes_ogs.tif
176
     1
290
     0
176
     1
 40
1.0
176
     1
 40
1.0
176
     1
  0
VISUALSTYLE
  5
F1
102
{ACAD_REACTORS
330
EF
102
}
330
EF
100
AcDbVisualStyle
  2
FlatWithEdges
 70
     1
177
     3
291
     1
 70
    58
 90
        2
176
     1
 90
        1
176
     1
 90
        1
176
     1
 90
        2
176
     1
 40
0.6
176
     1
 40
30.0
176
     1
 62
     7
420
 16777215
176
     1
 90
        1
176
     1
 90
        0
176
     1
 62
     7
176
     1
 62
   257
176
     1
 90
        1
176
     1
 90
        1
176
     1
 40
1.0
176
     1
 90
        0
176
     1
 62
   257
176
     1
 40
1.0
176
     1
 90
        1
176
     1
 90
        6
176
     1
 90
        2
176
     1
 62
     7
176
     1
 90
        5
176
     1
 90
        0
176
     1
 90
        0
176
     1
290
     0
176
     1
 90
       13
176
     1
 40
0.0
176
     1
 90
        0
176
     1
290
     0
176
     1
290
     1
176
     1
290
     1
176
     1
290
     0
176
     1
290
     0
176
     1
290
     0
176
     1
290
     0
176
     1
290
     0
176
     1
290
     0
176
     1
 90
       50
176
     1
 40
0.0
176
     1
 40
1.0
176
     1
 90
        0
176
     1
 62
    18
420
        0
176
     1
 90
       50
176
     1
 90
        3
176
     1
 62
     5
420
      255
176
     1
290
     0
176
     1
 90
       50
176
     1
 90
       50
176
     1
 90
       50
176
     1
290
     0
176
     1
 90
       50
176
     1
 62
   256
176
     0
 40
1.0
176
     0
 90
        2
176
     1
  1
strokes_ogs.tif
176
     1
290
     0
176
     1
 40
1.0
176
     1
 40
1.0
176
     1
  0
VISUALSTYLE
  5
F2
102
{ACAD_REACTORS
330
EF
102
}
330
EF
100
AcDbVisualStyle
  2
Gouraud
 70
     2
177
     3
291
     1
 70
    58
 90
        2
176
     1
 90
        2
176
     1
 90
        1
176
     1
 90
        2
176
     1
 40
0.6
176
     1
 40
30.0
176
     1
 62
     7
420
 16777215
176
     1
 90
        0
176
     1
 90
        0
176
     1
 62
     7
176
     1
 62
   257
176
     1
 90
        1
176
     1
 90
        1
176
     1
 40
1.0
176
     1
 90
        0
176
     1
 62
     7
176
     1
 40
1.0
176
     1
 90
        1
176
     1
 90
        6
176
     1
 90
        2
176
     1
 62
     7
176
     1
 90
        5
176
     1
 90
        0
176
     1
 90
        0
176
     1
290
     0
176
     1
 90
       13
176
     1
 40
0.0
176
     1
 90
        0
176
     1
290
     0
176
     1
290
     1
176
     1
290
     1
176
     1
290
     0
176
     1
290
     0
176
     1
290
     0
176
     1
290
     0
176
     1
290
     0
176
     1
290
     0
176
     1
 90
       50
176
     1
 40
0.0
176
     1
 40
1.0
176
     1
 90
        0
176
     1
 62
    18
420
        0
176
     1
 90
       50
176
     1
 90
        3
176
     1
 62
     5
420
      255
176
     1
290
     0
176
     1
 90
       50
176
     1
 90
       50
176
     1
 90
       50
176
     1
290
     0
176
     1
 90
       50
176
     1
 62
   256
176
     0
 40
1.0
176
     0
 90
        2
176
     1
  1
strokes_ogs.tif
176
     1
290
     0
176
     1
 40
1.0
176
     1
 40
1.0
176
     1
  0
VISUALSTYLE
  5
F3
102
{ACAD_REACTORS
330
EF
102
}
330
EF
100
AcDbVisualStyle
  2
GouraudWithEdges
 70
     3
177
     3
291
     1
 70
    58
 90
        2
176
     1
 90
        2
176
     1
 90
        1
176
     1
 90
        2
176
     1
 40
0.6
176
     1
 40
30.0
176
     1
 62
     7
420
 16777215
176
     1
 90
        1
176
     1
 90
        0
176
     1
 62
     7
176
     1
 62
   257
176
     1
 90
        1
176
     1
 90
        1
176
     1
 40
1.0
176
     1
 90
        0
176
     1
 62
   257
176
     1
 40
1.0
176
     1
 90
        1
176
     1
 90
        6
176
     1
 90
        2
176
     1
 62
     7
176
     1
 90
        5
176
     1
 90
        0
176
     1
 90
        0
176
     1
290
     0
176
     1
 90
       13
176
     1
 40
0.0
176
     1
 90
        0
176
     1
290
     0
176
     1
290
     1
176
     1
290
     1
176
     1
290
     0
176
     1
290
     0
176
     1
290
     0
176
     1
290
     0
176
     1
290
     0
176
     1
290
     0
176
     1
 90
       50
176
     1
 40
0.0
176
     1
 40
1.0
176
     1
 90
        0
176
     1
 62
    18
420
        0
176
     1
 90
       50
176
     1
 90
        3
176
     1
 62
     5
420
      255
176
     1
290
     0
176
     1
 90
       50
176
     1
 90
       50
176
     1
 90
       50
176
     1
290
     0
176
     1
 90
       50
176
     1
 62
   256
176
     0
 40
1.0
176
     0
 90
        2
176
     1
  1
strokes_ogs.tif
176
     1
290
     0
176
     1
 40
1.0
176
     1
 40
1.0
176
     1
  0
VISUALSTYLE
  5
F7
102
{ACAD_REACTORS
330
EF
102
}
330
EF
100
AcDbVisualStyle
  2
Hidden
 70
     6
177
     3
291
     0
 70
    58
 90
        1
176
     1
 90
        2
176
     1
 90
        2
176
     1
 90
        0
176
     1
 40
0.6
176
     1
 40
30.0
176
     1
 62
     7
420
 16777215
176
     1
 90
        2
176
     1
 90
        2
176
     1
 62
     7
176
     1
 62
   257
176
     1
 90
        2
176
     1
 90
        1
176
     1
 40
40.0
176
     1
 90
        0
176
     1
 62
   257
176
     1
 40
1.0
176
     1
 90
        1
176
     1
 90
        6
176
     1
 90
        2
176
     1
 62
     7
176
     1
 90
        3
176
     1
 90
        0
176
     1
 90
        0
176
     1
290
     0
176
     1
 90
        1
176
     1
 40
0.0
176
     1
 90
        0
176
     1
290
     0
176
     1
290
     1
176
     1
290
     1
176
     1
290
     0
176
     1
290
     0
176
     1
290
     0
176
     1
290
     0
176
     1
290
     0
176
     1
290
     0
176
     1
 90
       50
176
     1
 40
0.0
176
     1
 40
1.0
176
     1
 90
        0
176
     1
 62
    18
420
        0
176
     1
 90
       50
176
     1
 90
        3
176
     1
 62
     5
420
      255
176
     1
290
     0
176
     1
 90
       50
176
     1
 90
       50
176
     1
 90
       50
176
     1
290
     0
176
     1
 90
       50
176
     1
 62
   256
176
     0
 40
1.0
176
     0
 90
        2
176
     1
  1
strokes_ogs.tif
176
     1
290
     0
176
     1
 40
1.0
176
     1
 40
1.0
176
     1
  0
VISUALSTYLE
  5
1E4
102
{ACAD_REACTORS
330
EF
102
}
330
EF
100
AcDbVisualStyle
  2
JitterOff
 70
    20
177
     3
291
     1
 70
    58
 90
        2
176
     0
 90
        2
176
     0
 90
        0
176
     0
 90
        0
176
     0
 40
0.6
176
     0
 40
30.0
176
     0
 62
     7
420
 16777215
176
     0
 90
        1
176
     0
 90
        4
176
     0
 62
     7
176
     0
 62
   257
176
     0
 90
        1
176
     0
 90
        1
176
     0
 40
1.0
176
     0
 90
       10
176
     2
 62
     7
176
     0
 40
1.0
176
     0
 90
        1
176
     0
 90
        6
176
     0
 90
        2
176
     0
 62
     7
176
     0
 90
        5
176
     0
 90
        0
176
     0
 90
        0
176
     0
290
     0
176
     0
 90
        1
176
     0
 40
0.0
176
     0
 90
        0
176
     0
290
     0
176
     1
290
     1
176
     1
290
     1
176
     1
290
     0
176
     1
290
     0
176
     1
290
     0
176
     1
290
     0
176
     1
290
     0
176
     1
290
     0
176
     1
 90
       50
176
     1
 40
0.0
176
     1
 40
1.0
176
     1
 90
        0
176
     1
 62
    18
420
        0
176
     1
 90
       50
176
     1
 90
        3
176
     1
 62
     5
420
      255
176
     1
290
     0
176
     1
 90
       50
176
     1
 90
       50
176
     1
 90
       50
176
     1
290
     0
176
     1
 90
       50
176
     1
 62
   256
176
     0
 40
1.0
176
     0
 90
        2
176
     1
  1
strokes_ogs.tif
176
     1
290
     0
176
     1
 40
1.0
176
     1
 40
1.0
176
     1
  0
VISUALSTYLE
  5
FD
102
{ACAD_REACTORS
330
EF
102
}
330
EF
100
AcDbVisualStyle
  2
Linepattern
 70
    14
177
     3
291
     1
 70
    58
 90
        2
176
     1
 90
        2
176
     1
 90
        1
176
     1
 90
        0
176
     1
 40
0.6
176
     1
 40
30.0
176
     1
 62
     7
420
 16777215
176
     1
 90
        1
176
     1
 90
        4
176
     1
 62
     7
176
     1
 62
   257
176
     1
 90
        7
176
     1
 90
        7
176
     1
 40
1.0
176
     1
 90
        8
176
     1
 62
     7
176
     1
 40
1.0
176
     1
 90
        1
176
     1
 90
        6
176
     1
 90
        2
176
     1
 62
     7
176
     1
 90
        5
176
     1
 90
        0
176
     1
 90
        0
176
     1
290
     0
176
     1
 90
        1
176
     1
 40
0.0
176
     1
 90
        0
176
     1
290
     0
176
     1
290
     1
176
     1
290
     1
176
     1
290
     0
176
     1
290
     0
176
     1
290
     0
176
     1
290
     0
176
     1
290
     0
176
     1
290
     0
176
     1
 90
       50
176
     1
 40
0.0
176
     1
 40
1.0
176
     1
 90
        0
176
     1
 62
    18
420
        0
176
     1
 90
       50
176
     1
 90
        3
176
     1
 62
     5
420
      255
176
     1
290
     0
176
     1
 90
       50
176
     1
 90
       50
176
     1
 90
       50
176
     1
290
     0
176
     1
 90
       50
176
     1
 62
   256
176
     0
 40
1.0
176
     0
 90
        2
176
     1
  1
strokes_ogs.tif
176
     1
290
     0
176
     1
 40
1.0
176
     1
 40
1.0
176
     1
  0
VISUALSTYLE
  5
1E5
102
{ACAD_REACTORS
330
EF
102
}
330
EF
100
AcDbVisualStyle
  2
OverhangOff
 70
    21
177
     3
291
     1
 70
    58
 90
        2
176
     0
 90
        2
176
     0
 90
        0
176
     0
 90
        0
176
     0
 40
0.6
176
     0
 40
30.0
176
     0
 62
     7
420
 16777215
176
     0
 90
        1
176
     0
 90
        4
176
     0
 62
     7
176
     0
 62
   257
176
     0
 90
        1
176
     0
 90
        1
176
     0
 40
1.0
176
     0
 90
        9
176
     2
 62
     7
176
     0
 40
1.0
176
     0
 90
        1
176
     0
 90
        6
176
     0
 90
        2
176
     0
 62
     7
176
     0
 90
        5
176
     0
 90
        0
176
     0
 90
        0
176
     0
290
     0
176
     0
 90
        1
176
     0
 40
0.0
176
     0
 90
        0
176
     0
290
     0
176
     1
290
     1
176
     1
290
     1
176
     1
290
     0
176
     1
290
     0
176
     1
290
     0
176
     1
290
     0
176
     1
290
     0
176
     1
290
     0
176
     1
 90
       50
176
     1
 40
0.0
176
     1
 40
1.0
176
     1
 90
        0
176
     1
 62
    18
420
        0
176
     1
 90
       50
176
     1
 90
        3
176
     1
 62
     5
420
      255
176
     1
290
     0
176
     1
 90
       50
176
     1
 90
       50
176
     1
 90
       50
176
     1
290
     0
176
     1
 90
       50
176
     1
 62
   256
176
     0
 40
1.0
176
     0
 90
        2
176
     1
  1
strokes_ogs.tif
176
     1
290
     0
176
     1
 40
1.0
176
     1
 40
1.0
176
     1
  0
VISUALSTYLE
  5
F9
102
{ACAD_REACTORS
330
EF
102
}
330
EF
100
AcDbVisualStyle
  2
Realistic
 70
     8
177
     3
291
     0
 70
    58
 90
        2
176
     1
 90
        3
176
     1
 90
        0
176
     1
 90
        2
176
     1
 40
0.6
176
     1
 40
30.0
176
     1
 62
     7
420
 16777215
176
     1
 90
        0
176
     1
 90
        0
176
     1
 62
     7
176
     1
 62
   257
176
     1
 90
        1
176
     1
 90
        1
176
     1
 40
1.0
176
     1
 90
        8
176
     1
 62
   257
176
     1
 40
1.0
176
     1
 90
        1
176
     1
 90
        6
176
     1
 90
        2
176
     1
 62
     7
176
     1
 90
        3
176
     1
 90
        0
176
     1
 90
        0
176
     1
290
     0
176
     1
 90
       13
176
     1
 40
0.0
176
     1
 90
        0
176
     1
290
     0
176
     1
290
     1
176
     1
290
     1
176
     1
290
     0
176
     1
290
     0
176
     1
290
     0
176
     1
290
     0
176
     1
290
     0
176
     1
290
     0
176
     1
 90
       50
176
     1
 40
0.0
176
     1
 40
1.0
176
     1
 90
        0
176
     1
 62
    18
420
        0
176
     1
 90
       50
176
     1
 90
        3
176
     1
 62
     5
420
      255
176
     1
290
     0
176
     1
 90
       50
176
     1
 90
       50
176
     1
 90
       50
176
     1
290
     0
176
     1
 90
       50
176
     1
 62
   256
176
     0
 40
1.0
176
     0
 90
        2
176
     1
  1
strokes_ogs.tif
176
     1
290
     0
176
     1
 40
1.0
176
     1
 40
1.0
176
     1
  0
VISUALSTYLE
  5
1F3
102
{ACAD_REACTORS
330
EF
102
}
330
EF
100
AcDbVisualStyle
  2
Shaded
 70
    27
177
     3
291
     0
 70
    58
 90
        2
176
     1
 90
        2
176
     1
 90
        1
176
     1
 90
        2
176
     1
 40
0.6
176
     1
 40
30.0
176
     1
 62
     7
420
 16777215
176
     1
 90
        0
176
     1
 90
        4
176
     1
 62
     7
176
     1
 62
   257
176
     1
 90
        1
176
     1
 90
        1
176
     1
 40
1.0
176
     1
 90
        8
176
     1
 62
   257
176
     1
 40
1.0
176
     1
 90
        1
176
     1
 90
        6
176
     1
 90
        2
176
     1
 62
     8
420
  7895160
176
     1
 90
        3
176
     1
 90
        0
176
     1
 90
        0
176
     1
290
     0
176
     1
 90
        5
176
     1
 40
0.0
176
     1
 90
        0
176
     1
290
     0
176
     1
290
     1
176
     1
290
     1
176
     1
290
     0
176
     1
290
     0
176
     1
290
     0
176
     1
290
     0
176
     1
290
     0
176
     1
290
     0
176
     1
 90
       50
176
     1
 40
0.0
176
     1
 40
1.0
176
     1
 90
        0
176
     1
 62
    18
420
        0
176
     1
 90
       50
176
     1
 90
        3
176
     1
 62
     5
420
      255
176
     1
290
     0
176
     1
 90
       50
176
     1
 90
       50
176
     1
 90
       50
176
     1
290
     0
176
     1
 90
       50
176
     1
 62
   256
176
     0
 40
1.0
176
     0
 90
        2
176
     1
  1
strokes_ogs.tif
176
     1
290
     0
176
     1
 40
1.0
176
     1
 40
1.0
176
     1
  0
VISUALSTYLE
  5
1F2
102
{ACAD_REACTORS
330
EF
102
}
330
EF
100
AcDbVisualStyle
  2
Shaded with edges
 70
    26
177
     3
291
     0
 70
    58
 90
        2
176
     1
 90
        2
176
     1
 90
        1
176
     1
 90
        2
176
     1
 40
0.6
176
     1
 40
30.0
176
     1
 62
     7
420
 16777215
176
     1
 90
        1
176
     1
 90
        2
176
     1
 62
     7
176
     1
 62
   257
176
     1
 90
        2
176
     1
 90
        1
176
     1
 40
1.0
176
     1
 90
        8
176
     1
 62
   257
176
     1
 40
1.0
176
     1
 90
        1
176
     1
 90
        6
176
     1
 90
        2
176
     1
 62
     7
176
     1
 90
        3
176
     1
 90
        0
176
     1
 90
        0
176
     1
290
     0
176
     1
 90
        5
176
     1
 40
0.0
176
     1
 90
        0
176
     1
290
     0
176
     1
290
     1
176
     1
290
     1
176
     1
290
     0
176
     1
290
     0
176
     1
290
     0
176
     1
290
     0
176
     1
290
     0
176
     1
290
     0
176
     1
 90
       50
176
     1
 40
0.0
176
     1
 40
1.0
176
     1
 90
        0
176
     1
 62
    18
420
        0
176
     1
 90
       50
176
     1
 90
        3
176
     1
 62
     5
420
      255
176
     1
290
     0
176
     1
 90
       50
176
     1
 90
       50
176
     1
 90
       50
176
     1
290
     0
176
     1
 90
       50
176
     1
 62
   256
176
     0
 40
1.0
176
     0
 90
        2
176
     1
  1
strokes_ogs.tif
176
     1
290
     0
176
     1
 40
1.0
176
     1
 40
1.0
176
     1
  0
VISUALSTYLE
  5
1EF
102
{ACAD_REACTORS
330
EF
102
}
330
EF
100
AcDbVisualStyle
  2
Shades of Gray
 70
    23
177
     3
291
     0
 70
    58
 90
        2
176
     1
 90
        2
176
     1
 90
        3
176
     1
 90
        0
176
     1
 40
0.6
176
     1
 40
30.0
176
     1
 62
     7
420
 16777215
176
     1
 90
        2
176
     1
 90
        2
176
     1
 62
     7
176
     1
 62
     7
176
     1
 90
        1
176
     1
 90
        1
176
     1
 40
40.0
176
     1
 90
        8
176
     1
 62
     7
176
     1
 40
1.0
176
     1
 90
        1
176
     1
 90
        6
176
     1
 90
        2
176
     1
 62
     7
176
     1
 90
        3
176
     1
 90
        0
176
     1
 90
        0
176
     1
290
     0
176
     1
 90
        1
176
     1
 40
0.0
176
     1
 90
        0
176
     1
290
     0
176
     1
290
     1
176
     1
290
     1
176
     1
290
     0
176
     1
290
     0
176
     1
290
     0
176
     1
290
     0
176
     1
290
     0
176
     1
290
     0
176
     1
 90
       50
176
     1
 40
0.0
176
     1
 40
1.0
176
     1
 90
        0
176
     1
 62
    18
420
        0
176
     1
 90
       50
176
     1
 90
        3
176
     1
 62
     5
420
      255
176
     1
290
     0
176
     1
 90
       50
176
     1
 90
       50
176
     1
 90
       50
176
     1
290
     0
176
     1
 90
       50
176
     1
 62
   256
176
     0
 40
1.0
176
     0
 90
        2
176
     1
  1
strokes_ogs.tif
176
     1
290
     0
176
     1
 40
1.0
176
     1
 40
1.0
176
     1
  0
VISUALSTYLE
  5
1F0
102
{ACAD_REACTORS
330
EF
102
}
330
EF
100
AcDbVisualStyle
  2
Sketchy
 70
    24
177
     3
291
     0
 70
    58
 90
        1
176
     1
 90
        2
176
     1
 90
        2
176
     1
 90
        0
176
     1
 40
0.6
176
     1
 40
30.0
176
     1
 62
     7
420
 16777215
176
     1
 90
        2
176
     1
 90
        2
176
     1
 62
     7
176
     1
 62
     7
176
     1
 90
        1
176
     1
 90
        1
176
     1
 40
40.0
176
     1
 90
       11
176
     1
 62
     7
176
     1
 40
1.0
176
     1
 90
        1
176
     1
 90
        6
176
     1
 90
        2
176
     1
 62
     7
176
     1
 90
        6
176
     1
 90
        0
176
     1
 90
        0
176
     1
290
     0
176
     1
 90
        1
176
     1
 40
0.0
176
     1
 90
        0
176
     1
290
     0
176
     1
290
     1
176
     1
290
     1
176
     1
290
     0
176
     1
290
     0
176
     1
290
     0
176
     1
290
     0
176
     1
290
     0
176
     1
290
     0
176
     1
 90
       50
176
     1
 40
0.0
176
     1
 40
1.0
176
     1
 90
        0
176
     1
 62
    18
420
        0
176
     1
 90
       50
176
     1
 90
        3
176
     1
 62
     5
420
      255
176
     1
290
     0
176
     1
 90
       50
176
     1
 90
       50
176
     1
 90
       50
176
     1
290
     0
176
     1
 90
       50
176
     1
 62
   256
176
     0
 40
1.0
176
     0
 90
        2
176
     1
  1
strokes_ogs.tif
176
     1
290
     0
176
     1
 40
1.0
176
     1
 40
1.0
176
     1
  0
VISUALSTYLE
  5
FC
102
{ACAD_REACTORS
330
EF
102
}
330
EF
100
AcDbVisualStyle
  2
Thicken
 70
    13
177
     3
291
     1
 70
    58
 90
        2
176
     1
 90
        2
176
     1
 90
        1
176
     1
 90
        0
176
     1
 40
0.6
176
     1
 40
30.0
176
     1
 62
     7
420
 16777215
176
     1
 90
        1
176
     1
 90
        4
176
     1
 62
     7
176
     1
 62
   257
176
     1
 90
        1
176
     1
 90
        1
176
     1
 40
1.0
176
     1
 90
       12
176
     1
 62
     7
176
     1
 40
1.0
176
     1
 90
        1
176
     1
 90
        6
176
     1
 90
        2
176
     1
 62
     7
176
     1
 90
        5
176
     1
 90
        0
176
     1
 90
        0
176
     1
290
     0
176
     1
 90
        1
176
     1
 40
0.0
176
     1
 90
        0
176
     1
290
     0
176
     1
290
     1
176
     1
290
     1
176
     1
290
     0
176
     1
290
     0
176
     1
290
     0
176
     1
290
     0
176
     1
290
     0
176
     1
290
     0
176
     1
 90
       50
176
     1
 40
0.0
176
     1
 40
1.0
176
     1
 90
        0
176
     1
 62
    18
420
        0
176
     1
 90
       50
176
     1
 90
        3
176
     1
 62
     5
420
      255
176
     1
290
     0
176
     1
 90
       50
176
     1
 90
       50
176
     1
 90
       50
176
     1
290
     0
176
     1
 90
       50
176
     1
 62
   256
176
     0
 40
1.0
176
     0
 90
        2
176
     1
  1
strokes_ogs.tif
176
     1
290
     0
176
     1
 40
1.0
176
     1
 40
1.0
176
     1
  0
VISUALSTYLE
  5
F6
102
{ACAD_REACTORS
330
EF
102
}
330
EF
100
AcDbVisualStyle
  2
Wireframe
 70
     5
177
     3
291
     0
 70
    58
 90
        0
176
     1
 90
        2
176
     1
 90
        0
176
     1
 90
        0
176
     1
 40
0.6
176
     1
 40
30.0
176
     1
 62
     7
420
 16777215
176
     1
 90
        1
176
     1
 90
        4
176
     1
 62
     7
176
     1
 62
   257
176
     1
 90
        1
176
     1
 90
        1
176
     1
 40
1.0
176
     1
 90
        0
176
     1
 62
   257
176
     1
 40
1.0
176
     1
 90
        1
176
     1
 90
        6
176
     1
 90
        2
176
     1
 62
     7
176
     1
 90
        3
176
     1
 90
        0
176
     1
 90
        0
176
     1
290
     0
176
     1
 90
        1
176
     1
 40
0.0
176
     1
 90
        0
176
     1
290
     0
176
     1
290
     1
176
     1
290
     1
176
     1
290
     0
176
     1
290
     0
176
     1
290
     0
176
     1
290
     0
176
     1
290
     0
176
     1
290
     0
176
     1
 90
       50
176
     1
 40
0.0
176
     1
 40
1.0
176
     1
 90
        0
176
     1
 62
    18
420
        0
176
     1
 90
       50
176
     1
 90
        3
176
     1
 62
     5
420
      255
176
     1
290
     0
176
     1
 90
       50
176
     1
 90
       50
176
     1
 90
       50
176
     1
290
     0
176
     1
 90
       50
176
     1
 62
   256
176
     0
 40
1.0
176
     0
 90
        2
176
     1
  1
strokes_ogs.tif
176
     1
290
     0
176
     1
 40
1.0
176
     1
 40
1.0
176
     1
  0
VISUALSTYLE
  5
1F1
102
{ACAD_REACTORS
330
EF
102
}
330
EF
100
AcDbVisualStyle
  2
X-Ray
 70
    25
177
     3
291
     0
 70
    58
 90
        2
176
     1
 90
        2
176
     1
 90
        1
176
     1
 90
        1
176
     1
 40
0.5
176
     1
 40
30.0
176
     1
 62
     7
420
 16777215
176
     1
 90
        1
176
     1
 90
        0
176
     1
 62
     7
176
     1
 62
   257
176
     1
 90
        1
176
     1
 90
        1
176
     1
 40
1.0
176
     1
 90
        8
176
     1
 62
     7
176
     1
 40
1.0
176
     1
 90
        1
176
     1
 90
        6
176
     1
 90
        2
176
     1
 62
     7
176
     1
 90
        3
176
     1
 90
        0
176
     1
 90
        0
176
     1
290
     0
176
     1
 90
       13
176
     1
 40
0.0
176
     1
 90
        0
176
     1
290
     0
176
     1
290
     1
176
     1
290
     1
176
     1
290
     0
176
     1
290
     0
176
     1
290
     0
176
     1
290
     0
176
     1
290
     0
176
     1
290
     0
176
     1
 90
       50
176
     1
 40
0.0
176
     1
 40
1.0
176
     1
 90
        0
176
     1
 62
    18
420
        0
176
     1
 90
       50
176
     1
 90
        3
176
     1
 62
     5
420
      255
176
     1
290
     0
176
     1
 90
       50
176
     1
 90
       50
176
     1
 90
       50
176
     1
290
     0
176
     1
 90
       50
176
     1
 62
   256
176
     0
 40
1.0
176
     0
 90
        2
176
     1
  1
strokes_ogs.tif
176
     1
290
     0
176
     1
 40
1.0
176
     1
 40
1.0
176
     1
  0
DICTIONARYVAR
  5
146
102
{ACAD_REACTORS
330
5E
102
}
330
5E
100
DictionaryVariables
280
     0
  1
1:1
  0
DICTIONARYVAR
  5
259
102
{ACAD_REACTORS
330
5E
102
}
330
5E
100
DictionaryVariables
280
     0
  1
3.500000
  0
DICTIONARYVAR
  5
25A
102
{ACAD_REACTORS
330
5E
102
}
330
5E
100
DictionaryVariables
280
     0
  1
acadiso.lin
  0
DICTIONARYVAR
  5
145
102
{ACAD_REACTORS
330
5E
102
}
330
5E
100
DictionaryVariables
280
     0
  1
STANDARD
  0
DICTIONARYVAR
  5
84
102
{ACAD_REACTORS
330
5E
102
}
330
5E
100
DictionaryVariables
280
     0
  1
STANDARD
  0
DICTIONARYVAR
  5
227
102
{ACAD_REACTORS
330
5E
102
}
330
5E
100
DictionaryVariables
280
     0
  1
Metric50
  0
DICTIONARYVAR
  5
228
102
{ACAD_REACTORS
330
5E
102
}
330
5E
100
DictionaryVariables
280
     0
  1
Metric50
  0
DICTIONARYVAR
  5
5F
102
{ACAD_REACTORS
330
5E
102
}
330
5E
100
DictionaryVariables
280
     0
  1
2
  0
DICTIONARYVAR
  5
63
102
{ACAD_REACTORS
330
5E
102
}
330
5E
100
DictionaryVariables
280
     0
  1
1
  0
DICTIONARYVAR
  5
1FFCA
102
{ACAD_REACTORS
330
5E
102
}
330
5E
100
DictionaryVariables
280
     0
  1
BYLAYER
  0
DICTIONARYVAR
  5
1FFC9
102
{ACAD_REACTORS
330
5E
102
}
330
5E
100
DictionaryVariables
280
     0
  1
ByLayer
  0
DICTIONARYVAR
  5
1AE
102
{ACAD_REACTORS
330
5E
102
}
330
5E
100
DictionaryVariables
280
     0
  1
0
  0
DICTIONARYVAR
  5
1AF
102
{ACAD_REACTORS
330
5E
102
}
330
5E
100
DictionaryVariables
280
     0
  1
0
  0
DICTIONARY
  5
2FB21
102
{ACAD_REACTORS
330
2FB20
102
}
330
2FB20
100
AcDbDictionary
281
     1
  3
*A1
350
2FB22
  0
DICTIONARY
  5
159BA
102
{ACAD_REACTORS
330
159B9
102
}
330
159B9
100
AcDbDictionary
281
     1
  3
*A1
350
159BB
  0
DICTIONARY
  5
205
330
22
100
AcDbDictionary
280
     1
281
     1
  0
DICTIONARY
  5
1F9
330
ED
100
AcDbDictionary
280
     1
281
     1
  3
FBXASSET
360
1FA
  0
DICTIONARY
  5
1F7
330
EC
100
AcDbDictionary
280
     1
281
     1
  3
FBXASSET
360
1F8
  0
DICTIONARY
  5
173
330
EE
100
AcDbDictionary
280
     1
281
     1
  3
BUMPTILE
360
175
  3
DIFFUSETILE
360
174
  3
FBXASSET
360
1FB
  3
OPACITYTILE
360
176
  3
REFLECTIONTILE
360
177
  0
DICTIONARY
  5
162
330
7F
100
AcDbDictionary
280
     1
281
     1
  3
ACAD_ROUNDTRIP_2008_TABLESTYLE_CELLSTYLEMAP
360
352BA
  0
ACDB_MTEXTATTRIBUTEOBJECTCONTEXTDATA_CLASS
  5
2FB22
102
{ACAD_REACTORS
330
2FB21
102
}
330
2FB21
100
AcDbObjectContextData
 70
     4
290
     1
100
AcDbAnnotScaleObjectContextData
340
10D
 70
     1
 50
0.0
 10
-156.2970118549129
 20
-947.9409126936479
 11
10.6879813238047
 21
-897.9409126936479
290
     0
  0
ACDB_MTEXTATTRIBUTEOBJECTCONTEXTDATA_CLASS
  5
159BB
102
{ACAD_REACTORS
330
159BA
102
}
330
159BA
100
AcDbObjectContextData
 70
     4
290
     1
100
AcDbAnnotScaleObjectContextData
340
10D
 70
     1
 50
0.0
 10
2066.028717467318
 20
6285.574329791187
 11
2236.901841614657
 21
6335.574329791187
290
     0
  0
XRECORD
  5
1FA
102
{ACAD_REACTORS
330
1F9
102
}
330
1F9
100
AcDbXrecord
280
     1
 70
     1
 90
429727718
  1
D62C5603-E3A1-4AEA-B7FB-FE5D8D0755AF
310
504B03040A0000080000CC70623B3DEE336E79000000790000001B0000006175746F6465736B2D64657369676E2D7061636B6167652E786D6C3C3F786D6C2076657273696F6E3D22312E302220656E636F64696E673D227574662D3822203F3E3C666F726D6174733E3C666F726D61743E687474703A2F2F736368656D612E
310
6175746F6465736B2E636F6D2F64657369676E2D7061636B6167652F323030393C2F666F726D61743E3C2F666F726D6174733E504B0304140006080800CC70623BD486FD9CA0000000F4000000130000005B436F6E74656E745F54797065735D2E786D6C7D8EC10E82300C865F65E91D8A1E8C310C0EEA1BF002731658846E
310
D98AC1B77784ABF1D8FE5FBFBF75BBCE937A534CCEB38643598122B6FEE978D0B0485F9C41B54DDD7D022595594E1A469170414C76A4D9A4D207E29CF43ECE46F218070CC6BECC4078ACAA135ACF422C856C0E68EA1BF5669944DDD7BCDE7B1F8E415D77AECB980613C2E4AC91FC167A2B244592486606FC29C8FD7F045B9A
310
EF7053A7E60B504B0304140006080800CC70623B853B8169EB0000007C01000008000000636F72652E786D6C8D90416EC3201045AF62CDB6C206821CC7C244919D9CA01740401C94182C03558F5F9C3852BBEB6A467FFE9B197D7EFC9E1EC5975982F5AE035262288C535E5B377690E21535501C055FBC8FBF6C503839990E
310
5619041F179FE64D52DE45E362569DD7661365082642A11EB9E920A89B99642953CC8E702F67A9EE7234257977194EC9EAE275C4EABCCF5EAD5940D4AC6F0E35A568B8F43562CD7046CD199FD07E60174276A7BE677B5EADB0E0D14EEFFB6A31321A0D82627C4084204C3F096B71DD52F6819B16635EADF63F509AF53FA164
310
5DDCD1EDDD17164090FCC8732078B56691CB33A85CD7DCC40F504B0304140006080800CC70623B55019EA25F0000007C00000007000000636E782E786D6C4DCB3B0E80201045D1AD90E915ED2CF8AC45050C11660C8261F98AB1B07AC9C97D42D718D865D3E909258CFD00CCE24AC6E326A164D74DC0B4128928FF32603847
310
2BA13128B1252AC747C6BAB984FC68F0B87FE8960A5C09FE86CFB69FBA01504B0304140006080800CC70623BDBABAAF470010000D40300000C0000006662782F636F72652E786D6CC553D16E823014FD95A6AF4B694182CC941A83FA05FB810A9511A125A5257EFE2E82712ECEB8A7F100CD39F7F69E734AF9FADC366850B6
310
AF8DCE7018308C942E4C59EB2AC3DE1D498AD15A706B8CFB56869196ADCAF00863C12B6B7C374385D14E6907A836A59A41D9F7CA615434B0C8705F7CAA5606D23BA8E84F41278B93AC54100640439DE0BDB320004D43C63716C7C399D30917DCFBBA9CD9BA8469F5B156168B24CED3F7248AC8769F27244EB73B92EED8862C
310
B7F13E0C179B3C8F979C8ECD82BBBABDAA2BAC924E9558448CBD9330242CFA08E3154B5651FCC6D215639C8EE5774DBE2B5F6CF2B5768B68963BB5F5588420E442FC700B1139D4CB01F450C1E918227C2E09DF070D8140C84E1E9AAB8F1340832A9CB13130A5F1376A908D57309505ECF2A0DF179C4E9D30F5B239B87E3823
310
7A79C6F31DE1A8A5AEC08474B03C7837EAE4938639B44E5932B833D2C6B6B279CDC613877FA26EE21F4A2A4C63EC7F29A2F301D1F9F7A0E37D145F504B0304140006080800CC70623B9C113CC27E0000009D0000000B0000006662782F636E782E786D6C4DCCDF0A83201C86E15B91DFB94BFB330DD428C8FB886521330DA7
310
6397BF1A1DECE883878F57749FCDA1B7892F1BBC047A23808C7F84D9FA55424E0BE6803A256208E9EF06C84F9B91703228B1C690F78B66B34CD9A5439DF5CF0BFBF65E35BCA1B8D6A5C6F540381E886698B5741C695F9503EBA150A2F8958E3DC3EA0B504B0304140006080800CC70623B7DF2F77C2A010000120200003100
310
00006662782F41393633353835312D344632462D344230382D423046372D3739314545314133324237412F636F72652E786D6C8D51DB8EC22014FC15C2939B0D2DB4B45643319AE817EC0F6041255A68B86CFCFC856D4D76DF7CE190393373060EDB3DC707F856CE6B6B7A480A0C81328395DA5C7B18C3057510EC3873D686
310
3F34088C18550F330C39BB3A1BA7051AAC09CA84841A2BD5020AEF55806078A44B0FFD7053A328440C89E1EFC52486BBB8AA8214A99D789CF9E05200300FC927E4FB4D5B375D43103D5527440FB843077C5AA3F5861C8F645F5787F59E95B390B318B55CE45AA638FAA2957BD7248B390B7A7CC51F9C124149C82B8C378810
310
84AB2F42B7B8DD56F413775B8C5999E9FF4471926F8AA236A1AE96B8B3CC434E5839373893369E1FAF30EA395917409EB7F26AF8801C171837A4A6AC9C89E9F9C9B1A58BA30FD6A5EF5DDDCF894B9AD9B6A59C957943A9FCAE2FD5BC4DFE03504B0304140006080800CC70623BAD7543B64E01000033030000300000006662
310
782F41393633353835312D344632462D344230382D423046372D3739314545314133324237412F636E782E786D6CD593CD6EC32010845F0571AD6CE3D48AD20813A9873E410FBD12D82434182C7EAAE6EDBB2424CD25871E7B41D6EC30B3FA84F9E67BB2E40B4234DE8DB46F1925E094D7C6ED479AD3AE5951B2113C789FEE
310
6C943839C1488B4C05DF079FE72A69D8C96C13AAD6B8631503449F83828872B949AC57D26200B826A308D316B4064D6E46FCDA41C05550DC9E483A00797BFD207EFB092A45DE9514C1BBD22178396BD39D891265658C238DEA00936C654E5E433CB65A26D9F6EDB5EBC14EBF49A45CB856E66048291F6939A9A81BB5C89177
310
38143CA680F4AA299D66A042CEB3354A2684DC9D8D178FE0D9B8B41CAAD720F880EE7EF93C0C18769E099ECC04D5A102C8049A8A05632F4DDF376CF1DE0F6BB65C2F8627B65A33C6BB62177CEBBDAD973006829F89F22E814B54F4BC2BE347F8AA8F681390B50FA73F804400B5F542E796F19FF974E7F78DB802FE05E20750
310
4B0304140006080800CC70623BE75B7789680500003C100000340000006662782F41393633353835312D344632462D344230382D423046372D3739314545314133324237412F6F626A656374732E786D6CAD575B8F9B3818FD2B887D06C22499CB8AA1CA655245D5B455A356FB305264C061D8018C6C3393D95FBFC7600890
310
A4CD5EF210B0B1BFEBF98E3F7B1FF6596ABC522E1296DF9BAE3D320D9A872C4AF2F8DE2CE5CEBA358D0FBEC719939D65A691938CDE9B6ADAF4BD98B3B2D05311DD91329583D9D5FC0F438434A7A611A644887B5384CF34233629258BA878B12322891DEFF6B66BD70BFB62634E8AE781D082709A4B588AF91C528CDA28B73F
310
1C998EEF39EABBEFA97FBD6A7C7E9553F9D3D79FE442923C3C523610337627CB87ABE99D359D4CC6D6E4FACAB5E6ABF9D2726FC6A3C5F56271377BB88362213924694B38DD99FE47C48627A1E7D49F5A8BB5E1A74C0A599ED3B0F21F1E56366B89112D681E218F0915D0D6F17AD41FBA2A369DCF6335D62ABBD39779D5DDD1
310
11D4D8DE3CBB96B2E04FB8202E41051754A1AA8E8F76B4C6DFE810B580B1547F4B84911149794252234D024EF8BBE963A95AE27B3D310A9D5C215C7960FAEE415ED75694C6AFB17BCACA5D99A60A9AA65F217B0BFC53292ACB92BF283FAD0D3621576592CB5BED907C2FA8E9DF794E35E97BEA31BED21FEB401ABB94C44839
310
DCACBF0E1C5DA8DA5B2F4DFFD32AD86F543D9E565E7056502E157C00AD2671CD534549AB752FCA9CDA00677A313F04E51B22FF19E57B300579E3C97EB29F682D92935CEC18CF901B7B54FD8C51F362B56FC72FE0B3C1EAE335EDCCBF5AEC39ADB17DC238973F804BA5E6F6BFE7AF1FB32E523BE9F3BD571418E3631DCA4D48
310
5250CF639223210A9446CA30052EDF057BD35F8329C1ECD84552BF0DC8D18BE7BCE23BFE6BD960AB4A7DE79923A103BEBD80F911CBAA2C60DB19B01CF164A5583B772EE6D3FFA56666CBCDA74DC97724A48F9A58967497E489C4D979006FD7A05E227A1EBDD0F737C623387A9C844D3709995625106D157315F8B8392CD4E0
310
A0B9A720C4BE9829CEF37EA1E13111214D53925356365ADA634861B52519DD27A00AEB808EAF0628E6F435519D446F45CF2C9CF5214F0A15B2F6D06B79DA3EE3CBF7F56780D2F4E7EF73A0F5E5B02A38D07DC852C6B7C1FBB6664213E0C39E3EBA7FF4E1AD23EA2829407C85E586727488B751B2DB9502BC7B228A3FD68B6E
310
A65A22397E690AA8D158D7E404EC8CDA235CC3B7D1898680131CEC2CDF2638C65196279577750F15884AEE19F94199155B92B13297978469D4F8D358DF0AEF7631E28DC8F0D9F437D5D39A83B2231A1D52D543813A824EF8D44BCFF2FA6A31BD1E8DAD87F1CCB526B3879935BF59CDADD5C37479BB1CDD4CA7B3556B516589
310
EF352754B706114D9C885EC9131DE6EFEB43D99AFE2391C2F958179413D7CFEF6B1B6DB1E7600F00DE6E5C67454A339A4BA2E0FBA85ED26F045D454F463DBFCE484C2F90F2E5E3666003662ED8F755951A7D1BECD5B30B550B2785C8E7320B7292A4838DDA71BBC863ED7613CAF659337A3354231D4FF4A182A54904C2898C
310
98B28C4AD0CE056CCF332A80986E571EE9DBC305BB5FEB7E509220A58D25CF042D712A806AC0AD0C657FDEF80D2D9CEAA2EE4D1C76F60BFE74219A06527D6F82DF6412526107381E55E353090704D085B52408A8913C4ED159D79BDA71BB4BC506F4831350EB6F975CD22D69BF7AC49B91A2C0A9DDA3D5CA36AD20FC478E37
310
E61844E2352865EBCB61A275A65283CAAA9DD27703B4102F5AF51EF5F573B75CBB5AD38BC845F7A49F82A0966A49C2E3EA5EA0ECD326CD965F1DB402C6FA8B51A4658C5C5E2EC9E214602E55810345408596591009A82E7E7FFACA19EEA299B14A0081A705CB3296EBC14CDF658DCD336EA6D1136881AAEB87B81AB9EE53D5
310
F5EB8BC8362082DA24122F98680A4E7930C01A0079749CEA14382A0783E5EBA5A10F8C098456A03D6A4AEB6BB881E2513747552A5DB22C7EDAF83BD5528081A365F7FF06504B0304140006080000CC70623B000000000000000000000000350000006662782F41393633353835312D344632462D344230382D423046372D37
310
39314545314133324237412F76657274696365732E62696E504B0304140006080800CC70623BF270F1330600000004000000360000006662782F41393633353835312D344632462D344230382D423046372D3739314545314133324237412F747269616E676C65732E62696E636660600000504B0304140006080000CC7062
310
3B000000000000000000000000370000006662782F41393633353835312D344632462D344230382D423046372D3739314545314133324237412F617474726962757465732E62696E504B0304140006080800CC70623B08DA0BD19000000041010000360000006662782F41393633353835312D344632462D344230382D4230
310
46372D3739314545314133324237412F6469726563746F72792E786D6C858F410AC3201045AF22B36F53E9A60B35CBEEBAE80D244E44489C6234F4F835464A48035D0DF398FF9F8AF63D0E6CC63039F212F8F9020C7D47C6792B21C5FE7403D62A1188E2E60C98D7234A5830286103A55745067B9D86B8A3CF9C7F90C11DE6
310
07FB144396D7B6A82D282E9A152AD114D5EF2CB866EEE831B8EEA07A7BB5A8D7D61A2BAAEB7FD5F70921FF497D00504B0304140006080800CC70623BEDD1DC58FD000000A00100003B0000006662782F41393633353835312D344632462D344230382D423046372D3739314545314133324237412F7265736F75726365732F
310
636F72652E786D6C8D504B6E833010BD0A9A6D65B00922041947112427E8052C33A156828DFCA97AFC9A40A576D7CDCCE87D344F8F9FBFE667F689CE6B6B3A6039850C8DB2A336530731DC4903D95970676DF82583CCC8193B5861107C72362E3BA4AC096842428D1D7107A5F7182053CF7474E0D507CE32973124857FE48B
310
540F3961CEF244279DE03EB81420DB9EAC1384436FA353E879B1B182C7A8C75DA3C7F453DF353A1075D537A7BA6464B8F535A99AE14A9A2BBD90E350DD183B5CFABE3AF262350B1EF4FC9351399401471025A527C218A1E53BAB5A5AB765F5469B96525EACF23FA6B88CFF34456DC2A1DCE36E360F82A5202F42F062ED2BAD
310
579969AFDD8A6F504B010214000A0000080000CC70623B3DEE336E79000000790000001B00000000000000000000000000000000006175746F6465736B2D64657369676E2D7061636B6167652E786D6C504B01021400140006080800CC70623BD486FD9CA0000000F40000001300000000000000000000000000B20000005B
310
436F6E74656E745F54797065735D2E786D6C504B01021400140006080800CC70623B853B8169EB0000007C010000080000000000000000000000000083010000636F72652E786D6C504B01021400140006080800CC70623B55019EA25F0000007C000000070000000000000000000000000094020000636E782E786D6C504B
310
01021400140006080800CC70623BDBABAAF470010000D40300000C00000000000000000000000000180300006662782F636F72652E786D6C504B01021400140006080800CC70623B9C113CC27E0000009D0000000B00000000000000000000000000B20400006662782F636E782E786D6C504B01021400140006080800CC70
310
623B7DF2F77C2A010000120200003100000000000000000000000000590500006662782F41393633353835312D344632462D344230382D423046372D3739314545314133324237412F636F72652E786D6C504B01021400140006080800CC70623BAD7543B64E010000330300003000000000000000000000000000D2060000
310
6662782F41393633353835312D344632462D344230382D423046372D3739314545314133324237412F636E782E786D6C504B01021400140006080800CC70623BE75B7789680500003C10000034000000000000000000000000006E0800006662782F41393633353835312D344632462D344230382D423046372D3739314545
310
314133324237412F6F626A656374732E786D6C504B01021400140006080000CC70623B0000000000000000000000003500000000000000000000000000280E00006662782F41393633353835312D344632462D344230382D423046372D3739314545314133324237412F76657274696365732E62696E504B01021400140006
310
080800CC70623BF270F133060000000400000036000000000000000000000000007B0E00006662782F41393633353835312D344632462D344230382D423046372D3739314545314133324237412F747269616E676C65732E62696E504B01021400140006080000CC70623B0000000000000000000000003700000000000000
310
000000000000D50E00006662782F41393633353835312D344632462D344230382D423046372D3739314545314133324237412F617474726962757465732E62696E504B01021400140006080800CC70623B08DA0BD1900000004101000036000000000000000000000000002A0F00006662782F41393633353835312D344632
310
462D344230382D423046372D3739314545314133324237412F6469726563746F72792E786D6C504B01021400140006080800CC70623BEDD1DC58FD000000A00100003B000000000000000000000000000E1000006662782F41393633353835312D344632462D344230382D423046372D3739314545314133324237412F7265
310
736F75726365732F636F72652E786D6C504B0506000000000E000E0080040000641100000000
  0
XRECORD
  5
1F8
102
{ACAD_REACTORS
330
1F7
102
}
330
1F7
100
AcDbXrecord
280
     1
 70
     1
 90
429727718
  1
30362254-06B7-45E0-A893-8CFA70E3D6BC
310
504B03040A0000080000CC70623B3DEE336E79000000790000001B0000006175746F6465736B2D64657369676E2D7061636B6167652E786D6C3C3F786D6C2076657273696F6E3D22312E302220656E636F64696E673D227574662D3822203F3E3C666F726D6174733E3C666F726D61743E687474703A2F2F736368656D612E
310
6175746F6465736B2E636F6D2F64657369676E2D7061636B6167652F323030393C2F666F726D61743E3C2F666F726D6174733E504B0304140006080800CC70623BD486FD9CA0000000F4000000130000005B436F6E74656E745F54797065735D2E786D6C7D8EC10E82300C865F65E91D8A1E8C310C0EEA1BF002731658846E
310
D98AC1B77784ABF1D8FE5FBFBF75BBCE937A534CCEB38643598122B6FEE978D0B0485F9C41B54DDD7D022595594E1A469170414C76A4D9A4D207E29CF43ECE46F218070CC6BECC4078ACAA135ACF422C856C0E68EA1BF5669944DDD7BCDE7B1F8E415D77AECB980613C2E4AC91FC167A2B244592486606FC29C8FD7F045B9A
310
EF7053A7E60B504B0304140006080800CC70623B1EC5D7A3EB0000007C01000008000000636F72652E786D6C8D90416EC3201045AF82665B6103C6756C6122AB4D4ED00B204C5C94182C03558F5F9C3852BBEB6A467FFE9B197D71FC9E6FE8CBACC17AD7032D0820E3B41FAD9B7A48F1820F808E52ACDEC75F36404ECDA687
310
4D0629A6D5A76597B477D1B89855E747B38B2A041301E95B6E7A08FAD3CCAA50296647B8168BD2573599823EBB0CA76447F43862C7BCCF5EAC59410E4DDD9C7973C2755553CCCFA4C603E3040F1565ED3B1FDE4E432BCA0D9622DAF9795FAF464533826484B498524CD807E51D79ED187F21878E10516EF63F505AC67F42C9
310
BA58B1FDDD071640D2FCC87D2045B96591CB3DA85CB7DCE40F504B0304140006080800CC70623B55019EA25F0000007C00000007000000636E782E786D6C4DCB3B0E80201045D1AD90E915ED2CF8AC45050C11660C8261F98AB1B07AC9C97D42D718D865D3E909258CFD00CCE24AC6E326A164D74DC0B4128928FF32603847
310
2BA13128B1252AC747C6BAB984FC68F0B87FE8960A5C09FE86CFB69FBA01504B0304140006080800CC70623B8C9102E971010000D40300000C0000006662782F636F72652E786D6CC5535B6E833010BC8AE5DF0A6C08340F1947A84D4ED00B38C6A128602363A31CBFCB234A53A551FA553EC09AD9F5CE8C31DB9E9B1AF5CA
310
7695D1198E428A91D2D214952E33ECDD315861B4E5CC1AE3BE9561A445A3323CC098B3D21ADFCE9034DA29ED00D5A6503328BA4E398C640D8B0C77F253352214DE4145770A5B214FA2546114020D759C75CE8200340D19DE981F0F6746269C33EFAB6266AB02A655C74A59CCF365BADC27CB5D902ED22848F6340DF238A141
310
BE88E2F57B92BFEDF23523433367AE6A2EEAA455C2A902F398D2751045018D3FA264435F3771F242571B4A1919CA6F9A7C5B3CD9E42BED16F12C776AEB308F40C848FC700B1139D4891EF410CEC810227CC6846F8386402064270EF5C5C709A05E49676C024C61FC95EA45ED154CA5211D1FF4FB8291A913A68E9B83EBBB33
310
E2A7673CDE118E5AE8124C0807CB8377834E366998436B950D7A7746DAD846D4CFD978E0F04FD455FC5D49D2D4C6FE9722321F10997F0F32DC47FE05504B0304140006080800CC70623BFFEA85907E0000009D0000000B0000006662782F636E782E786D6C4DCCD10A83201886E15B91FFDC95D95A811AB6F23E625948A6C3
310
E9D8E5AF46073BFAE0E1E365ED67B3E8ADC3CB78C7815C7240DA3DFC64DCC221C519D7805AC182F7F1EF06C88D9BE6703008B6049F9E274D7A1E938DBB5AE3D6131B2589BA0D3D965551E0B2EA732C9B9A624AAEB41E3A557677029960D9AFB4EF11165F504B0304140006080800CC70623B4FEEA4082C0100001202000031
310
0000006662782F39464131463745442D413632322D343644302D413938332D3331353338454246344243312F636F72652E786D6C8D515B6EC32010BC0AE2AB55850DD871ED0813254D72825EC00192A2C460F1A872FC42ED48ED5F7E00CDCECCCEB26C731F6FE05B39AFADE921293004CA082BB5B9F43086336A21D870E6AC
310
0D7F68109861543DCC30E4ECE26C9C164858139409093556AA051CBC570102714B8F1E7AF1A5C6A11862480C7F2DA6415C878B2A4891CA89C7990F2E050073937C42DE1DB7E4F87ED8A36D4329AA9B3D46DBAEAD504556557BD81DEBDD0761E52CE42C462D17B996298E3E6BE59E35C962CE821E1FF18553435012728A7187
310
0841987E927A8D9B35ADDF70BBC6989599FE4F1427F9A4286A132ABAC49D651EF234CD5CE04CDA78BA3DC2A8FB645D00B9DF8B57E215725C60BCA2A463E54C4CE327C7A65E1C7DB02E7DEFCBF594B864C5CA6CDBD49C957943E9FA5D5FBAF336F90F504B0304140006080800CC70623BAD7543B64E01000033030000300000
310
006662782F39464131463745442D413632322D343644302D413938332D3331353338454246344243312F636E782E786D6CD593CD6EC32010845F0571AD6CE3D48AD20813A9873E410FBD12D82434182C7EAAE6EDBB2424CD25871E7B41D6EC30B3FA84F9E67BB2E40B4234DE8DB46F1925E094D7C6ED479AD3AE5951B2113C
310
789FEE6C943839C1488B4C05DF079FE72A69D8C96C13AAD6B8631503449F83828872B949AC57D26200B826A308D316B4064D6E46FCDA41C05550DC9E483A00797BFD207EFB092A45DE9514C1BBD22178396BD39D891265658C238DEA00936C654E5E433CB65A26D9F6EDB5EBC14EBF49A45CB856E66048291F6939A9A81BB5
310
C8917738143CA680F4AA299D66A042CEB3354A2684DC9D8D178FE0D9B8B41CAAD720F880EE7EF93C0C18769E099ECC04D5A102C8049A8A05632F4DDF376CF1DE0F6BB65C2F8627B65A33C6BB62177CEBBDAD973006829F89F22E814B54F4BC2BE347F8AA8F681390B50FA73F804400B5F542E796F19FF974E7F78DB802FE05
310
E207504B0304140006080800CC70623B16AB87BA640500003C100000340000006662782F39464131463745442D413632322D343644302D413938332D3331353338454246344243312F6F626A656374732E786D6CAD575B6FA33818FD2B887DE6924B3BED8A326A92B68A663B534DD4D13E548A0C38942D60649B369D5FBFC7
310
600890A493BDE42160637FD7F31D7FF63E6FB3D478A55C242CBF3247B66B1A340F5994E4F19559CA8D75611A9F7D8F33263BCB4C232719BD32D5B4E97B316765A1A722BA21652A07B3B7B33F0D11D29C9A46981221AE4C113ED38CD8A4942CA2E2C58E882476BCD9DA23BB5ED8171B73523C0F841684D35CC252CCE79062D4
310
468DFA43D7747CCF51DF7D4FFDEB5593E3AB9CCA9FBEFE241792E4E19EB28198C968BAB8199F5D5A67D3E9C49A9E8F47D6EC76B6B0469F26EEFC7C3EBFBCBEB98462213924694B38DD98FE1D62C393D073EA4FADC5DAF04326852CCF6958F90F0F2B9BB5C48816348F90C7840A68EB78EDF68723159BCEE7891A6B95DDE9D3
310
BCEAEEE8086A6C6F9E5D4B59F0175C10A7A0820BAA5055C7473B5AE3CFDD452D602CD5DF12616444529E90D448938013FE6EFA58AA96F85E4F8C42275708571E98FE6827AF6B2B4AE3D7D83D64E5A64C53054DD3AF90BD06FEA9149565C94FCA0F6B834DC85599E4F2423B24DF0B6AFA979E534DFA9E7A4CC6FA631D486393
310
921829879BF5D781A373557BCB85E97FB90DB62B558F8795179C15944B051F40AB495CF35451D26A4727654E6D8033BD98EF82F21D91FF8AF2DD9982BCF1643BDD4EB516C9492E368C67C88DED563FC36D5EACF66DFF057C3658BDBFA69DF9578B3DA735B64F18C7F20770A9D45CFCF7FCF563D6456A277DBEF78A02637CA2
310
43B90A490AEAB94F72244481D24819A6C0E59B606BFA4B3025981DBB48EAB701D97BF19C577CC77F2D1B6C55A9EF3C732474C0B727303F625995056C3B02963D9EAC146BE78EC5FCEC7FA999EBC5EACBAAE41B12D27B4D2C0BBA49F244E2ECDC81B76B502F113D8F5EE8FB1BE3111CDD4FC2AA9B844CAB1288B68AB90A7CDC
310
1C166AB0D3DC5310625FCC14E779BFD0709F8890A629C9292B1B2DED31A4B0DA928CEE135085754027E3018A397D4D5427D15BD1330B677DC8934285AC3DF45A9EB68FF8F2B8FC0A509AFEECFD0FF2DE25CC6047F7214B195F07EFEB9A094D800F7BFAE8FED187B78EA8A3A400F115961BCAD1215E47C966530AF0EE8128FE
310
58CEBB996A8964FFA529A046635D9353B0336A8F700DDF46271A024E70B0B37C9DE01847591E54DED53D54202AB947E4076556AC49C6CA5C9E1226B7F1A7B1BE15DEED62C41B91E1B3E9AFAAA735036547343A925075041DF0A9979E893B391F8FCFA6967B3EFB644DCF6E5CEBFAE272625DCC6FAF3FB93793C5F90CE1EF57
310
407342756B10D1C489E8953CD1617E5CEECAD6F4EF8914CE5D5D504E5C3F1F9736DA62CFC11E00BCDDB8CC8A9466349744C1F75EBDA4DF09BA8A9E8C7A7E9991989E20E5DBDD6A6003664ED8F7A04A8DBE0DF6EAD9B9AA858342E47399053949D2C146EDB85DE4B176BB0965FBAC19BD19AA918E27FA50C1D22402E144464C
310
59462568E704B6E71915404CB72B8FF4EDE184DDAF753F284990D2C6926782963815403548A70C657FDEF80D2D9CEAA2AE4C1C76F60BFE74219A06527D6582DF6412526107381E55E353090704D085B52408D0933C4ED159D79BDA71BB4BC506F4831350EB6F979CD22D69BF7AC49B91A2C0A9DDA3D5CA36AD20FC478E37E6
310
1844E2352865EBCB6EA275A652E3836BE04EFB400BF1A2556F515F1FBB35B2AB35BD889C744FFA1004B5544B121E57F70215746DD2F5E2C1412B602CBF19455AC6C8E5E9922C4E01E65215385004546899059180EAFCF7A707CE7017CD8CDB0410789AB32C63B91E5CEBBBACB17AC6CD347A022D5075FD106377347AAABA7E
310
7D11590744509B44E205134DC1290F06580320F78E537D3D73540E06CB970B431F185308AD40BBD794D6D77003C5A36E8EAA54BA64597CD8F83BD552A080A365F7FF06504B0304140006080000CC70623B000000000000000000000000350000006662782F39464131463745442D413632322D343644302D413938332D3331
310
353338454246344243312F76657274696365732E62696E504B0304140006080800CC70623BF270F1330600000004000000360000006662782F39464131463745442D413632322D343644302D413938332D3331353338454246344243312F747269616E676C65732E62696E636660600000504B0304140006080000CC70623B
310
000000000000000000000000370000006662782F39464131463745442D413632322D343644302D413938332D3331353338454246344243312F617474726962757465732E62696E504B0304140006080800CC70623B08DA0BD19000000041010000360000006662782F39464131463745442D413632322D343644302D413938
310
332D3331353338454246344243312F6469726563746F72792E786D6C858F410AC3201045AF22B36F53E9A60B35CBEEBAE80D244E44489C6234F4F835464A48035D0DF398FF9F8AF63D0E6CC63039F212F8F9020C7D47C6792B21C5FE7403D62A1188E2E60C98D7234A5830286103A55745067B9D86B8A3CF9C7F90C11DE607
310
FB144396D7B6A82D282E9A152AD114D5EF2CB866EEE831B8EEA07A7BB5A8D7D61A2BAAEB7FD5F70921FF497D00504B0304140006080800CC70623B0D6EF93BFE000000A00100003B0000006662782F39464131463745442D413632322D343644302D413938332D3331353338454246344243312F7265736F75726365732F63
310
6F72652E786D6C8D50596E833010BD0A9ADFCA60B334011947A8694ED00B586642AC041B79A97AFC9A40A5F6AF3F33A3B7689E1E3F7DCD8FEC139DD7D6F4C0720A191A65476DA61E62B892236427C19DB5E1970C322367EC618541F0C9D9B8EC90B226A009093576C41D94DE63804C3DD2D18357379C652E63480A7FCF17A9
310
EE72C29CE5894E3AC17D702940B63D59270887DE46A7D0F36263058F518FBB468FE9A7BE6A7420864373B8D4873369AA8691FA421B3294352543C5CAF65C0F6FEF43CB8BD52C78D0F34F46E550061C419494B6843142CB0F5677F4B52BEB177AEC28E5C52AFF638ACBF84F53D42654E51E77B379102C05791282176B5F693D
310
CB4C7BED567C03504B010214000A0000080000CC70623B3DEE336E79000000790000001B00000000000000000000000000000000006175746F6465736B2D64657369676E2D7061636B6167652E786D6C504B01021400140006080800CC70623BD486FD9CA0000000F40000001300000000000000000000000000B20000005B
310
436F6E74656E745F54797065735D2E786D6C504B01021400140006080800CC70623B1EC5D7A3EB0000007C010000080000000000000000000000000083010000636F72652E786D6C504B01021400140006080800CC70623B55019EA25F0000007C000000070000000000000000000000000094020000636E782E786D6C504B
310
01021400140006080800CC70623B8C9102E971010000D40300000C00000000000000000000000000180300006662782F636F72652E786D6C504B01021400140006080800CC70623BFFEA85907E0000009D0000000B00000000000000000000000000B30400006662782F636E782E786D6C504B01021400140006080800CC70
310
623B4FEEA4082C0100001202000031000000000000000000000000005A0500006662782F39464131463745442D413632322D343644302D413938332D3331353338454246344243312F636F72652E786D6C504B01021400140006080800CC70623BAD7543B64E010000330300003000000000000000000000000000D5060000
310
6662782F39464131463745442D413632322D343644302D413938332D3331353338454246344243312F636E782E786D6C504B01021400140006080800CC70623B16AB87BA640500003C1000003400000000000000000000000000710800006662782F39464131463745442D413632322D343644302D413938332D3331353338
310
454246344243312F6F626A656374732E786D6C504B01021400140006080000CC70623B0000000000000000000000003500000000000000000000000000270E00006662782F39464131463745442D413632322D343644302D413938332D3331353338454246344243312F76657274696365732E62696E504B01021400140006
310
080800CC70623BF270F133060000000400000036000000000000000000000000007A0E00006662782F39464131463745442D413632322D343644302D413938332D3331353338454246344243312F747269616E676C65732E62696E504B01021400140006080000CC70623B0000000000000000000000003700000000000000
310
000000000000D40E00006662782F39464131463745442D413632322D343644302D413938332D3331353338454246344243312F617474726962757465732E62696E504B01021400140006080800CC70623B08DA0BD190000000410100003600000000000000000000000000290F00006662782F39464131463745442D413632
310
322D343644302D413938332D3331353338454246344243312F6469726563746F72792E786D6C504B01021400140006080800CC70623B0D6EF93BFE000000A00100003B000000000000000000000000000D1000006662782F39464131463745442D413632322D343644302D413938332D3331353338454246344243312F7265
310
736F75726365732F636F72652E786D6C504B0506000000000E000E0080040000641100000000
  0
XRECORD
  5
175
102
{ACAD_REACTORS
330
173
102
}
330
173
100
AcDbXrecord
280
     1
270
     1
271
     1
  0
XRECORD
  5
174
102
{ACAD_REACTORS
330
173
102
}
330
173
100
AcDbXrecord
280
     1
270
     1
271
     1
  0
XRECORD
  5
1FB
102
{ACAD_REACTORS
330
173
102
}
330
173
100
AcDbXrecord
280
     1
 70
     0
 90
1673772943
  1
ECE7A1D2-D628-4531-984C-D00F80459256
310
504B03040A0000080000CC70623B3DEE336E79000000790000001B0000006175746F6465736B2D64657369676E2D7061636B6167652E786D6C3C3F786D6C2076657273696F6E3D22312E302220656E636F64696E673D227574662D3822203F3E3C666F726D6174733E3C666F726D61743E687474703A2F2F736368656D612E
310
6175746F6465736B2E636F6D2F64657369676E2D7061636B6167652F323030393C2F666F726D61743E3C2F666F726D6174733E504B0304140006080800CC70623BD486FD9CA0000000F4000000130000005B436F6E74656E745F54797065735D2E786D6C7D8EC10E82300C865F65E91D8A1E8C310C0EEA1BF002731658846E
310
D98AC1B77784ABF1D8FE5FBFBF75BBCE937A534CCEB38643598122B6FEE978D0B0485F9C41B54DDD7D022595594E1A469170414C76A4D9A4D207E29CF43ECE46F218070CC6BECC4078ACAA135ACF422C856C0E68EA1BF5669944DDD7BCDE7B1F8E415D77AECB980613C2E4AC91FC167A2B244592486606FC29C8FD7F045B9A
310
EF7053A7E60B504B0304140006080800CC70623BD9DDAED0EC0000007C01000008000000636F72652E786D6C8D90416EC3201045AF82665B61836D9CD8C2444DD39CA01740405C94182C03558F5F9C3852BBEB6A467FFE9B197D7EF89E6EE8CB2CC17A37002D0820E394D7D68D03A478C17B4007C117EFE32F1B20272733C0
310
2A83E0E3E2D3BC49CABB685CCCAAF3DA6CA20CC14440EA969B0182FA34932C648AD911AEC52CD5558EA6A0CF2EC329598D1E47ACCEFBECC59A050463A7EA5833865FEBDD0E37353BE3EE8DBDE3F6786A48D375FBF6CC78B9C282473B3DEFABC5C86834888A900E538A49F5419B9EB47DD5BC907D4F082F57FB1F28CDFA9F50
310
B22ED6D5F6EE030B20687EE43E10BC5CB3C8E51E54AE6B6EE207504B0304140006080800CC70623B55019EA25F0000007C00000007000000636E782E786D6C4DCB3B0E80201045D1AD90E915ED2CF8AC45050C11660C8261F98AB1B07AC9C97D42D718D865D3E909258CFD00CCE24AC6E326A164D74DC0B4128928FF326038
310
472BA13128B1252AC747C6BAB984FC68F0B87FE8960A5C09FE86CFB69FBA01504B0304140006080800CC70623BA24EB22D72010000D40300000C0000006662782F636F72652E786D6CC5535B6E833010BC8AE5DF0A6C5E49888CA3A6694ED00B38E05014B091B1518EDFE511A5A9D228FD2A1F60CDEC7A67C6986DCE4D8D7A
310
69BA4AAB0C073EC548AA5C17952A33ECECD15B61B4E1CC686DBF9561A44423333CC098B3D268D7CE50AE9595CA02AA74216750749DB418E5352C32DCE59FB211BE70162ABA93DF8AFC244AE9073ED050C759670D0840D390E18DF9F1706664C23973AE2A66B62A605A75ACA4C13C4976E1364A12EF355A2EBD384AF65EFA96
310
BC7B8BED2EA6719AAE16FB8491A199335B351775B991C2CA02F390D2D40B028F861F41BCA68B7518BFD0D59A524686F29B26D7164F36B94AD9289CE54E6D1DE6010819891F6E21228B3AD1831EC219194284CF98F06DD01008846CC5A1BEF83801D4CBDC6A1303536877A57A513B0953A94FC707FDBE6064EA84A9E3E6E0FA
310
EE8CF0E9198F7784A316AA0413C2C2F2E0ECA0934D1AE6D05A69BCDE9E91D2A611F573361E38FC1375157F5752AE6B6DFE4B11990F88CCBF0719EE23FF02504B0304140006080800CC70623B408A7D3B7C0000009D0000000B0000006662782F636E782E786D6C4DCCD10A83201886E15B91FFDC552A92A0064DBC8F581632
310
D3703A76F9ABD1C18E3E78F878E5F0D9027ABBFCF2292AE86E2D20171F69F6715550CB827B40839639A5F2770314A7CD293819B45C73AAFB45B35BA61ACAA1C1C7E7855C58C15BC331339661262CC762340413D68D77DA5B42298546CBE6573AF60CEB2F504B0304140006080800CC70623B449FB9BD290100001202000031
310
0000006662782F36394639363044362D344446342D343946362D394244322D3234314243333846323333332F636F72652E786D6C8D515B6EC32010BC0AE22B55850D98B871848994463E412FE002495162B07854397EA176A4F62F3F2C9A9D991D587EB84F37F0AD7D30CEF6905418026DA553C65E7A98E219ED203808EE9D
310
8B7F6810D871D23D2C3014FCE25D9A57483A1BB58D19B54EE9151C43D0110279CB971E06F9A5A7B11A53CC8C70ADE6515EC78BAE4895DB992778883E0700CB907242D17643D7E2538BD869608875438BBAE38922CAC8F1BDD90DB4691A5E2F42C153326A951B95E398B3D1FE599322163C9AE9115F7A3D46ADA0A018778810
310
84E907617BDCEE297BC5BB3DC6BC2EF47FA234AB2745C9D8D8D035EE220B50105E2F0DC1954B9FB747187D9F9D8FA0CCDB042D5FA0C015C65B42DF78BD10F3F3B363CB56C7109DCFDFBBB97E662ED92EB62D13BC2E1BCAE5777DB9966D8A1F504B0304140006080800CC70623BAD7543B64E01000033030000300000006662
310
782F36394639363044362D344446342D343946362D394244322D3234314243333846323333332F636E782E786D6CD593CD6EC32010845F0571AD6CE3D48AD20813A9873E410FBD12D82434182C7EAAE6EDBB2424CD25871E7B41D6EC30B3FA84F9E67BB2E40B4234DE8DB46F1925E094D7C6ED479AD3AE5951B2113C789FEE
310
6C943839C1488B4C05DF079FE72A69D8C96C13AAD6B8631503449F83828872B949AC57D26200B826A308D316B4064D6E46FCDA41C05550DC9E483A00797BFD207EFB092A45DE9514C1BBD22178396BD39D891265658C238DEA00936C654E5E433CB65A26D9F6EDB5EBC14EBF49A45CB856E66048291F6939A9A81BB5C89177
310
38143CA680F4AA299D66A042CEB3354A2684DC9D8D178FE0D9B8B41CAAD720F880EE7EF93C0C18769E099ECC04D5A102C8049A8A05632F4DDF376CF1DE0F6BB65C2F8627B65A33C6BB62177CEBBDAD973006829F89F22E814B54F4BC2BE347F8AA8F681390B50FA73F804400B5F542E796F19FF974E7F78DB802FE05E20750
310
4B0304140006080800CC70623B8D05915C650500003B100000340000006662782F36394639363044362D344446342D343946362D394244322D3234314243333846323333332F6F626A656374732E786D6CAD575B6FA33814FE2B887D06429276DA1565D4266D158D3A339A6846FB502932E050B66023DB74D2FDF5FB190C01
310
9276B2973C046C8ECFF53B17071F77456EBD502133CEAE6CDF9DD81665314F32965ED995DA3A17B6F5310C04E7AA47665B8C14F4CAD6DB7618A48257A5D94AE89654B91AEDDEDDFC61C998326A5B714EA4BCB265FC440BE2924AF184CA6737218AB8E976E7FA6E4338649B0A523E8D98964450A6A029F619B8588D52FE7039
310
B1BD30F0F4F730D0FF866AF6369557DB33949F31A9088B0F848DD8CCFCF9F2767A76E99CCDE733677E3EF59D9BBB9BA5E37F984D16E78BC5E5F5ED25044B25C0C96822E8D60EEFE11B91C581D77CEA34368A1F5329E68CD1B8B61F16D63A1B8E092D294B10C78C4A48EB593D192E7DED9BDEE7995E1B91FDEDD3ACEA9FE831
310
6A756F9F7D4D79F4274C90A7A04248AA51D5F8C718DAE06FB2F75AC4796EBE65D22A88A22223B995679120E2D50E41AA49C260C046A35368846B0BECD0DFF3EBEB8AD4F835768F69B9ADF25C43D30E6B646F807FAA64AD59F61715C7A54127C4AACA98BA3006A9D792DAE165E0D59B61A01FB3A9F9D838D2DAE62445C86166
310
F37564E842E7DE6A69879FEEA2DD5AE7E371E1A5E025154AC307D06A03D73EB5978C58FFA4C8E9033066E0F3BD53BEC1F39F91BE7B55103791EDE6BBB991A2046172CB4581D8B893FA674DDA17A77B3B7C413D1B511FD2743BFF8A38F03A658705E3ADF8015C3A3417FF3D7E439FF591DA0B5F18BC20C1B8981957AE6392A3
310
F43C640C01D1A0B4728E2DD4F26DB4B3C3152A252A3B4E913CEC1C72F012782FF88EFF8637AA552DBEF76408E8A8DE9E50F9E1CB3A2DA0DB1B6039A893B56063DC5B3E3FFB5F72E67AB9FEB4AEC496C4F4C1149625DD662C53E89D7BF0F6151A046260D1337DFDC94502430F83B0EE07A130A224BCAD7DAE1D9FB6CD422FF6
310
920702629C4BB9AE79C12F243C6432A6794E18E5552BA56B431AAB5D91317302B2B071E86C3A42B1A02F999E24061403B5D0EB639195DA655DD3EBEAB4FB862DDF579F014AD0E73C22F99E28DA57FB98E75C6CA2D74D53086D600F4786E0FE3144B771A8A7B900F03594DB8A633CBC49B2EDB69228BB479CF863B5E807AAAB
310
23872F6DFEB4129B949CA33823F58830E86D65621E10047D9DB34D862E8EAC3C2ABC2F7B2C40D67CDFE01F5545B92105AF983AC54D93D69E56FB8E797F88913F898A9FEC705D3F9D1B54EC8426FB500D40A03BD0119B06E1B95DDC7EB8F6975367793EBD70E66733DFB9BC982F9CE564727731999F5D4ECFCE3B8D6A4DC2A0
310
6D50FD148437D110834A64C6CDDF57FBACB5C307A2A477DFE4939736CFEF2B175371E0E10CF0DD1D5C15654E0BCA14D1E87DD02FF93782A162C0A3D95F1524A52770F972BF1EE9809D13CE7DD599467F8ECE9ADD85CE85A34CD45355448C64F9E8A031DC2D596ACC6E5DD93D9B82DE2EF5CAF81363A8E47996A0DE24564A79
310
4115AACE09C55E14540231FDA13C319787134EBF34E3A022514E5B4D9E0826E25C02D5805B15ABE1BEF51B26383D445DD9E875EE33FE4C22DA16427D65A3BCA92CA6D28DD01DF5DC53330704308475351050232CCD31583787BA75774AFB06E5070DD0C8EF484E19968C5D83BA5B90B244D31E54D55A372320FE4786B7EA58
310
44E135AA5467CB7EA333A61683CC6A8C3257034C10CF46F40EF9F5BE59BE5BD30C3C72D235E95D10345C1D45445A5F0BB47E46A5EBE5570F9380B5FA629579952296A773720405982B9DE04011506178964401AA8BDF1FBF0A8EAB6861DD6580C0E38217056766716DAEB2D6FA0917D3E4116581EADB879C4E7CFFB11EFACD
310
3D641311495D92C8676CB409A72D18610D803CE8A626049E8EC1887CB5B44CC39883690DDA8399B4B9855B481E7D71D4A9D22F96E5BB73BF5793020C02137BF837504B0304140006080000CC70623B000000000000000000000000350000006662782F36394639363044362D344446342D343946362D394244322D32343142
310
43333846323333332F76657274696365732E62696E504B0304140006080800CC70623BF270F1330600000004000000360000006662782F36394639363044362D344446342D343946362D394244322D3234314243333846323333332F747269616E676C65732E62696E636660600000504B0304140006080000CC70623B0000
310
00000000000000000000370000006662782F36394639363044362D344446342D343946362D394244322D3234314243333846323333332F617474726962757465732E62696E504B0304140006080800CC70623B08DA0BD19000000041010000360000006662782F36394639363044362D344446342D343946362D394244322D
310
3234314243333846323333332F6469726563746F72792E786D6C858F410AC3201045AF22B36F53E9A60B35CBEEBAE80D244E44489C6234F4F835464A48035D0DF398FF9F8AF63D0E6CC63039F212F8F9020C7D47C6792B21C5FE7403D62A1188E2E60C98D7234A5830286103A55745067B9D86B8A3CF9C7F90C11DE607FB14
310
4396D7B6A82D282E9A152AD114D5EF2CB866EEE831B8EEA07A7BB5A8D7D61A2BAAEB7FD5F70921FF497D00504B0304140006080800CC70623BCA768048FE000000A00100003B0000006662782F36394639363044362D344446342D343946362D394244322D3234314243333846323333332F7265736F75726365732F636F72
310
652E786D6C8D50596E833010BD0A9ADFCA60D600328E9AA639412F609909B1126CE4A5EAF16B0295DABFFECC8CDEA2797AECF8353F924FB44E193D409E5248504B332A3D0D10FC95B4901C39B3C6F85F3248B49871801506CE266BC2B243D2688FDA47549B11775038871E12F988C7004EDE7016A9083E2ADC3D5D84BC8B09
310
D33C8D74D471E6BC8D0192EDC93A815B742658898E651BCB59086ADC356A8C3FD555A1055ED7E7E254D615792D0F075295F585746FF53B694EE78A565DD736979A65AB9933AFE69F8CD2A2F038022F28ED489E135A7CE4554F9BBEA85E68DB53CAB255FEC71496F19FA6A0B42F8B3DEE6673C0F318E4497096AD7DC5F52C33
310
EEB55BFE0D504B010214000A0000080000CC70623B3DEE336E79000000790000001B00000000000000000000000000000000006175746F6465736B2D64657369676E2D7061636B6167652E786D6C504B01021400140006080800CC70623BD486FD9CA0000000F40000001300000000000000000000000000B20000005B436F
310
6E74656E745F54797065735D2E786D6C504B01021400140006080800CC70623BD9DDAED0EC0000007C010000080000000000000000000000000083010000636F72652E786D6C504B01021400140006080800CC70623B55019EA25F0000007C000000070000000000000000000000000095020000636E782E786D6C504B0102
310
1400140006080800CC70623BA24EB22D72010000D40300000C00000000000000000000000000190300006662782F636F72652E786D6C504B01021400140006080800CC70623B408A7D3B7C0000009D0000000B00000000000000000000000000B50400006662782F636E782E786D6C504B01021400140006080800CC70623B
310
449FB9BD290100001202000031000000000000000000000000005A0500006662782F36394639363044362D344446342D343946362D394244322D3234314243333846323333332F636F72652E786D6C504B01021400140006080800CC70623BAD7543B64E010000330300003000000000000000000000000000D20600006662
310
782F36394639363044362D344446342D343946362D394244322D3234314243333846323333332F636E782E786D6C504B01021400140006080800CC70623B8D05915C650500003B10000034000000000000000000000000006E0800006662782F36394639363044362D344446342D343946362D394244322D32343142433338
310
46323333332F6F626A656374732E786D6C504B01021400140006080000CC70623B0000000000000000000000003500000000000000000000000000250E00006662782F36394639363044362D344446342D343946362D394244322D3234314243333846323333332F76657274696365732E62696E504B010214001400060808
310
00CC70623BF270F13306000000040000003600000000000000000000000000780E00006662782F36394639363044362D344446342D343946362D394244322D3234314243333846323333332F747269616E676C65732E62696E504B01021400140006080000CC70623B00000000000000000000000037000000000000000000
310
00000000D20E00006662782F36394639363044362D344446342D343946362D394244322D3234314243333846323333332F617474726962757465732E62696E504B01021400140006080800CC70623B08DA0BD190000000410100003600000000000000000000000000270F00006662782F36394639363044362D344446342D
310
343946362D394244322D3234314243333846323333332F6469726563746F72792E786D6C504B01021400140006080800CC70623BCA768048FE000000A00100003B000000000000000000000000000B1000006662782F36394639363044362D344446342D343946362D394244322D3234314243333846323333332F7265736F
310
75726365732F636F72652E786D6C504B0506000000000E000E0080040000621100000000
  0
XRECORD
  5
176
102
{ACAD_REACTORS
330
173
102
}
330
173
100
AcDbXrecord
280
     1
270
     1
271
     1
  0
XRECORD
  5
177
102
{ACAD_REACTORS
330
173
102
}
330
173
100
AcDbXrecord
280
     1
270
     1
271
     1
  0
CELLSTYLEMAP
  5
352BA
102
{ACAD_REACTORS
330
162
102
}
330
162
100
AcDbCellStyleMap
 90
        3
300
CELLSTYLE
  1
TABLEFORMAT_BEGIN
 90
        5
170
     1
 91
        0
 92
    32768
 62
   257
 93
        1
300
CONTENTFORMAT
  1
CONTENTFORMAT_BEGIN
 90
        0
 91
        0
 92
      512
 93
        0
300

 40
0.0
140
1.0
 94
        5
 62
     0
340
11
144
6.0
309
CONTENTFORMAT_END
171
     1
301
MARGIN
  1
CELLMARGIN_BEGIN
 40
1.5
 40
1.5
 40
1.5
 40
1.5
 40
4.5
 40
4.5
309
CELLMARGIN_END
 94
        6
 95
        1
302
GRIDFORMAT
  1
GRIDFORMAT_BEGIN
 90
        0
 91
        1
 62
     0
 92
       -2
340
14
 93
        0
 40
1.125
309
GRIDFORMAT_END
 95
        2
302
GRIDFORMAT
  1
GRIDFORMAT_BEGIN
 90
        0
 91
        1
 62
     0
 92
       -2
340
14
 93
        0
 40
1.125
309
GRIDFORMAT_END
 95
        4
302
GRIDFORMAT
  1
GRIDFORMAT_BEGIN
 90
        0
 91
        1
 62
     0
 92
       -2
340
14
 93
        0
 40
1.125
309
GRIDFORMAT_END
 95
        8
302
GRIDFORMAT
  1
GRIDFORMAT_BEGIN
 90
        0
 91
        1
 62
     0
 92
       -2
340
14
 93
        0
 40
1.125
309
GRIDFORMAT_END
 95
       16
302
GRIDFORMAT
  1
GRIDFORMAT_BEGIN
 90
        0
 91
        1
 62
     0
 92
       -2
340
14
 93
        0
 40
1.125
309
GRIDFORMAT_END
 95
       32
302
GRIDFORMAT
  1
GRIDFORMAT_BEGIN
 90
        0
 91
        1
 62
     0
 92
       -2
340
14
 93
        0
 40
1.125
309
GRIDFORMAT_END
309
TABLEFORMAT_END
  1
CELLSTYLE_BEGIN
 90
        1
 91
        1
300
_TITLE
309
CELLSTYLE_END
300
CELLSTYLE
  1
TABLEFORMAT_BEGIN
 90
        5
170
     1
 91
        0
 92
        0
 62
   257
 93
        1
300
CONTENTFORMAT
  1
CONTENTFORMAT_BEGIN
 90
        0
 91
        0
 92
      512
 93
        0
300

 40
0.0
140
1.0
 94
        5
 62
     0
340
11
144
4.5
309
CONTENTFORMAT_END
171
     1
301
MARGIN
  1
CELLMARGIN_BEGIN
 40
1.5
 40
1.5
 40
1.5
 40
1.5
 40
4.5
 40
4.5
309
CELLMARGIN_END
 94
        6
 95
        1
302
GRIDFORMAT
  1
GRIDFORMAT_BEGIN
 90
        0
 91
        1
 62
     0
 92
       -2
340
14
 93
        0
 40
1.125
309
GRIDFORMAT_END
 95
        2
302
GRIDFORMAT
  1
GRIDFORMAT_BEGIN
 90
        0
 91
        1
 62
     0
 92
       -2
340
14
 93
        0
 40
1.125
309
GRIDFORMAT_END
 95
        4
302
GRIDFORMAT
  1
GRIDFORMAT_BEGIN
 90
        0
 91
        1
 62
     0
 92
       -2
340
14
 93
        0
 40
1.125
309
GRIDFORMAT_END
 95
        8
302
GRIDFORMAT
  1
GRIDFORMAT_BEGIN
 90
        0
 91
        1
 62
     0
 92
       -2
340
14
 93
        0
 40
1.125
309
GRIDFORMAT_END
 95
       16
302
GRIDFORMAT
  1
GRIDFORMAT_BEGIN
 90
        0
 91
        1
 62
     0
 92
       -2
340
14
 93
        0
 40
1.125
309
GRIDFORMAT_END
 95
       32
302
GRIDFORMAT
  1
GRIDFORMAT_BEGIN
 90
        0
 91
        1
 62
     0
 92
       -2
340
14
 93
        0
 40
1.125
309
GRIDFORMAT_END
309
TABLEFORMAT_END
  1
CELLSTYLE_BEGIN
 90
        2
 91
        1
300
_HEADER
309
CELLSTYLE_END
300
CELLSTYLE
  1
TABLEFORMAT_BEGIN
 90
        5
170
     1
 91
        0
 92
        0
 62
   257
 93
        1
300
CONTENTFORMAT
  1
CONTENTFORMAT_BEGIN
 90
        0
 91
        0
 92
      512
 93
        0
300

 40
0.0
140
1.0
 94
        2
 62
     0
340
11
144
4.5
309
CONTENTFORMAT_END
171
     1
301
MARGIN
  1
CELLMARGIN_BEGIN
 40
1.5
 40
1.5
 40
1.5
 40
1.5
 40
4.5
 40
4.5
309
CELLMARGIN_END
 94
        6
 95
        1
302
GRIDFORMAT
  1
GRIDFORMAT_BEGIN
 90
        0
 91
        1
 62
     0
 92
       -2
340
14
 93
        0
 40
1.125
309
GRIDFORMAT_END
 95
        2
302
GRIDFORMAT
  1
GRIDFORMAT_BEGIN
 90
        0
 91
        1
 62
     0
 92
       -2
340
14
 93
        0
 40
1.125
309
GRIDFORMAT_END
 95
        4
302
GRIDFORMAT
  1
GRIDFORMAT_BEGIN
 90
        0
 91
        1
 62
     0
 92
       -2
340
14
 93
        0
 40
1.125
309
GRIDFORMAT_END
 95
        8
302
GRIDFORMAT
  1
GRIDFORMAT_BEGIN
 90
        0
 91
        1
 62
     0
 92
       -2
340
14
 93
        0
 40
1.125
309
GRIDFORMAT_END
 95
       16
302
GRIDFORMAT
  1
GRIDFORMAT_BEGIN
 90
        0
 91
        1
 62
     0
 92
       -2
340
14
 93
        0
 40
1.125
309
GRIDFORMAT_END
 95
       32
302
GRIDFORMAT
  1
GRIDFORMAT_BEGIN
 90
        0
 91
        1
 62
     0
 92
       -2
340
14
 93
        0
 40
1.125
309
GRIDFORMAT_END
309
TABLEFORMAT_END
  1
CELLSTYLE_BEGIN
 90
        3
 91
        2
300
_DATA
309
CELLSTYLE_END
  0
ENDSEC
  0
SECTION
  2
ACDSDATA
 70
     2
 71
     8
  0
ACDSSCHEMA
 90
        0
  1
AcDb_Thumbnail_Schema
  2
AcDbDs::ID
280
    10
 91
        8
  2
Thumbnail_Data
280
    15
 91
        0
101
ACDSRECORD
 95
        0
 90
        1
  2
AcDbDs::TreatedAsObjectData
280
     1
291
     1
101
ACDSRECORD
 95
        0
 90
        2
  2
AcDbDs::Legacy
280
     1
291
     1
101
ACDSRECORD
  1
AcDbDs::ID
 90
        3
  2
AcDs:Indexable
280
     1
291
     1
101
ACDSRECORD
  1
AcDbDs::ID
 90
        4
  2
AcDbDs::HandleAttribute
280
     7
282
     1
  0
ACDSSCHEMA
 90
        1
  1
AcDbDs::TreatedAsObjectDataSchema
  2
AcDbDs::TreatedAsObjectData
280
     1
 91
        0
  0
ACDSSCHEMA
 90
        2
  1
AcDbDs::LegacySchema
  2
AcDbDs::Legacy
280
     1
 91
        0
  0
ACDSSCHEMA
 90
        3
  1
AcDbDs::IndexedPropertySchema
  2
AcDs:Indexable
280
     1
 91
        0
  0
ACDSSCHEMA
 90
        4
  1
AcDbDs::HandleAttributeSchema
  2
AcDbDs::HandleAttribute
280
     7
 91
        1
284
     1
  0
ACDSSCHEMA
 90
        5
  1
AcDb3DSolid_ASM_Data
  2
AcDbDs::ID
280
    10
 91
        8
  2
ASM_Data
280
    15
 91
        0
101
ACDSRECORD
 95
        5
 90
        1
  2
AcDbDs::TreatedAsObjectData
280
     1
291
     1
101
ACDSRECORD
 95
        5
 90
        2
  2
AcDbDs::Legacy
280
     1
291
     1
101
ACDSRECORD
  1
AcDbDs::ID
 90
        3
  2
AcDs:Indexable
280
     1
291
     1
101
ACDSRECORD
  1
AcDbDs::ID
 90
        4
  2
AcDbDs::HandleAttribute
280
     7
282
     1
  0
ACDSRECORD
 90
        0
  2
AcDbDs::ID
280
    10
320
D3
  2
Thumbnail_Data
280
    15
 94
     1675
310
89504E470D0A1A0A0000000D4948445200000100000000B5080300000087DCD12600000300504C5445FFFFFFFFFFFFFFFFFF0000000000000000000000000000000000000000000000000000330000660000990000CC0000FF0033000033330033660033990033CC0033FF0066000066330066660066990066CC0066FF0099
310
000099330099660099990099CC0099FF00CC0000CC3300CC6600CC9900CCCC00CCFF00FF0000FF3300FF6600FF9900FFCC00FFFF3300003300333300663300993300CC3300FF3333003333333333663333993333CC3333FF3366003366333366663366993366CC3366FF3399003399333399663399993399CC3399FF33CC00
310
33CC3333CC6633CC9933CCCC33CCFF33FF0033FF3333FF6633FF9933FFCC33FFFF6600006600336600666600996600CC6600FF6633006633336633666633996633CC6633FF6666006666336666666666996666CC6666FF6699006699336699666699996699CC6699FF66CC0066CC3366CC6666CC9966CCCC66CCFF66FF0066
310
FF3366FF6666FF9966FFCC66FFFF9900009900339900669900999900CC9900FF9933009933339933669933999933CC9933FF9966009966339966669966999966CC9966FF9999009999339999669999999999CC9999FF99CC0099CC3399CC6699CC9999CCCC99CCFF99FF0099FF3399FF6699FF9999FFCC99FFFFCC0000CC00
310
33CC0066CC0099CC00CCCC00FFCC3300CC3333CC3366CC3399CC33CCCC33FFCC6600CC6633CC6666CC6699CC66CCCC66FFCC9900CC9933CC9966CC9999CC99CCCC99FFCCCC00CCCC33CCCC66CCCC99CCCCCCCCCCFFCCFF00CCFF33CCFF66CCFF99CCFFCCCCFFFFFF0000FF0033FF0066FF0099FF00CCFF00FFFF3300FF3333
310
FF3366FF3399FF33CCFF33FFFF6600FF6633FF6666FF6699FF66CCFF66FFFF9900FF9933FF9966FF9999FF99CCFF99FFFFCC00FFCC33FFCC66FFCC99FFCCCCFFCCFFFFFF00FFFF33FFFF66FFFF99FFFFCCFFFFFF0000000D0D0D1A1A1A2828283535354343435050505D5D5D6B6B6B787878868686939393A1A1A1AEAEAEBB
310
BBBBC9C9C9D6D6D6E4E4E4F1F1F1FFFFFF000000000000000000000000000000000000000000000000000000000000AD4AB4E40000033F4944415478DAED9CDB72AB300C00F5FF9FA9E7F3D23F386D32F8221B708BE518BCCC34439286C062AD642544FE2DBE080064E10500000000004A00FABD3CF476F511D00640570F01
310
0010028B0310001002481000840012040021800401609A04775ABA8780DE3CDA2F4B1000EB007870080800902000902000902000902000902000902000902000902000902000902000902000902000902000902000902000902000902000902000C8024810008400122CB7A82AAA6B03D8FD1AFE1A2170ABE3F790E04F08C8
310
DA009AAE4A797808CC4820DF99DFEDDBDD01680CCC6D6FF27B9DD3E07BC3DB8ACE72F2DB01742984668AFD1A80EB97CDEDBDD7CFCBC328786F2D3E16FF343C9752F3192FAFDA2C3FE40E23A0390B345DBFE86A8CCD014995EA1702B30208EFE12DC1D308B16F9CEC9C38A58C08A0CD01BD01E4D4EDDDED6478573CD601EA18
310
021270EBAC9383F72E8D91A0CC09C02D0DDE0380EF5C404C253CEF7CC84D827A9336D9A02CF0C938F77380EE579DAF2413A25F35AD82C79D5BCD129DE607ADB11EEF2C4129E6C2E166980CD3AA578B07BC0164ACB779F1D8D68039D5B57990E78FA8A829BCC2EFB50ECB86B61D5303703402E4BA03543706F96C7758FC4B36
310
02249D0FFB03B0D13E3C0B1400C2C90855897F087C320BEE86406C0E463DF5CF02DE7DAD739DAA98FE828656551C017E59E0E8A974742469325F93644DCBE36ECB276AFBE036395C1E01279F0D26FEDF2A015B11D4006CFA887B1A57420EFFFA6AB1D761E6756C8818E59AA697EC77C35A478074AC280602386F07CAC14379
310
3DD98F804B08C4CE5FDEF352538D1A09649AD0D7304F271315261F0670BEC5789C520C61D9FDBC2605607FFCFF17129C0040D280AD8C926ADB3409A46F00F11F5300B38740E5A8544E01C83980E4D5EFD1719F86C89F6AD90A00CD9F7B3480838FD8070098E16B72FB497F1A00E20AA0ADDBB12480015D61BE290A80C50170
310
BD0012040012040012040012040012040012040012040012040012040012040012040012040012040012040012040012040012040012040012240B204100100248B07CEDCD96EE001EB15C0981672E00580C8002000902000902000902000902000902E00080F9859767DDAEED0001000000008002C0E2CBF200FE037899C1
310
77CC5D0C0F0000000049454E44AE426082608244AE426082
  0
ACDSRECORD
 90
        0
  2
AcDbDs::ID
280
    10
320
22
  2
Thumbnail_Data
280
    15
 94
     1874
310
89504E470D0A1A0A0000000D4948445200000100000000970803000000CDB8751B00000300504C5445212830FFFFFF2128300000000000000000000000000000000000000000000000000000330000660000990000CC0000FF0033000033330033660033990033CC0033FF0066000066330066660066990066CC0066FF0099
310
000099330099660099990099CC0099FF00CC0000CC3300CC6600CC9900CCCC00CCFF00FF0000FF3300FF6600FF9900FFCC00FFFF3300003300333300663300993300CC3300FF3333003333333333663333993333CC3333FF3366003366333366663366993366CC3366FF3399003399333399663399993399CC3399FF33CC00
310
33CC3333CC6633CC9933CCCC33CCFF33FF0033FF3333FF6633FF9933FFCC33FFFF6600006600336600666600996600CC6600FF6633006633336633666633996633CC6633FF6666006666336666666666996666CC6666FF6699006699336699666699996699CC6699FF66CC0066CC3366CC6666CC9966CCCC66CCFF66FF0066
310
FF3366FF6666FF9966FFCC66FFFF9900009900339900669900999900CC9900FF9933009933339933669933999933CC9933FF9966009966339966669966999966CC9966FF9999009999339999669999999999CC9999FF99CC0099CC3399CC6699CC9999CCCC99CCFF99FF0099FF3399FF6699FF9999FFCC99FFFFCC0000CC00
310
33CC0066CC0099CC00CCCC00FFCC3300CC3333CC3366CC3399CC33CCCC33FFCC6600CC6633CC6666CC6699CC66CCCC66FFCC9900CC9933CC9966CC9999CC99CCCC99FFCCCC00CCCC33CCCC66CCCC99CCCCCCCCCCFFCCFF00CCFF33CCFF66CCFF99CCFFCCCCFFFFFF0000FF0033FF0066FF0099FF00CCFF00FFFF3300FF3333
310
FF3366FF3399FF33CCFF33FFFF6600FF6633FF6666FF6699FF66CCFF66FFFF9900FF9933FF9966FF9999FF99CCFF99FFFFCC00FFCC33FFCC66FFCC99FFCCCCFFCCFFFFFF00FFFF33FFFF66FFFF99FFFFCCFFFFFF0000000D0D0D1A1A1A2828283535354343435050505D5D5D6B6B6B787878868686939393A1A1A1AEAEAEBB
310
BBBBC9C9C9D6D6D6E4E4E4F1F1F1FFFFFF0000000000000000000000000000000000000000000000000000000000002E4550F10000015E4944415478DAEDD9DB4EC330100540FFFFDFF661DF29B96E9CA44508A4263B83C06054814FEC8D9DB6060000000000000000000000000000F715CF8FD2E3FF6606507C09FC86006E
310
94C09B54DABD03D80F5E0D281D401340C56D41D1619F85516F27D4D2F21F4A40540AE2A00414AB85914218B601D5EE863980483FD65B0205D7FF5A046BDE00FE7EEF3FAF9DBEBDD62E60FA9C9BB528A44AF9B3F612D5246F01964B1607BD7D00F38B37ED34A3E2F19802F8FC85150727C2F6EA41C01AC4FE147936033EF9C9
310
CA7891C701B5F14BDB0EB79B01EDDDD4DF2534FE91E7A4481527A6AECF5920F39D60BB76D7193EF72FFFFDD00C4388B47D3CA901570B60DFDB62FFDB6954735FBF04D20CB850005DCDEA7AA33F4577012C831B8796A6C64100D7DF70AE4B60C92AD6FEE52D97936A7AC393E436981C40BA53E6EFEE7EBCD89E2BA3D033977D
310
11A4EA11CBF50700000000000000000000000000807FF005B0A190B8D9977B340000000049454E44AE4260829C00A15D6F670EB78021256E762ACEB1251AB8A89ADC6082C8F3F19AE09AC4CCCC63BE2F40B086500905A71D0F9AE0EDF364B3D5755B21A64E63C0C9020CE5919AFFE26DD75BDDD8DE71482A69F8D817408F8F
310
011301E635C33B07A7023863EB7B0949725F80CF4E28F4B8FBCC0430B1A55BB3B7BBBD2C70A516BB25B924540C028877BCBCBA505B335D65D0E877206F0A50A4F332358D2641566FDF9C4FB3C09D36382E47094E6F870100000000000000000000000000000000002EC00FA354142E8825828D0000000049454E44AE426082
310
EEEA80606A56EF04AF53E0E418B0B3E0D44BAEFA1BF4AF738026626F0E681E56DF2E06B432AE4C80B2AA2F73802780B802C8F5027488018900E514B84C80B3778251010672809F0B489E48877281DB3960CB062B07E89A281FC806EFE700717E2C14FDB980DCDD01CDFE9DBB831DD401DB895FD1B1F2EF74D445F4B0D78674
310
8039C6EF15B9AB03BA2FB9236D852F5870C6DA0AF79E66B603AE3E1AEEAC40E500955FF93330039E08996D7BBF4860C5FDFB7A1A8933A30A601D237E24D00200000000000000000000000000000000000000C017F20F9864B448AE790F7A0000000049454E44AE4260824E44AE4260829298DBEF11C0D60890674712400248
310
0009200124800490001240024800092001248004900012400248000920013E5400FFF67B01FBFA9B21D3DDA06E871B6BC204B832B8DBECF4E719983030DF2152FE2EFCDF0C3337BAAD47E6037B846C5F8FD0F95DE12E31F77A97984D7489ED6D14F4EABA10018EFF8AE0A06FC1FDFF4603784B1E41BB5374827377A7682592
310
A316D019EDD5B1739CF766C41EDFB16D9CDBC440BCE6D39C77C7C5EE4B8A7F00E7C3A7E171CEDBA3E2F498BB39054110044110044110044110044110044110044110044110044110FE30FE01E4A7F11F03AE71B00000000049454E44AE426082
  0
ENDSEC
  0
EOF
