  0
SECTION
  2
HEADER
  9
$ACADVER
  1
AC1032
  9
$ACADMAINTVER
 90
       77
  9
$DWGCODEPAGE
  3
ANSI_1252
  9
$TITLE
  1
800G
  9
$SUBJECT
  1
Vertical Bench
  9
$AUTHOR
  1
Pulse Fitness
  9
$LASTSAVEDBY
  1
Darren.Clowes
  9
$REQUIREDVERSIONS
160
                 0
  9
$INSBASE
 10
0.0
 20
0.0
 30
0.0
  9
$EXTMIN
 10
6127.162726585694
 20
6384.167091253003
 30
-0.0338494472175626
  9
$EXTMAX
 10
6660.026274180825
 20
7562.211432085006
 30
0.0225697417513402
  9
$LIMMIN
 10
0.0
 20
0.0
  9
$LIMMAX
 10
420.0
 20
297.0
  9
$ORTHOMODE
 70
     1
  9
$REGENMODE
 70
     1
  9
$FILLMODE
 70
     1
  9
$QTEXTMODE
 70
     0
  9
$MIRRTEXT
 70
     0
  9
$LTSCALE
 40
1.0
  9
$ATTMODE
 70
     1
  9
$TEXTSIZE
 40
2.5
  9
$TRACEWID
 40
1.0
  9
$TEXTSTYLE
  7
Standard
  9
$CLAYER
  8
0
  9
$CELTYPE
  6
ByLayer
  9
$CECOLOR
 62
   256
  9
$CELTSCALE
 40
1.0
  9
$DISPSILH
 70
     0
  9
$DIMSCALE
 40
1.0
  9
$DIMASZ
 40
2.5
  9
$DIMEXO
 40
0.625
  9
$DIMDLI
 40
3.75
  9
$DIMRND
 40
0.0
  9
$DIMDLE
 40
0.0
  9
$DIMEXE
 40
1.25
  9
$DIMTP
 40
0.0
  9
$DIMTM
 40
0.0
  9
$DIMTXT
 40
2.5
  9
$DIMCEN
 40
2.5
  9
$DIMTSZ
 40
0.0
  9
$DIMTOL
 70
     0
  9
$DIMLIM
 70
     0
  9
$DIMTIH
 70
     0
  9
$DIMTOH
 70
     0
  9
$DIMSE1
 70
     0
  9
$DIMSE2
 70
     0
  9
$DIMTAD
 70
     1
  9
$DIMZIN
 70
     8
  9
$DIMBLK
  1

  9
$DIMASO
 70
     1
  9
$DIMSHO
 70
     1
  9
$DIMPOST
  1

  9
$DIMAPOST
  1

  9
$DIMALT
 70
     0
  9
$DIMALTD
 70
     3
  9
$DIMALTF
 40
0.03937007874016
  9
$DIMLFAC
 40
1.0
  9
$DIMTOFL
 70
     1
  9
$DIMTVP
 40
0.0
  9
$DIMTIX
 70
     0
  9
$DIMSOXD
 70
     0
  9
$DIMSAH
 70
     0
  9
$DIMBLK1
  1

  9
$DIMBLK2
  1

  9
$DIMSTYLE
  2
ISO-25
  9
$DIMCLRD
 70
     0
  9
$DIMCLRE
 70
     0
  9
$DIMCLRT
 70
     0
  9
$DIMTFAC
 40
1.0
  9
$DIMGAP
 40
0.625
  9
$DIMJUST
 70
     0
  9
$DIMSD1
 70
     0
  9
$DIMSD2
 70
     0
  9
$DIMTOLJ
 70
     0
  9
$DIMTZIN
 70
     8
  9
$DIMALTZ
 70
     0
  9
$DIMALTTZ
 70
     0
  9
$DIMUPT
 70
     0
  9
$DIMDEC
 70
     2
  9
$DIMTDEC
 70
     2
  9
$DIMALTU
 70
     2
  9
$DIMALTTD
 70
     3
  9
$DIMTXSTY
  7
Standard
  9
$DIMAUNIT
 70
     0
  9
$DIMADEC
 70
     0
  9
$DIMALTRND
 40
0.0
  9
$DIMAZIN
 70
     0
  9
$DIMDSEP
 70
    44
  9
$DIMATFIT
 70
     3
  9
$DIMFRAC
 70
     0
  9
$DIMLDRBLK
  1

  9
$DIMLUNIT
 70
     2
  9
$DIMLWD
 70
    -2
  9
$DIMLWE
 70
    -2
  9
$DIMTMOVE
 70
     0
  9
$DIMFXL
 40
1.0
  9
$DIMFXLON
 70
     0
  9
$DIMJOGANG
 40
0.7853981633974483
  9
$DIMTFILL
 70
     0
  9
$DIMTFILLCLR
 70
     0
  9
$DIMARCSYM
 70
     0
  9
$DIMLTYPE
  6

  9
$DIMLTEX1
  6

  9
$DIMLTEX2
  6

  9
$DIMTXTDIRECTION
 70
     0
  9
$LUNITS
 70
     2
  9
$LUPREC
 70
     4
  9
$SKETCHINC
 40
1.0
  9
$FILLETRAD
 40
0.0
  9
$AUNITS
 70
     0
  9
$AUPREC
 70
     0
  9
$MENU
  1
.
  9
$ELEVATION
 40
0.0
  9
$PELEVATION
 40
0.0
  9
$THICKNESS
 40
0.0
  9
$LIMCHECK
 70
     0
  9
$CHAMFERA
 40
0.0
  9
$CHAMFERB
 40
0.0
  9
$CHAMFERC
 40
0.0
  9
$CHAMFERD
 40
0.0
  9
$SKPOLY
 70
     0
  9
$TDCREATE
 40
2460608.599803241
  9
$TDUCREATE
 40
2460608.558136574
  9
$TDUPDATE
 40
2460705.473379630
  9
$TDUUPDATE
 40
2460705.473379630
  9
$TDINDWG
 40
5.1479976852
  9
$TDUSRTIMER
 40
5.1479976852
  9
$USRTIMER
 70
     1
  9
$ANGBASE
 50
0.0
  9
$ANGDIR
 70
     0
  9
$PDMODE
 70
     0
  9
$PDSIZE
 40
0.0
  9
$PLINEWID
 40
0.0
  9
$SPLFRAME
 70
     0
  9
$SPLINETYPE
 70
     6
  9
$SPLINESEGS
 70
     8
  9
$HANDSEED
  5
352BC
  9
$SURFTAB1
 70
     6
  9
$SURFTAB2
 70
     6
  9
$SURFTYPE
 70
     6
  9
$SURFU
 70
     6
  9
$SURFV
 70
     6
  9
$UCSBASE
  2

  9
$UCSNAME
  2

  9
$UCSORG
 10
0.0
 20
0.0
 30
0.0
  9
$UCSXDIR
 10
1.0
 20
0.0
 30
0.0
  9
$UCSYDIR
 10
0.0
 20
1.0
 30
0.0
  9
$UCSORTHOREF
  2

  9
$UCSORTHOVIEW
 70
     0
  9
$UCSORGTOP
 10
0.0
 20
0.0
 30
0.0
  9
$UCSORGBOTTOM
 10
0.0
 20
0.0
 30
0.0
  9
$UCSORGLEFT
 10
0.0
 20
0.0
 30
0.0
  9
$UCSORGRIGHT
 10
0.0
 20
0.0
 30
0.0
  9
$UCSORGFRONT
 10
0.0
 20
0.0
 30
0.0
  9
$UCSORGBACK
 10
0.0
 20
0.0
 30
0.0
  9
$PUCSBASE
  2

  9
$PUCSNAME
  2

  9
$PUCSORG
 10
0.0
 20
0.0
 30
0.0
  9
$PUCSXDIR
 10
1.0
 20
0.0
 30
0.0
  9
$PUCSYDIR
 10
0.0
 20
1.0
 30
0.0
  9
$PUCSORTHOREF
  2

  9
$PUCSORTHOVIEW
 70
     0
  9
$PUCSORGTOP
 10
0.0
 20
0.0
 30
0.0
  9
$PUCSORGBOTTOM
 10
0.0
 20
0.0
 30
0.0
  9
$PUCSORGLEFT
 10
0.0
 20
0.0
 30
0.0
  9
$PUCSORGRIGHT
 10
0.0
 20
0.0
 30
0.0
  9
$PUCSORGFRONT
 10
0.0
 20
0.0
 30
0.0
  9
$PUCSORGBACK
 10
0.0
 20
0.0
 30
0.0
  9
$USERI1
 70
     0
  9
$USERI2
 70
     0
  9
$USERI3
 70
     0
  9
$USERI4
 70
     0
  9
$USERI5
 70
     0
  9
$USERR1
 40
0.0
  9
$USERR2
 40
0.0
  9
$USERR3
 40
0.0
  9
$USERR4
 40
0.0
  9
$USERR5
 40
0.0
  9
$WORLDVIEW
 70
     1
  9
$SHADEDGE
 70
     3
  9
$SHADEDIF
 70
    70
  9
$TILEMODE
 70
     1
  9
$MAXACTVP
 70
    64
  9
$PINSBASE
 10
0.0
 20
0.0
 30
0.0
  9
$PLIMCHECK
 70
     0
  9
$PEXTMIN
 10
25.69999999999999
 20
19.5
 30
0.0
  9
$PEXTMAX
 10
231.3
 20
175.5
 30
0.0
  9
$PLIMMIN
 10
-20.0
 20
-7.5
  9
$PLIMMAX
 10
277.0
 20
202.5
  9
$UNITMODE
 70
     0
  9
$VISRETAIN
 70
     1
  9
$PLINEGEN
 70
     0
  9
$PSLTSCALE
 70
     1
  9
$TREEDEPTH
 70
  3020
  9
$CMLSTYLE
  2
Standard
  9
$CMLJUST
 70
     0
  9
$CMLSCALE
 40
20.0
  9
$PROXYGRAPHICS
 70
     1
  9
$MEASUREMENT
 70
     1
  9
$CELWEIGHT
370
    -1
  9
$ENDCAPS
280
     0
  9
$JOINSTYLE
280
     0
  9
$LWDISPLAY
290
     0
  9
$INSUNITS
 70
     4
  9
$HYPERLINKBASE
  1

  9
$STYLESHEET
  1

  9
$XEDIT
290
     1
  9
$CEPSNTYPE
380
     0
  9
$PSTYLEMODE
290
     1
  9
$FINGERPRINTGUID
  2
{54537EB9-599D-7646-99BF-BB5F0EA5D2E8}
  9
$VERSIONGUID
  2
{AE7ED868-4070-7141-8A89-184EE2626ACC}
  9
$EXTNAMES
290
     1
  9
$PSVPSCALE
 40
0.0
  9
$OLESTARTUP
290
     0
  9
$SORTENTS
280
   127
  9
$INDEXCTL
280
     0
  9
$HIDETEXT
280
     1
  9
$XCLIPFRAME
280
     2
  9
$HALOGAP
280
     0
  9
$OBSCOLOR
 70
   257
  9
$OBSLTYPE
280
     0
  9
$INTERSECTIONDISPLAY
280
     0
  9
$INTERSECTIONCOLOR
 70
   257
  9
$DIMASSOC
280
     2
  9
$PROJECTNAME
  1

  9
$CAMERADISPLAY
290
     0
  9
$LENSLENGTH
 40
50.0
  9
$CAMERAHEIGHT
 40
0.0
  9
$STEPSPERSEC
 40
2.0
  9
$STEPSIZE
 40
6.0
  9
$3DDWFPREC
 40
2.0
  9
$PSOLWIDTH
 40
5.0
  9
$PSOLHEIGHT
 40
80.0
  9
$LOFTANG1
 40
1.570796326794896
  9
$LOFTANG2
 40
1.570796326794896
  9
$LOFTMAG1
 40
0.0
  9
$LOFTMAG2
 40
0.0
  9
$LOFTPARAM
 70
     7
  9
$LOFTNORMALS
280
     1
  9
$LATITUDE
 40
37.795
  9
$LONGITUDE
 40
-122.394
  9
$NORTHDIRECTION
 40
0.0
  9
$TIMEZONE
 70
 -8000
  9
$LIGHTGLYPHDISPLAY
280
     1
  9
$TILEMODELIGHTSYNCH
280
     1
  9
$CMATERIAL
347
EC
  9
$SOLIDHIST
280
     0
  9
$SHOWHIST
280
     1
  9
$DWFFRAME
280
     2
  9
$DGNFRAME
280
     0
  9
$REALWORLDSCALE
290
     1
  9
$INTERFERECOLOR
 62
     1
  9
$INTERFEREOBJVS
345
F9
  9
$INTERFEREVPVS
346
F6
  9
$CSHADOW
280
     0
  9
$SHADOWPLANELOCATION
 40
0.0
  0
ENDSEC
  0
SECTION
  2
CLASSES
  0
CLASS
  1
ACDBDICTIONARYWDFLT
  2
AcDbDictionaryWithDefault
  3
ObjectDBX Classes
 90
        0
 91
        1
280
     0
281
     0
  0
CLASS
  1
DICTIONARYVAR
  2
AcDbDictionaryVar
  3
ObjectDBX Classes
 90
        0
 91
       13
280
     0
281
     0
  0
CLASS
  1
TABLESTYLE
  2
AcDbTableStyle
  3
ObjectDBX Classes
 90
     4095
 91
        1
280
     0
281
     0
  0
CLASS
  1
MATERIAL
  2
AcDbMaterial
  3
ObjectDBX Classes
 90
     1153
 91
        3
280
     0
281
     0
  0
CLASS
  1
VISUALSTYLE
  2
AcDbVisualStyle
  3
ObjectDBX Classes
 90
     4095
 91
       24
280
     0
281
     0
  0
CLASS
  1
SCALE
  2
AcDbScale
  3
ObjectDBX Classes
 90
     1153
 91
       17
280
     0
281
     0
  0
CLASS
  1
MLEADERSTYLE
  2
AcDbMLeaderStyle
  3
ACDB_MLEADERSTYLE_CLASS
 90
     4095
 91
        2
280
     0
281
     0
  0
CLASS
  1
CELLSTYLEMAP
  2
AcDbCellStyleMap
  3
ObjectDBX Classes
 90
     1152
 91
        1
280
     0
281
     0
  0
CLASS
  1
EXACXREFPANELOBJECT
  2
ExAcXREFPanelObject
  3
EXAC_ESW
 90
     1025
 91
        0
280
     0
281
     0
  0
CLASS
  1
NPOCOLLECTION
  2
AcDbImpNonPersistentObjectsCollection
  3
ObjectDBX Classes
 90
     1153
 91
        0
280
     0
281
     0
  0
CLASS
  1
LAYER_INDEX
  2
AcDbLayerIndex
  3
ObjectDBX Classes
 90
        0
 91
        0
280
     0
281
     0
  0
CLASS
  1
SPATIAL_INDEX
  2
AcDbSpatialIndex
  3
ObjectDBX Classes
 90
        0
 91
        0
280
     0
281
     0
  0
CLASS
  1
IDBUFFER
  2
AcDbIdBuffer
  3
ObjectDBX Classes
 90
        0
 91
        0
280
     0
281
     0
  0
CLASS
  1
ACDBSECTIONVIEWSTYLE
  2
AcDbSectionViewStyle
  3
ObjectDBX Classes
 90
     1025
 91
        1
280
     0
281
     0
  0
CLASS
  1
ACDBDETAILVIEWSTYLE
  2
AcDbDetailViewStyle
  3
ObjectDBX Classes
 90
     1025
 91
        1
280
     0
281
     0
  0
CLASS
  1
SORTENTSTABLE
  2
AcDbSortentsTable
  3
ObjectDBX Classes
 90
        0
 91
        1
280
     0
281
     0
  0
CLASS
  1
ACDB_MTEXTATTRIBUTEOBJECTCONTEXTDATA_CLASS
  2
AcDbMTextAttributeObjectContextData
  3
ObjectDBX Classes
 90
     1153
 91
       82
280
     0
281
     0
  0
CLASS
  1
ACAD_EVALUATION_GRAPH
  2
AcDbEvalGraph
  3
ObjectDBX Classes
 90
     1153
 91
        0
280
     0
281
     0
  0
CLASS
  1
ACAECUSTOBJ
  2
AcAeEditorObj
  3
AcAeEditorObj
 90
     1024
 91
        0
280
     0
281
     0
  0
CLASS
  1
ACDB_DYNAMICBLOCKPURGEPREVENTER_VERSION
  2
AcDbDynamicBlockPurgePreventer
  3
ObjectDBX Classes
 90
     1153
 91
        0
280
     0
281
     0
  0
ENDSEC
  0
SECTION
  2
TABLES
  0
TABLE
  2
VPORT
  5
8
330
0
100
AcDbSymbolTable
 70
     1
  0
VPORT
  5
EA
330
8
100
AcDbSymbolTableRecord
100
AcDbViewportTableRecord
  2
*Active
 70
     0
 10
0.0
 20
0.0
 11
1.0
 21
1.0
 12
6393.594500383261
 22
6973.189261669005
 13
0.0
 23
0.0
 14
10.0
 24
10.0
 15
10.0
 25
10.0
 16
0.0
 26
0.0
 36
1.0
 17
0.0
 27
0.0
 37
0.0
 40
1185.492461005861
 41
1.964135021097046
 42
50.0
 43
0.0
 44
0.0
 50
0.0
 51
0.0
 71
     0
 72
  1000
 73
     1
 74
     3
 75
     0
 76
     1
 77
     0
 78
     0
281
     0
 65
     1
110
0.0
120
0.0
130
0.0
111
1.0
121
0.0
131
0.0
112
0.0
122
1.0
132
0.0
 79
     0
146
0.0
348
F5
 60
     3
 61
     5
292
     1
282
     1
141
0.0
142
0.0
 63
   250
421
  3355443
1001
ACAD_NAV_VCDISPLAY
1070
     3
  0
ENDTAB
  0
TABLE
  2
LTYPE
  5
5
330
0
100
AcDbSymbolTable
 70
     1
  0
LTYPE
  5
14
330
5
100
AcDbSymbolTableRecord
100
AcDbLinetypeTableRecord
  2
ByBlock
 70
     0
  3

 72
    65
 73
     0
 40
0.0
  0
LTYPE
  5
15
330
5
100
AcDbSymbolTableRecord
100
AcDbLinetypeTableRecord
  2
ByLayer
 70
     0
  3

 72
    65
 73
     0
 40
0.0
  0
LTYPE
  5
16
330
5
100
AcDbSymbolTableRecord
100
AcDbLinetypeTableRecord
  2
Continuous
 70
     0
  3
Solid line
 72
    65
 73
     0
 40
0.0
  0
ENDTAB
  0
TABLE
  2
LAYER
  5
2
102
{ACAD_XDICTIONARY
360
1FF
102
}
330
0
100
AcDbSymbolTable
 70
     1
  0
LAYER
  5
10
102
{ACAD_XDICTIONARY
360
13C
102
}
330
2
100
AcDbSymbolTableRecord
100
AcDbLayerTableRecord
  2
0
 70
     0
 62
     7
  6
Continuous
370
    -3
390
F
347
EE
348
0
  0
ENDTAB
  0
TABLE
  2
STYLE
  5
3
330
0
100
AcDbSymbolTable
 70
     2
  0
STYLE
  5
11
330
3
100
AcDbSymbolTableRecord
100
AcDbTextStyleTableRecord
  2
Standard
 70
     0
 40
0.0
 41
1.0
 50
0.0
 71
     0
 42
2.5
  3
arial.ttf
  4

1001
ACAD
1000
Arial
1071
       34
  0
STYLE
  5
132
330
3
100
AcDbSymbolTableRecord
100
AcDbTextStyleTableRecord
  2
Annotative
 70
     0
 40
0.0
 41
1.0
 50
0.0
 71
     0
 42
2.5
  3
arial.ttf
  4

1001
AcadAnnotative
1000
AnnotativeData
1002
{
1070
     1
1070
     1
1002
}
1001
ACAD
1000
Arial
1071
       34
  0
ENDTAB
  0
TABLE
  2
VIEW
  5
6
330
0
100
AcDbSymbolTable
 70
     0
  0
ENDTAB
  0
TABLE
  2
UCS
  5
7
330
0
100
AcDbSymbolTable
 70
     0
  0
ENDTAB
  0
TABLE
  2
APPID
  5
9
330
0
100
AcDbSymbolTable
 70
    14
  0
APPID
  5
12
330
9
100
AcDbSymbolTableRecord
100
AcDbRegAppTableRecord
  2
ACAD
 70
     0
  0
APPID
  5
9E
330
9
100
AcDbSymbolTableRecord
100
AcDbRegAppTableRecord
  2
ACAD_PSEXT
 70
     0
  0
APPID
  5
133
330
9
100
AcDbSymbolTableRecord
100
AcDbRegAppTableRecord
  2
AcadAnnoPO
 70
     0
  0
APPID
  5
134
330
9
100
AcDbSymbolTableRecord
100
AcDbRegAppTableRecord
  2
AcadAnnotative
 70
     0
  0
APPID
  5
135
330
9
100
AcDbSymbolTableRecord
100
AcDbRegAppTableRecord
  2
ACAD_DSTYLE_DIMJAG
 70
     0
  0
APPID
  5
136
330
9
100
AcDbSymbolTableRecord
100
AcDbRegAppTableRecord
  2
ACAD_DSTYLE_DIMTALN
 70
     0
  0
APPID
  5
165
330
9
100
AcDbSymbolTableRecord
100
AcDbRegAppTableRecord
  2
ACAD_MLEADERVER
 70
     0
  0
APPID
  5
217
330
9
100
AcDbSymbolTableRecord
100
AcDbRegAppTableRecord
  2
ACAD_NAV_VCDISPLAY
 70
     0
  0
APPID
  5
10CD0
330
9
100
AcDbSymbolTableRecord
100
AcDbRegAppTableRecord
  2
ACAD_EXEMPT_FROM_CAD_STANDARDS
 70
     0
  0
APPID
  5
20098
330
9
100
AcDbSymbolTableRecord
100
AcDbRegAppTableRecord
  2
GradientColor1ACI
 70
     0
  0
APPID
  5
20099
330
9
100
AcDbSymbolTableRecord
100
AcDbRegAppTableRecord
  2
GradientColor2ACI
 70
     0
  0
APPID
  5
245F8
330
9
100
AcDbSymbolTableRecord
100
AcDbRegAppTableRecord
  2
ACAUTHENVIRON
 70
     0
  0
APPID
  5
27F21
330
9
100
AcDbSymbolTableRecord
100
AcDbRegAppTableRecord
  2
AcDbDynamicBlockTrueName
 70
     0
  0
APPID
  5
27F22
330
9
100
AcDbSymbolTableRecord
100
AcDbRegAppTableRecord
  2
AcDbDynamicBlockGUID
 70
     0
  0
ENDTAB
  0
TABLE
  2
DIMSTYLE
  5
A
330
0
100
AcDbSymbolTable
 70
     3
100
AcDbDimStyleTable
 71
     1
340
27
  0
DIMSTYLE
105
1B0
330
A
100
AcDbSymbolTableRecord
100
AcDbDimStyleTableRecord
  2
Standard
 70
     0
340
11
  0
DIMSTYLE
105
27
330
A
100
AcDbSymbolTableRecord
100
AcDbDimStyleTableRecord
  2
ISO-25
 70
     0
 41
2.5
 42
0.625
 43
3.75
 44
1.25
 73
     0
 74
     0
 77
     1
 78
     8
140
2.5
141
2.5
143
0.03937007874016
147
0.625
171
     3
172
     1
271
     2
272
     2
274
     3
278
    44
283
     0
284
     8
340
11
  0
ENDTAB
  0
TABLE
  2
BLOCK_RECORD
  5
1
330
0
100
AcDbSymbolTable
 70
    44
  0
BLOCK_RECORD
  5
1F
102
{ACAD_XDICTIONARY
360
1CE
102
}
330
1
100
AcDbSymbolTableRecord
100
AcDbBlockTableRecord
  2
*Model_Space
340
22
 70
     0
280
     1
281
     0
  0
BLOCK_RECORD
  5
D2
330
1
100
AcDbSymbolTableRecord
100
AcDbBlockTableRecord
  2
*Paper_Space
340
D3
 70
     0
280
     1
281
     0
  0
BLOCK_RECORD
  5
D6
330
1
100
AcDbSymbolTableRecord
100
AcDbBlockTableRecord
  2
*Paper_Space0
340
D7
 70
     0
280
     1
281
     0
  0
BLOCK_RECORD
  5
16627
102
{ACAD_XDICTIONARY
360
2FFD4
102
}
330
1
100
AcDbSymbolTableRecord
100
AcDbBlockTableRecord
  2
800G - Vertical Bench
340
0
310
28000000200000002000000001002000000000000010000001000000010000000000000000000000302821FF302821FF302821FF302821FF302821FF302821FF302821FF302821FF302821FF302821FF302821FF302821FF302821FF302821FF302821FF302821FF302821FF302821FF302821FF302821FF302821FF302821
310
FF302821FF302821FF302821FF302821FF302821FF302821FF302821FF302821FF302821FF302821FF302821FF302821FF302821FF302821FF302821FF302821FF302821FF302821FF302821FF302821FF302821FF302821FFFFFFFFFFFFFFFFFFFFFFFFFFFFFFFFFFFFFFFFFFFFFFFFFF302821FFFFFFFFFF302821FF3028
310
21FF302821FF302821FF302821FF302821FF302821FF302821FF302821FF302821FF302821FF302821FF302821FF302821FF302821FF302821FF302821FF302821FF302821FF302821FF302821FF302821FF302821FF302821FF302821FFFFFFFFFFFFFFFFFFFFFFFFFFFFFFFFFFFFFFFFFFFFFFFFFFFFFFFFFF302821FF30
310
2821FF302821FF302821FF302821FF302821FF302821FF302821FF302821FF302821FF302821FF302821FF302821FF302821FF302821FF302821FF302821FF302821FF302821FF302821FF302821FF302821FF302821FF302821FF302821FFFFFFFFFFFFFFFFFF302821FFFFFFFFFF302821FFFFFFFFFF302821FF302821FF
310
302821FF302821FF302821FF302821FF302821FF302821FF302821FF302821FF302821FF302821FF302821FF302821FF302821FF302821FF302821FF302821FF302821FF302821FF302821FF302821FF302821FF302821FF302821FFFFFFFFFFFFFFFFFFFFFFFFFFFFFFFFFFFFFFFFFFFFFFFFFF302821FFFFFFFFFF302821
310
FF302821FF302821FF302821FF302821FF302821FF302821FF302821FF302821FF302821FF302821FF302821FF302821FF302821FF302821FF302821FF302821FF302821FF302821FF302821FF302821FF302821FF302821FF302821FF302821FF302821FF302821FF302821FF302821FF302821FF302821FF302821FF3028
310
21FF302821FF302821FF302821FF302821FF302821FF302821FF302821FF302821FF302821FF302821FF302821FF302821FF302821FF302821FF302821FF302821FF302821FF302821FF302821FF302821FF302821FF302821FF302821FF302821FF302821FF302821FF302821FF302821FF302821FF302821FF302821FF30
310
2821FF302821FF302821FF302821FF302821FF302821FF302821FF302821FF302821FF302821FF302821FF302821FF302821FF302821FF302821FF302821FF302821FF302821FF302821FF302821FF302821FF302821FF302821FF302821FF302821FF302821FF302821FF302821FF302821FF302821FF302821FF302821FF
310
302821FF302821FF302821FF302821FF302821FF302821FF302821FF302821FF302821FF302821FF302821FF302821FF302821FF302821FF302821FF302821FF302821FF302821FF302821FF302821FF302821FF302821FF302821FF302821FF302821FF302821FFFFFFFFFFFFFFFFFFFFFFFFFFFFFFFFFF302821FF302821
310
FF302821FF302821FF302821FF302821FF302821FF302821FF302821FF302821FF302821FF302821FF302821FF302821FF302821FF302821FF302821FF302821FF302821FF302821FF302821FF302821FF302821FF302821FF302821FF302821FF302821FF302821FFFFFFFFFFFFFFFFFFFFFFFFFFFFFFFFFF302821FF3028
310
21FF302821FF302821FF302821FF302821FF302821FF302821FF302821FF302821FF302821FF302821FF302821FF302821FF302821FF302821FF302821FF302821FF302821FF302821FF302821FF302821FF302821FF302821FF302821FF302821FF302821FF302821FFFFFFFFFFFFFFFFFFFFFFFFFFFFFFFFFF302821FF30
310
2821FF302821FF302821FF302821FF302821FF302821FF302821FF302821FF302821FF302821FF302821FF302821FF302821FF302821FF302821FF302821FF302821FF302821FF302821FF302821FF302821FF302821FF302821FF302821FF302821FF302821FF302821FFFFFFFFFFFFFFFFFFFFFFFFFFFFFFFFFF302821FF
310
302821FF302821FF302821FF302821FF302821FF302821FF302821FF302821FF302821FF302821FF302821FF302821FF302821FF302821FF302821FF302821FF302821FF302821FF302821FF302821FF302821FF302821FF302821FF302821FF302821FF302821FF302821FFFFFFFFFFFFFFFFFFFFFFFFFFFFFFFFFF302821
310
FF302821FF302821FF302821FF302821FF302821FF302821FF302821FF302821FF302821FF302821FF302821FF302821FF302821FF302821FF302821FF302821FF302821FF302821FF302821FF302821FF302821FF302821FF302821FF302821FF302821FF302821FF302821FFFFFFFFFFFFFFFFFFFFFFFFFFFFFFFFFF3028
310
21FF302821FF302821FF302821FF302821FF302821FF302821FF302821FF302821FF302821FF302821FF302821FF302821FF302821FF302821FF302821FF302821FF302821FF302821FF302821FF302821FF302821FF302821FF302821FF302821FF302821FF302821FF302821FFFFFFFFFFFFFFFFFFFFFFFFFFFFFFFFFF30
310
2821FF302821FF302821FF302821FF302821FF302821FF302821FF302821FF302821FF302821FF302821FF302821FF302821FF302821FF302821FF302821FF302821FF302821FF302821FF302821FF302821FF302821FF302821FF302821FF302821FF302821FF302821FFFFFFFFFFFFFFFFFFFFFFFFFFFFFFFFFFFFFFFFFF
310
FFFFFFFF302821FF302821FF302821FF302821FF302821FF302821FF302821FF302821FF302821FF302821FF302821FF302821FF302821FF302821FF302821FF302821FF302821FF302821FF302821FF302821FF302821FF302821FF302821FF302821FF302821FF302821FFFFFFFFFF302821FF302821FF302821FF302821
310
FFFFFFFFFF302821FF302821FF302821FF302821FF302821FF302821FF302821FF302821FF302821FF302821FF302821FF302821FF302821FF302821FF302821FF302821FF302821FF302821FF302821FF302821FF302821FF302821FF302821FF302821FF302821FF302821FFFFFFFFFF302821FF302821FF302821FF3028
310
21FFFFFFFFFF302821FF302821FF302821FF302821FF302821FF302821FF302821FF302821FF302821FF302821FF302821FF302821FF302821FF302821FF302821FF302821FF302821FF302821FF302821FF302821FF302821FF302821FF302821FF302821FF302821FF302821FFFFFFFFFF302821FF302821FF302821FF30
310
2821FFFFFFFFFF302821FF302821FF302821FF302821FF302821FF302821FF302821FF302821FF302821FF302821FF302821FF302821FF302821FF302821FF302821FF302821FF302821FF302821FF302821FF302821FF302821FF302821FF302821FF302821FF302821FF302821FFFFFFFFFF302821FF302821FF302821FF
310
302821FFFFFFFFFF302821FF302821FF302821FF302821FF302821FF302821FF302821FF302821FF302821FF302821FF302821FF302821FF302821FF302821FF302821FF302821FF302821FF302821FF302821FF302821FF302821FF302821FF302821FF302821FF302821FFFFFFFFFFFFFFFFFF302821FF302821FF302821
310
FF302821FFFFFFFFFFFFFFFFFF302821FF302821FF302821FF302821FF302821FF302821FF302821FF302821FF302821FF302821FF302821FF302821FF302821FF302821FF302821FF302821FF302821FF302821FF302821FF302821FF302821FF302821FF302821FF302821FFFFFFFFFF302821FF302821FF302821FF3028
310
21FF302821FF302821FFFFFFFFFF302821FF302821FF302821FF302821FF302821FF302821FF302821FF302821FF302821FF302821FF302821FF302821FF302821FF302821FF302821FF302821FF302821FF302821FF302821FF302821FF302821FF302821FF302821FF302821FFFFFFFFFFFFFFFFFF302821FF302821FF30
310
2821FF302821FFFFFFFFFFFFFFFFFF302821FF302821FF302821FF302821FF302821FF302821FF302821FF302821FF302821FF302821FF302821FF302821FF302821FF302821FF302821FF302821FF302821FF302821FF302821FF302821FF302821FF302821FF302821FF302821FFFFFFFFFFFFFFFFFFFFFFFFFFFFFFFFFF
310
FFFFFFFFFFFFFFFFFFFFFFFFFFFFFFFF302821FF302821FF302821FF302821FF302821FF302821FF302821FF302821FF302821FF302821FF302821FF302821FF302821FF302821FF302821FF302821FF302821FF302821FF302821FF302821FF302821FF302821FF302821FF302821FFFFFFFFFFFFFFFFFFFFFFFFFFFFFFFF
310
FFFFFFFFFFFFFFFFFFFFFFFFFFFFFFFFFF302821FF302821FF302821FF302821FF302821FF302821FF302821FF302821FF302821FF302821FF302821FF302821FF302821FF302821FF302821FF302821FF302821FF302821FF302821FF302821FF302821FF302821FF302821FF302821FFFFFFFFFFFFFFFFFFFFFFFFFFFFFF
310
FFFFFFFFFFFFFFFFFFFFFFFFFFFFFFFFFFFF302821FF302821FF302821FF302821FF302821FF302821FF302821FF302821FF302821FF302821FF302821FF302821FF302821FF302821FF302821FF302821FF302821FF302821FF302821FF302821FF302821FF302821FF302821FF302821FFFFFFFFFFFFFFFFFFFFFFFFFFFF
310
FFFFFFFFFFFFFFFFFFFFFFFFFFFFFFFFFFFFFF302821FF302821FF302821FF302821FF302821FF302821FF302821FF302821FF302821FF302821FF302821FF302821FF302821FF302821FF302821FF302821FF302821FF302821FF302821FF302821FF302821FFFFFFFFFFFFFFFFFFFFFFFFFFFFFFFFFFFFFFFFFFFFFFFFFF
310
FFFFFFFFFFFFFFFFFFFFFFFFFFFFFFFFFFFFFFFFFFFFFFFFFFFFFFFFFFFFFFFF302821FF302821FF302821FF302821FF302821FF302821FF302821FF302821FF302821FF302821FF302821FF302821FF302821FF302821FF302821FF302821FF302821FF302821FFFFFFFFFFFFFFFFFFFFFFFFFFFFFFFFFFFFFFFFFFFFFFFF
310
FFFFFFFFFFFFFFFFFFFFFFFFFFFFFFFFFFFFFFFFFFFFFFFFFFFFFFFFFFFFFFFFFF302821FF302821FF302821FF302821FF302821FF302821FF302821FF302821FF302821FF302821FF302821FF302821FF302821FF302821FF302821FF302821FF302821FF302821FFFFFFFFFFFFFFFFFFFFFFFFFFFFFFFFFFFFFFFFFFFFFF
310
FFFFFFFFFFFFFFFFFFFFFFFFFFFFFFFFFFFFFFFFFFFFFFFFFFFFFFFFFFFFFFFFFFFF302821FF302821FF302821FF302821FF302821FF302821FF302821FF302821FF302821FF302821FF302821FF302821FF302821FF302821FF302821FF302821FF302821FF302821FFFFFFFFFFFFFFFFFFFFFFFFFFFFFFFFFFFFFFFFFFFF
310
FFFFFFFFFFFFFFFFFFFFFFFFFFFFFFFFFFFFFFFFFFFFFFFFFFFFFFFFFFFFFFFFFFFFFF302821FF302821FF302821FF302821FF302821FF302821FF302821FF302821FF302821FF302821FF302821FF302821FF302821FF302821FF302821FF302821FF302821FF302821FF302821FF302821FF302821FF302821FF302821FF
310
302821FF302821FF302821FF302821FF302821FF302821FF302821FF302821FF302821FF302821FF302821FF302821FF302821FF302821FF302821FF302821FF302821FF302821FF
102
{BLKREFS
331
16784
102
}
 70
     4
280
     1
281
     0
1001
AcDbDynamicBlockGUID
1000
{6C81A912-CDB0-494C-BAA9-B1C57E8C8F2B}
  0
ENDTAB
  0
ENDSEC
  0
SECTION
  2
BLOCKS
  0
BLOCK
  5
20
330
1F
100
AcDbEntity
  8
0
100
AcDbBlockBegin
  2
*Model_Space
 70
     0
 10
0.0
 20
0.0
 30
0.0
  3
*Model_Space
  1

  0
ENDBLK
  5
21
330
1F
100
AcDbEntity
  8
0
100
AcDbBlockEnd
  0
BLOCK
  5
D4
330
D2
100
AcDbEntity
 67
     1
  8
0
100
AcDbBlockBegin
  2
*Paper_Space
 70
     0
 10
0.0
 20
0.0
 30
0.0
  3
*Paper_Space
  1

  0
ENDBLK
  5
D5
330
D2
100
AcDbEntity
 67
     1
  8
0
100
AcDbBlockEnd
  0
BLOCK
  5
D8
330
D6
100
AcDbEntity
 67
     1
  8
0
100
AcDbBlockBegin
  2
*Paper_Space0
 70
     0
 10
0.0
 20
0.0
 30
0.0
  3
*Paper_Space0
  1

  0
ENDBLK
  5
D9
330
D6
100
AcDbEntity
 67
     1
  8
0
100
AcDbBlockEnd
  0
BLOCK
  5
16628
330
16627
100
AcDbEntity
  8
0
100
AcDbBlockBegin
  2
800G - Vertical Bench
 70
     2
 10
0.0
 20
0.0
 30
0.0
  3
800G - Vertical Bench
  1

  0
SPLINE
  5
2FE7A
330
16627
100
AcDbEntity
  8
0
100
AcDbSpline
210
0.0
220
0.0
230
1.0
 70
     8
 71
     3
 72
    20
 73
    16
 74
     0
 42
0.000000001
 43
0.0000000001
 40
0.0
 40
0.0
 40
0.0
 40
0.0
 40
0.0466531019180154
 40
0.1355339478163318
 40
0.2245470661918576
 40
0.3137454081924438
 40
0.4032340590011704
 40
0.4931874225365143
 40
0.5839423443381112
 40
0.6761968269826482
 40
0.7717134819698617
 40
0.865026907256478
 40
0.9206467049044448
 40
0.9605714118566744
 40
1.0
 40
1.0
 40
1.0
 40
1.0
 10
-94.25420960617339
 20
252.8407639380521
 30
0.0
 10
-94.72247188662368
 20
252.8249706284141
 30
0.0
 10
-96.08284092691247
 20
252.779088800281
 30
0.0
 10
-98.25722810262233
 20
252.6788233129364
 30
0.0
 10
-100.706512812023
 20
252.5312110856348
 30
0.0
 10
-102.9885451213849
 20
252.3540918653007
 30
0.0
 10
-105.0789865588849
 20
252.1496603398909
 30
0.0
 10
-106.9566469576784
 20
251.9187334284207
 30
0.0
 10
-108.6072363986677
 20
251.6605936511687
 30
0.0
 10
-110.029722740157
 20
251.3714376956914
 30
0.0
 10
-111.2057752960936
 20
251.039847442421
 30
0.0
 10
-112.0621639797391
 20
250.6893429912698
 30
0.0
 10
-112.7235054272496
 20
250.2351772913416
 30
0.0
 10
-113.230266437542
 20
249.7042945854801
 30
0.0
 10
-113.4178196879402
 20
249.210861320923
 30
0.0
 10
-113.5110100193051
 20
248.9656871672696
 30
0.0
  0
SPLINE
  5
2FE7B
330
16627
100
AcDbEntity
  8
0
100
AcDbSpline
210
0.0
220
0.0
230
1.0
 70
     8
 71
     3
 72
    14
 73
    10
 74
     0
 42
0.000000001
 43
0.0000000001
 40
0.0
 40
0.0
 40
0.0
 40
0.0
 40
0.0957876661342458
 40
0.1859153714428386
 40
0.2896257009768577
 40
0.4252963055926377
 40
0.6309684559487377
 40
0.8468607622094037
 40
1.0
 40
1.0
 40
1.0
 40
1.0
 10
134.8278979377719
 20
248.9656871672696
 30
0.0
 10
134.730117979092
 20
249.2199215020546
 30
0.0
 10
134.5403357443792
 20
249.7133678160999
 30
0.0
 10
134.075447158335
 20
250.1962824701977
 30
0.0
 10
133.577943545406
 20
250.5605694658907
 30
0.0
 10
132.9166432357815
 20
250.8885355910997
 30
0.0
 10
132.010478760043
 20
251.1953303751825
 30
0.0
 10
130.9144743386787
 20
251.4708447290605
 30
0.0
 10
130.0133064622714
 20
251.6254163247786
 30
0.0
 10
129.6393434123965
 20
251.6895598288602
 30
0.0
  0
SPLINE
  5
2FE7C
330
16627
100
AcDbEntity
  8
0
100
AcDbSpline
210
0.0
220
0.0
230
1.0
 70
     8
 71
     3
 72
     9
 73
     5
 74
     0
 42
0.000000001
 43
0.0000000001
 40
0.0
 40
0.0
 40
0.0
 40
0.0
 40
0.7870658452920122
 40
1.0
 40
1.0
 40
1.0
 40
1.0
 10
-113.5110100193051
 20
248.9656871672696
 30
0.0
 10
-113.7601149165712
 20
248.0186990014072
 30
0.0
 10
-114.0766130834672
 20
246.8155110197031
 30
0.0
 10
-114.3115435746876
 20
245.6112141237018
 30
0.0
 10
-114.3615683002499
 20
245.3547781821317
 30
0.0
  0
SPLINE
  5
2FE7D
330
16627
100
AcDbEntity
  8
0
100
AcDbSpline
210
0.0
220
0.0
230
1.0
 70
     8
 71
     3
 72
     9
 73
     5
 74
     0
 42
0.000000001
 43
0.0000000001
 40
0.0
 40
0.0
 40
0.0
 40
0.0
 40
0.5554825787212571
 40
1.0
 40
1.0
 40
1.0
 40
1.0
 10
135.656916590211
 20
245.3731364127225
 30
0.0
 10
135.5217954139079
 20
246.0386073214422
 30
0.0
 10
135.2785453436445
 20
247.2366123250349
 30
0.0
 10
134.9665744395643
 20
248.4336036639861
 30
0.0
 10
134.8278979377719
 20
248.9656871672696
 30
0.0
  0
SPLINE
  5
2FE7E
330
16627
100
AcDbEntity
  8
0
100
AcDbSpline
210
0.0
220
0.0
230
1.0
 70
     8
 71
     3
 72
    27
 73
    23
 74
     0
 42
0.000000001
 43
0.0000000001
 40
0.0
 40
0.0
 40
0.0
 40
0.0
 40
0.0276513810275338
 40
0.0801936772742398
 40
0.1327375023595935
 40
0.1852815084816015
 40
0.2378256429289951
 40
0.2903698811142888
 40
0.3429142455884473
 40
0.395458649516888
 40
0.4480031187861886
 40
0.5005476151184995
 40
0.5530921285056016
 40
0.6056366344891399
 40
0.6581811155930441
 40
0.710725549191796
 40
0.7632699044249623
 40
0.8158141959439864
 40
0.8683583765086268
 40
0.9209024619096295
 40
0.9734462996251977
 40
1.0
 40
1.0
 40
1.0
 40
1.0
 10
-91.02361550760543
 20
196.278697859866
 30
0.0
 10
-89.19526539094295
 20
196.3322082540462
 30
0.0
 10
-83.89274111362102
 20
196.4873974388929
 30
0.0
 10
-75.05235674643699
 20
196.7199827975155
 30
0.0
 10
-64.48568539421103
 20
196.965611638584
 30
0.0
 10
-53.85367066094841
 20
197.1785216284906
 30
0.0
 10
-43.16701744970123
 20
197.3590542880183
 30
0.0
 10
-32.43440327074131
 20
197.5069103837404
 30
0.0
 10
-21.66510473032031
 20
197.6218702967917
 30
0.0
 10
-10.86824730848093
 20
197.7040381433134
 30
0.0
 10
-0.0530549009927199
 20
197.7532179678883
 30
0.0
 10
10.77127189656676
 20
197.7693736565334
 30
0.0
 10
21.5955032223028
 20
197.7524881716736
 30
0.0
 10
32.41042116512472
 20
197.7026657493506
 30
0.0
 10
43.20680677436394
 20
197.6198641088658
 30
0.0
 10
53.97545504026857
 20
197.5041481629987
 30
0.0
 10
64.70723108909442
 20
197.3556581685216
 30
0.0
 10
75.39285637492866
 20
197.1744831845999
 30
0.0
 10
86.02366746669577
 20
196.960842529078
 30
0.0
 10
96.5890500927162
 20
196.7144845605462
 30
0.0
 10
105.3550274625449
 20
196.4832761087737
 30
0.0
 10
110.5848189835087
 20
196.3301152365447
 30
0.0
 10
112.3405034260722
 20
196.278697859866
 30
0.0
  0
LINE
  5
2FE7F
330
16627
100
AcDbEntity
  8
0
100
AcDbLine
 10
142.6465223150226
 20
226.5101140852994
 30
0.0
 11
137.183756621358
 21
243.704623591525
 31
0.0
  0
LINE
  5
2FE80
330
16627
100
AcDbEntity
  8
0
100
AcDbLine
 10
-115.8668687028912
 20
243.704623591525
 30
0.0
 11
-121.3296343965557
 21
226.5101140852994
 31
0.0
  0
SPLINE
  5
2FE81
330
16627
100
AcDbEntity
  8
0
100
AcDbSpline
210
0.0
220
0.0
230
1.0
 70
     8
 71
     3
 72
    22
 73
    18
 74
     0
 42
0.000000001
 43
0.0000000001
 40
0.0
 40
0.0
 40
0.0
 40
0.0
 40
0.0241468282683414
 40
0.0907237738138555
 40
0.1554442155473094
 40
0.2247052589506342
 40
0.2974018488388429
 40
0.3718570895648751
 40
0.4471711510351229
 40
0.5229230992725933
 40
0.5989113797474161
 40
0.6750396637361882
 40
0.7512517552461438
 40
0.8275196158771896
 40
0.9038233566080485
 40
0.980151639329286
 40
1.0
 40
1.0
 40
1.0
 40
1.0
 10
-115.9440567178753
 20
193.2380265112943
 30
0.0
 10
-115.9446947561955
 20
193.2375709011276
 30
0.0
 10
-115.9470919755586
 20
193.2358590956128
 30
0.0
 10
-115.775516495014
 20
193.4173569269505
 30
0.0
 10
-115.2674156083376
 20
193.6755979196596
 30
0.0
 10
-114.4674578088161
 20
193.9645169211389
 30
0.0
 10
-113.3499730126568
 20
194.2628790300068
 30
0.0
 10
-111.9206360533862
 20
194.5612810914308
 30
0.0
 10
-110.1993781862074
 20
194.8495450998443
 30
0.0
 10
-108.207724784479
 20
195.1223218905061
 30
0.0
 10
-105.9672498711697
 20
195.3754374607078
 30
0.0
 10
-103.5007064138299
 20
195.6060480322112
 30
0.0
 10
-100.8314914317852
 20
195.8113714441961
 30
0.0
 10
-97.98502693356567
 20
195.9897442566789
 30
0.0
 10
-94.98687084268386
 20
196.1389725581421
 30
0.0
 10
-92.63683614825641
 20
196.2291762950253
 30
0.0
 10
-91.29958865129083
 20
196.2702262214652
 30
0.0
 10
-91.02361550760543
 20
196.278697859866
 30
0.0
  0
SPLINE
  5
2FE82
330
16627
100
AcDbEntity
  8
0
100
AcDbSpline
210
0.0
220
0.0
230
1.0
 70
     8
 71
     3
 72
    22
 73
    18
 74
     0
 42
0.000000001
 43
0.0000000001
 40
0.0
 40
0.0
 40
0.0
 40
0.0
 40
0.0401359060508024
 40
0.1164630876888055
 40
0.1927963657995359
 40
0.2691076031325654
 40
0.3453886565317794
 40
0.4216236199451214
 40
0.4977914141690864
 40
0.5738520091278318
 40
0.6497412267437556
 40
0.7253265387962659
 40
0.800341862429108
 40
0.87418690246974
 40
0.9372760092830498
 40
0.9992966246937847
 40
1.0
 40
1.0
 40
1.0
 40
1.0
 10
112.3405034260722
 20
196.278697859866
 30
0.0
 10
112.8974082236673
 20
196.2611510681372
 30
0.0
 10
114.5133889914832
 20
196.2102352238244
 30
0.0
 10
117.1137066455776
 20
196.1019862583298
 30
0.0
 10
120.0759403200754
 20
195.9450559328861
 30
0.0
 10
122.8797568908921
 20
195.7591443573283
 30
0.0
 10
125.5003111567202
 20
195.5465342503876
 30
0.0
 10
127.9131516090019
 20
195.3091861813218
 30
0.0
 10
130.0955471709458
 20
195.0495259598747
 30
0.0
 10
132.0266795750212
 20
194.7703245693401
 30
0.0
 10
133.686898868651
 20
194.475031274108
 30
0.0
 10
135.058043422363
 20
194.1680000467558
 30
0.0
 10
136.1217005319122
 20
193.8565446517341
 30
0.0
 10
136.8308979685534
 20
193.5635102711994
 30
0.0
 10
137.2130248565845
 20
193.3202392695157
 30
0.0
 10
137.2698766314752
 20
193.2179335863684
 30
0.0
 10
137.2666580711011
 20
193.2270170015535
 30
0.0
 10
137.266621978757
 20
193.2271188613004
 30
0.0
  0
SPLINE
  5
2FE83
330
16627
100
AcDbEntity
  8
0
100
AcDbSpline
210
0.0
220
0.0
230
1.0
 70
     8
 71
     3
 72
    16
 73
    12
 74
     0
 42
0.000000001
 43
0.0000000001
 40
0.0
 40
0.0
 40
0.0
 40
0.0
 40
0.0596234421470874
 40
0.1308211852579274
 40
0.2136859515169309
 40
0.3230739775776477
 40
0.4856505174540256
 40
0.6436184569148367
 40
0.8106944031480983
 40
0.9707701862259197
 40
0.9999999999999998
 40
0.9999999999999998
 40
0.9999999999999998
 40
0.9999999999999998
 10
137.1648023443194
 20
243.7023586150235
 30
0.0
 10
137.084736104025
 20
243.912487513061
 30
0.0
 10
136.9090608984843
 20
244.3735362299512
 30
0.0
 10
136.4555389651977
 20
244.8514296457533
 30
0.0
 10
135.9192010861697
 20
245.2628652845224
 30
0.0
 10
135.1764381547109
 20
245.6452769630296
 30
0.0
 10
134.1680558761836
 20
246.0078445119098
 30
0.0
 10
132.7825372605366
 20
246.3697704251162
 30
0.0
 10
131.1045115941451
 20
246.6969491060072
 30
0.0
 10
129.7274082705516
 20
246.924581954182
 30
0.0
 10
128.8613477674516
 20
247.0326516796949
 30
0.0
 10
128.7276233153316
 20
247.049338233096
 30
0.0
  0
SPLINE
  5
2FE84
330
16627
100
AcDbEntity
  8
0
100
AcDbSpline
210
0.0
220
0.0
230
1.0
 70
     8
 71
     3
 72
    15
 73
    11
 74
     0
 42
0.000000001
 43
0.0000000001
 40
0.0
 40
0.0
 40
0.0
 40
0.0
 40
0.1450505922335248
 40
0.3052127392456767
 40
0.4685132359881778
 40
0.6387027598340341
 40
0.7740643679290315
 40
0.8606352454478798
 40
0.9346392054647198
 40
1.0
 40
1.0
 40
1.0
 40
1.0
 10
-107.8138714118031
 20
246.9959920760221
 30
0.0
 10
-108.4065335654923
 20
246.9089417674686
 30
0.0
 10
-109.653602168175
 20
246.7257721387387
 30
0.0
 10
-111.2460810380762
 20
246.4151833814385
 30
0.0
 10
-112.6751575154958
 20
246.0617527685126
 30
0.0
 10
-113.7804604428529
 20
245.6814095788568
 30
0.0
 10
-114.5865873517505
 20
245.279492401477
 30
0.0
 10
-115.1805495347398
 20
244.8180831906202
 30
0.0
 10
-115.6443629461246
 20
244.2921105485429
 30
0.0
 10
-115.8214039292907
 20
243.803041224418
 30
0.0
 10
-115.9044345302609
 20
243.5736721869535
 30
0.0
  0
SPLINE
  5
2FE85
330
16627
100
AcDbEntity
  8
0
100
AcDbSpline
210
0.0
220
0.0
230
1.0
 70
     8
 71
     3
 72
    12
 73
     8
 74
     0
 42
0.000000001
 43
0.0000000001
 40
0.0
 40
0.0
 40
0.0
 40
0.0
 40
0.0161857387524515
 40
0.3170207390332689
 40
0.6180716365113563
 40
0.9195472453079718
 40
1.0
 40
1.0
 40
1.0
 40
1.0
 10
-124.146877734187
 20
169.7012847777432
 30
0.0
 10
-124.1433772221753
 20
169.6037308630029
 30
0.0
 10
-124.0748147102676
 20
167.6929985436827
 30
0.0
 10
-123.6485434003371
 20
163.9699842737782
 30
0.0
 10
-122.8409741401446
 20
158.5343888861161
 30
0.0
 10
-121.972247441794
 20
154.4314944152383
 30
0.0
 10
-121.3966812134858
 20
152.1405336753878
 30
0.0
 10
-121.2754388732937
 20
151.6579455252713
 30
0.0
  0
SPLINE
  5
2FE86
330
16627
100
AcDbEntity
  8
0
100
AcDbSpline
210
0.0
220
0.0
230
1.0
 70
     8
 71
     3
 72
    11
 73
     7
 74
     0
 42
0.000000001
 43
0.0000000001
 40
0.0
 40
0.0
 40
0.0
 40
0.0
 40
0.1647420009028067
 40
0.471004746261563
 40
0.7766665557838187
 40
1.0
 40
1.0
 40
1.0
 40
1.0
 10
142.5923267917605
 20
151.6579455252713
 30
0.0
 10
142.8334325384094
 20
152.6341594961441
 30
0.0
 10
143.5227646480125
 20
155.4251988857895
 30
0.0
 10
144.4059715710391
 20
160.0359721896229
 30
0.0
 10
145.1202085317673
 20
165.0014609756536
 30
0.0
 10
145.3355320528462
 20
168.1499538774033
 30
0.0
 10
145.4264382438632
 20
169.4791978713101
 30
0.0
  0
LINE
  5
2FE87
330
16627
100
AcDbEntity
  8
0
100
AcDbLine
 10
-124.3415614051846
 20
203.1548684950894
 30
0.0
 11
-124.3415614051846
 21
175.614840399844
 31
0.0
  0
LINE
  5
2FE88
330
16627
100
AcDbEntity
  8
0
100
AcDbLine
 10
145.6584493236514
 20
175.614840399844
 30
0.0
 11
145.6584493236514
 21
203.1548684950894
 31
0.0
  0
SPLINE
  5
2FE89
330
16627
100
AcDbEntity
  8
0
100
AcDbSpline
210
0.0
220
0.0
230
1.0
 70
     8
 71
     3
 72
    21
 73
    17
 74
     0
 42
0.000000001
 43
0.0000000001
 40
0.0
 40
0.0
 40
0.0
 40
0.0
 40
0.0400090364678959
 40
0.094975222689383
 40
0.1663329666880979
 40
0.2476450977452679
 40
0.3254724110542567
 40
0.4017416746326841
 40
0.4773615401905477
 40
0.5526647137340987
 40
0.6277955689880465
 40
0.702824304366827
 40
0.7777896810259718
 40
0.8527136633716967
 40
0.9276096667485262
 40
1.0
 40
1.0
 40
1.0
 40
1.0
 10
-116.9162680788067
 20
147.8022998686856
 30
0.0
 10
-116.8654742578801
 20
147.6781306799594
 30
0.0
 10
-116.7448976361993
 20
147.3833723605521
 30
0.0
 10
-116.3408079257096
 20
147.0445890877881
 30
0.0
 10
-115.6859361861752
 20
146.6885126994921
 30
0.0
 10
-114.6686849446123
 20
146.3314773958436
 30
0.0
 10
-113.3197934951786
 20
145.9863780910809
 30
0.0
 10
-111.7108228675897
 20
145.6678873594965
 30
0.0
 10
-109.8456982807838
 20
145.3714969608363
 30
0.0
 10
-107.7336907313511
 20
145.0972303125736
 30
0.0
 10
-105.3905155325083
 20
144.8461567776821
 30
0.0
 10
-102.8351917657455
 20
144.6200036827713
 30
0.0
 10
-100.090197768357
 20
144.42054134728
 30
0.0
 10
-97.17742647210981
 20
144.2498239356164
 30
0.0
 10
-94.16401314138056
 20
144.1082850618068
 30
0.0
 10
-92.07844128477882
 20
144.0398397192866
 30
0.0
 10
-91.05339547825133
 20
144.0061992522305
 30
0.0
  0
SPLINE
  5
2FE8A
330
16627
100
AcDbEntity
  8
0
100
AcDbSpline
210
0.0
220
0.0
230
1.0
 70
     8
 71
     3
 72
    21
 73
    17
 74
     0
 42
0.000000001
 43
0.0000000001
 40
0.0
 40
0.0
 40
0.0
 40
0.0
 40
0.0393452489873821
 40
0.1141945597516852
 40
0.1890746568739542
 40
0.2639738142533716
 40
0.3389002915362455
 40
0.4138663749657619
 40
0.4888917384532976
 40
0.564007781295018
 40
0.6392731685297472
 40
0.7147968182455999
 40
0.7908135492666848
 40
0.8678878945894746
 40
0.9475314573883062
 40
1.0
 40
1.0
 40
1.0
 40
1.0
 10
112.3702833967181
 20
144.0061992522305
 30
0.0
 10
112.9290871620906
 20
144.0238043171657
 30
0.0
 10
114.550943716993
 20
144.0749007695076
 30
0.0
 10
117.1617702323528
 20
144.1835345730897
 30
0.0
 10
120.1379238080517
 20
144.3412595800755
 30
0.0
 10
122.9578049492156
 20
144.5283210911648
 30
0.0
 10
125.5975143781034
 20
144.7425181077187
 30
0.0
 10
128.0334495123206
 20
144.9823397652244
 30
0.0
 10
130.2446069308535
 20
145.2456904020682
 30
0.0
 10
132.2122111021672
 20
145.5307389396503
 30
0.0
 10
133.9207788335516
 20
145.8356661878633
 30
0.0
 10
135.3574884784575
 20
146.1599764676093
 30
0.0
 10
136.5198683112758
 20
146.5026012610169
 30
0.0
 10
137.3979449509024
 20
146.8837111777675
 30
0.0
 10
137.9778561127896
 20
147.2472942635313
 30
0.0
 10
138.16058493952
 20
147.6445350349631
 30
0.0
 10
138.2331559972735
 20
147.8022998686856
 30
0.0
  0
SPLINE
  5
2FE8B
330
16627
100
AcDbEntity
  8
0
100
AcDbSpline
210
0.0
220
0.0
230
1.0
 70
     8
 71
     3
 72
    14
 73
    10
 74
     0
 42
0.000000001
 43
0.0000000001
 40
0.0
 40
0.0
 40
0.0
 40
0.0
 40
0.135394635560417
 40
0.2573897067555803
 40
0.3819156495584737
 40
0.5152740957100567
 40
0.6682628363813626
 40
0.8592919054913046
 40
1.0
 40
1.0
 40
1.0
 40
1.0
 10
-121.2754388732937
 20
151.6579455252713
 30
0.0
 10
-121.1400795994668
 20
151.2512864882183
 30
0.0
 10
-120.8827571165457
 20
150.4782141293062
 30
0.0
 10
-120.2511108659964
 20
149.5554434703472
 30
0.0
 10
-119.5695355667558
 20
148.8380740482853
 30
0.0
 10
-118.8323260381621
 20
148.2714194713144
 30
0.0
 10
-118.0250243559385
 20
147.8019215638296
 30
0.0
 10
-117.2533281115429
 20
147.4456572390691
 30
0.0
 10
-116.708545884303
 20
147.2690588363139
 30
0.0
 10
-116.4774735851315
 20
147.1941536780423
 30
0.0
  0
SPLINE
  5
2FE8C
330
16627
100
AcDbEntity
  8
0
100
AcDbSpline
210
0.0
220
0.0
230
1.0
 70
     8
 71
     3
 72
    14
 73
    10
 74
     0
 42
0.000000001
 43
0.0000000001
 40
0.0
 40
0.0
 40
0.0
 40
0.0
 40
0.1274831163470067
 40
0.3345594191084256
 40
0.4925265377360641
 40
0.6340919486662815
 40
0.7657153040559432
 40
0.8934917631311304
 40
1.0
 40
1.0
 40
1.0
 40
1.0
 10
137.7688060121509
 20
147.1938556548184
 30
0.0
 10
137.9824850702134
 20
147.2587610519067
 30
0.0
 10
138.5432522022856
 20
147.4290950739223
 30
0.0
 10
139.3232757498008
 20
147.7911759371554
 30
0.0
 10
140.185233506414
 20
148.292635432389
 30
0.0
 10
140.9646639911698
 20
148.9039273222906
 30
0.0
 10
141.6835269071635
 20
149.6959934796459
 30
0.0
 10
142.2648951212504
 20
150.6250598316937
 30
0.0
 10
142.4899943588862
 20
151.3351370878981
 30
0.0
 10
142.5923267917605
 20
151.6579455252713
 30
0.0
  0
SPLINE
  5
2FE8D
330
16627
100
AcDbEntity
  8
0
100
AcDbSpline
210
0.0
220
0.0
230
1.0
 70
     8
 71
     3
 72
    27
 73
    23
 74
     0
 42
0.000000001
 43
0.0000000001
 40
0.0
 40
0.0
 40
0.0
 40
0.0
 40
0.0276514736750225
 40
0.0801951660738234
 40
0.1327400353480853
 40
0.1852847531741459
 40
0.2378293355773254
 40
0.290373819030615
 40
0.3429182174683914
 40
0.3954625542507111
 40
0.4480068405530818
 40
0.5005510983014094
 40
0.5530953510311838
 40
0.6056396080198513
 40
0.6581838853754999
 40
0.7107282047613728
 40
0.7632725759266053
 40
0.8158170509799342
 40
0.868361572243203
 40
0.920906269606645
 40
0.973451080220512
 40
1.0
 40
1.0
 40
1.0
 40
1.0
 10
-91.05339547825133
 20
144.0061992522305
 30
0.0
 10
-89.22446984026464
 20
143.9526688584728
 30
0.0
 10
-83.92019575350786
 20
143.7974193094624
 30
0.0
 10
-75.07698486175286
 20
143.5647401406886
 30
0.0
 10
-64.50693071694331
 20
143.3189751957716
 30
0.0
 10
-53.87161936017583
 20
143.1060069186415
 30
0.0
 10
-43.18173965112146
 20
142.9254845799396
 30
0.0
 10
-32.44596147488846
 20
142.7776444807414
 30
0.0
 10
-21.6735393633935
 20
142.662609779748
 30
0.0
 10
-10.87360335961421
 20
142.5803666208476
 30
0.0
 10
-0.0553483166295337
 20
142.5312049564809
 30
0.0
 10
10.77201909947325
 20
142.5150516505227
 30
0.0
 10
21.59928781371855
 20
142.5319093319549
 30
0.0
 10
32.41724657111991
 20
142.5818406079443
 30
0.0
 10
43.2166864215651
 20
142.6645924198046
 30
0.0
 10
53.98842038103248
 20
142.7803991565442
 30
0.0
 10
64.72330910291202
 20
142.9289339172928
 30
0.0
 10
75.41210362525453
 20
143.110197216235
 30
0.0
 10
86.04612889962664
 20
143.3237978809766
 30
0.0
 10
96.61481119092059
 20
143.5702291073567
 30
0.0
 10
105.383210944281
 20
143.8015164276248
 30
0.0
 10
110.6143711233162
 20
143.9547606724363
 30
0.0
 10
112.3702833967181
 20
144.0061992522305
 30
0.0
  0
SPLINE
  5
2FE8E
330
16627
100
AcDbEntity
  8
0
100
AcDbSpline
210
0.0
220
0.0
230
1.0
 70
     8
 71
     3
 72
    18
 73
    14
 74
     0
 42
0.000000001
 43
0.0000000001
 40
0.0
 40
0.0
 40
0.0
 40
0.0
 40
0.0505413366046247
 40
0.1463020016297404
 40
0.2420654291020612
 40
0.3378289792358932
 40
0.4335926098052839
 40
0.5293562997092307
 40
0.6251200195971279
 40
0.7208837634867389
 40
0.8166474794915858
 40
0.9124111669520576
 40
1.0
 40
1.0
 40
1.0
 40
1.0
 10
-42.4212766273049
 20
-195.936524260419
 30
0.0
 10
-40.64701302100002
 20
-196.2124734063736
 30
0.0
 10
-35.51105235078649
 20
-197.0112633694671
 30
0.0
 10
-26.97728797112723
 20
-198.0974168383081
 30
0.0
 10
-16.81597860701367
 20
-199.0928418312987
 30
0.0
 10
-6.627534018349251
 20
-199.7740237408261
 30
0.0
 10
3.577262295351829
 20
-200.1455700933048
 30
0.0
 10
13.78891365896561
 20
-200.2057763839557
 30
0.0
 10
23.99749092924321
 20
-199.9545191084953
 30
0.0
 10
34.19355936743887
 20
-199.393817868754
 30
0.0
 10
44.36615281512422
 20
-198.5170593650155
 30
0.0
 10
54.22136878074525
 20
-197.3850492162137
 30
0.0
 10
60.66161301728425
 20
-196.4047975928342
 30
0.0
 10
63.73816454577172
 20
-195.936524260419
 30
0.0
  0
SPLINE
  5
2FE8F
330
16627
100
AcDbEntity
  8
0
100
AcDbSpline
210
0.0
220
0.0
230
1.0
 70
     8
 71
     3
 72
    20
 73
    16
 74
     0
 42
0.000000001
 43
0.0000000001
 40
0.0
 40
0.0
 40
0.0
 40
0.0
 40
0.0514092444900175
 40
0.1337802229164482
 40
0.2161652878936679
 40
0.2985663049275852
 40
0.3809847169190567
 40
0.4634204326518897
 40
0.5458753448657583
 40
0.628348728141101
 40
0.710839824455653
 40
0.7933476336823775
 40
0.8758701118775871
 40
0.9584054081920649
 40
1.0
 40
1.0
 40
1.0
 40
1.0
 10
135.7215801792117
 20
105.4851478453702
 30
0.0
 10
135.4361897879353
 20
106.1586534255721
 30
0.0
 10
134.6935297752861
 20
107.9112900874961
 30
0.0
 10
133.1706338413678
 20
110.5941214006807
 30
0.0
 10
131.2048346546507
 20
113.5190685343868
 30
0.0
 10
128.9717124323833
 20
116.2543858605304
 30
0.0
 10
126.5043857079508
 20
118.7850622837459
 30
0.0
 10
123.8180171825515
 20
121.0892786378344
 30
0.0
 10
120.9349675119738
 20
123.1493507348123
 30
0.0
 10
117.8775711321905
 20
124.9488838463358
 30
0.0
 10
114.6700286794876
 20
126.4732899539221
 30
0.0
 10
111.3376867759361
 20
127.7118593968289
 30
0.0
 10
107.9065227077772
 20
128.649410229681
 30
0.0
 10
104.9839960086865
 20
129.1907881592733
 30
0.0
 10
103.2108747644961
 20
129.3776418997868
 30
0.0
 10
102.6167208867045
 20
129.4402545805997
 30
0.0
  0
SPLINE
  5
2FE90
330
16627
100
AcDbEntity
  8
0
100
AcDbSpline
210
0.0
220
0.0
230
1.0
 70
     8
 71
     3
 72
    20
 73
    16
 74
     0
 42
0.000000001
 43
0.0000000001
 40
0.0
 40
0.0
 40
0.0
 40
0.0
 40
0.0459508342458617
 40
0.1279302789384253
 40
0.2099270833475824
 40
0.2919180907763381
 40
0.3739009298423558
 40
0.4558722010910752
 40
0.5378298704191107
 40
0.6197730959074083
 40
0.7016988730534535
 40
0.7836056159300057
 40
0.8654949328367518
 40
0.9473642795875328
 40
0.9999999999999998
 40
0.9999999999999998
 40
0.9999999999999998
 40
0.9999999999999998
 10
-81.29983296823775
 20
129.4402545805997
 30
0.0
 10
-81.96061718244164
 20
129.3696700410937
 30
0.0
 10
-83.8002858245527
 20
129.1731578345998
 30
0.0
 10
-86.78650211335479
 20
128.6040280970692
 30
0.0
 10
-90.21393284326768
 20
127.6491508161407
 30
0.0
 10
-93.54159622298903
 20
126.3932126843674
 30
0.0
 10
-96.74311752609355
 20
124.8515566566593
 30
0.0
 10
-99.7931055941699
 20
123.0350801486447
 30
0.0
 10
-102.6673339151093
 20
120.9584946675777
 30
0.0
 10
-105.3432680730075
 20
118.6382315527689
 30
0.0
 10
-107.7987012878002
 20
116.092372018199
 30
0.0
 10
-110.0182936331293
 20
113.3427982041785
 30
0.0
 10
-111.9693478808985
 20
110.4050097741847
 30
0.0
 10
-113.4878109882629
 20
107.6920311157109
 30
0.0
 10
-114.2289107898978
 20
105.9134669499899
 30
0.0
 10
-114.5189245624569
 20
105.2174633856839
 30
0.0
  0
LINE
  5
2FE91
330
16627
100
AcDbEntity
  8
0
100
AcDbLine
 10
138.9079550819369
 20
85.34998358450593
 30
0.0
 11
138.9079550819369
 21
90.14198840819062
 31
0.0
  0
LINE
  5
2FE92
330
16627
100
AcDbEntity
  8
0
100
AcDbLine
 10
-117.5910671634701
 20
90.14198840819062
 30
0.0
 11
-117.5910671634701
 21
85.34998358450593
 31
0.0
  0
SPLINE
  5
2FE93
330
16627
100
AcDbEntity
  8
0
100
AcDbSpline
210
0.0
220
0.0
230
1.0
 70
     8
 71
     3
 72
    13
 73
     9
 74
     0
 42
0.000000001
 43
0.0000000001
 40
0.0
 40
0.0
 40
0.0
 40
0.0
 40
0.1013105398730937
 40
0.2933429874110043
 40
0.4853772661096851
 40
0.6774115548974967
 40
0.8694457903394473
 40
1.0
 40
1.0
 40
1.0
 40
1.0
 10
10.65844395923341
 20
133.6556738730496
 30
0.0
 10
7.548543010478169
 20
133.6469548876403
 30
0.0
 10
-1.456123591851792
 20
133.6217092100332
 30
0.0
 10
-16.35390472562358
 20
133.3416727429712
 30
0.0
 10
-34.02770368598067
 20
132.7153370189435
 30
0.0
 10
-51.68684251934974
 20
131.7690062216525
 30
0.0
 10
-67.44527808554995
 20
130.6636327837359
 30
0.0
 10
-77.3082191929825
 20
129.7927201292468
 30
0.0
 10
-81.29983296823775
 20
129.4402545805997
 30
0.0
  0
SPLINE
  5
2FE94
330
16627
100
AcDbEntity
  8
0
100
AcDbSpline
210
0.0
220
0.0
230
1.0
 70
     8
 71
     3
 72
    13
 73
     9
 74
     0
 42
0.000000001
 43
0.0000000001
 40
0.0
 40
0.0
 40
0.0
 40
0.0
 40
0.1013106062251121
 40
0.293342821251102
 40
0.4853769792907268
 40
0.6774111285895065
 40
0.869445380297137
 40
1.0
 40
1.0
 40
1.0
 40
1.0
 10
102.6167208867045
 20
129.4402545805997
 30
0.0
 10
99.51944002166783
 20
129.716088573964
 30
0.0
 10
90.55132561577556
 20
130.5147603500545
 30
0.0
 10
75.69154395940131
 20
131.5988218549455
 30
0.0
 10
58.03509345987186
 20
132.5920088782759
 30
0.0
 10
40.3630585820174
 20
133.265242992612
 30
0.0
 10
24.56849987357418
 20
133.6063797523702
 30
0.0
 10
14.66605323875774
 20
133.6414718039368
 30
0.0
 10
10.65844395923341
 20
133.6556738730496
 30
0.0
  0
LINE
  5
2FE95
330
16627
100
AcDbEntity
  8
0
100
AcDbLine
 10
-56.40481313896453
 20
255.2483147498197
 30
0.0
 11
-56.34155770969664
 21
255.4556197043485
 31
0.0
  0
LINE
  5
2FE96
330
16627
100
AcDbEntity
  8
0
100
AcDbLine
 10
-56.34155770969664
 20
255.4556197043485
 30
0.0
 11
-56.34155770969664
 21
255.8267182227201
 31
0.0
  0
LINE
  5
2FE97
330
16627
100
AcDbEntity
  8
0
100
AcDbLine
 10
-72.34155288172042
 20
255.8267182227201
 30
0.0
 11
-72.34155288172042
 21
255.4556197043485
 31
0.0
  0
SPLINE
  5
2FE98
330
16627
100
AcDbEntity
  8
0
100
AcDbSpline
210
0.0
220
0.0
230
1.0
 70
     8
 71
     3
 72
    12
 73
     8
 74
     0
 42
0.000000001
 43
0.0000000001
 40
0.0
 40
0.0
 40
0.0
 40
0.0
 40
0.0529692637953364
 40
0.3577575031778275
 40
0.6128820993584294
 40
0.893258715473806
 40
0.9999999999999998
 40
0.9999999999999998
 40
0.9999999999999998
 40
0.9999999999999998
 10
-68.75840475988661
 20
259.3057817336148
 30
0.0
 10
-68.83762468543864
 20
259.2764843016985
 30
0.0
 10
-69.37268069220227
 20
259.078607734401
 30
0.0
 10
-70.20303359534955
 20
258.5141189760498
 30
0.0
 10
-71.2066675486858
 20
257.6174119286252
 30
0.0
 10
-71.88198269098212
 20
256.8167920110854
 30
0.0
 10
-72.15977613954601
 20
256.2588542988842
 30
0.0
 10
-72.23637303543364
 20
256.1050123091764
 30
0.0
  0
SPLINE
  5
2FE99
330
16627
100
AcDbEntity
  8
0
100
AcDbSpline
210
0.0
220
0.0
230
1.0
 70
     8
 71
     3
 72
    12
 73
     8
 74
     0
 42
0.000000001
 43
0.0000000001
 40
0.0
 40
0.0
 40
0.0
 40
0.0
 40
0.0894731526269947
 40
0.3474949934091853
 40
0.5888956472220764
 40
0.8137319665174979
 40
1.0
 40
1.0
 40
1.0
 40
1.0
 10
-56.45175179672515
 20
256.1242646094388
 30
0.0
 10
-56.51582521885939
 20
256.253053669253
 30
0.0
 10
-56.76467297652198
 20
256.7532434153063
 30
0.0
 10
-57.37125378804558
 20
257.4924784688874
 30
0.0
 10
-58.2096249203496
 20
258.2980484541758
 30
0.0
 10
-59.06870143397828
 20
258.9080099040903
 30
0.0
 10
-59.66207967116497
 20
259.1931959535532
 30
0.0
 10
-59.93093451690947
 20
259.3224114295072
 30
0.0
  0
LINE
  5
2FE9A
330
16627
100
AcDbEntity
  8
0
100
AcDbLine
 10
93.65844080018723
 20
255.4556197043485
 30
0.0
 11
93.65844080018723
 21
255.8267182227201
 31
0.0
  0
LINE
  5
2FE9B
330
16627
100
AcDbEntity
  8
0
100
AcDbLine
 10
77.65844562816346
 20
255.8267182227201
 30
0.0
 11
77.65844562816346
 21
255.4556197043485
 31
0.0
  0
SPLINE
  5
2FE9C
330
16627
100
AcDbEntity
  8
0
100
AcDbSpline
210
0.0
220
0.0
230
1.0
 70
     8
 71
     3
 72
    12
 73
     8
 74
     0
 42
0.000000001
 43
0.0000000001
 40
0.0
 40
0.0
 40
0.0
 40
0.0
 40
0.0529692637953364
 40
0.3577575031778275
 40
0.6128820993584294
 40
0.893258715473806
 40
0.9999999999999998
 40
0.9999999999999998
 40
0.9999999999999998
 40
0.9999999999999998
 10
81.24159374999726
 20
259.3057817336148
 30
0.0
 10
81.16237382444523
 20
259.2764843016985
 30
0.0
 10
80.62731781768162
 20
259.078607734401
 30
0.0
 10
79.79696491453433
 20
258.5141189760498
 30
0.0
 10
78.79333096119808
 20
257.6174119286252
 30
0.0
 10
78.11801581890176
 20
256.8167920110854
 30
0.0
 10
77.84022237033787
 20
256.2588542988842
 30
0.0
 10
77.76362547445024
 20
256.1050123091764
 30
0.0
  0
SPLINE
  5
2FE9D
330
16627
100
AcDbEntity
  8
0
100
AcDbSpline
210
0.0
220
0.0
230
1.0
 70
     8
 71
     3
 72
    12
 73
     8
 74
     0
 42
0.000000001
 43
0.0000000001
 40
0.0
 40
0.0
 40
0.0
 40
0.0
 40
0.0894731138804841
 40
0.3474939051870453
 40
0.5888944544609465
 40
0.8137306763905932
 40
1.0
 40
1.0
 40
1.0
 40
1.0
 10
93.54824671315872
 20
256.1242646094388
 30
0.0
 10
93.48417319729561
 20
256.2530535960932
 30
0.0
 10
93.23532574714045
 20
256.7532417082066
 30
0.0
 10
92.62875297126084
 20
257.4924810062503
 30
0.0
 10
91.79038044915797
 20
258.2980478362578
 30
0.0
 10
90.9313032813552
 20
258.9080121426441
 30
0.0
 10
90.33792151834132
 20
259.1931962936605
 30
0.0
 10
90.0690639929744
 20
259.3224114295072
 30
0.0
  0
LINE
  5
2FE9E
330
16627
100
AcDbEntity
  8
0
100
AcDbLine
 10
-72.84155389499938
 20
254.9583381529874
 30
0.0
 11
-72.84155389499938
 21
254.7584837790555
 31
0.0
  0
LINE
  5
2FE9F
330
16627
100
AcDbEntity
  8
0
100
AcDbLine
 10
-55.84155669641768
 20
254.7755307074613
 30
0.0
 11
-55.84155669641768
 21
254.9583381529874
 31
0.0
  0
LINE
  5
2FEA0
330
16627
100
AcDbEntity
  8
0
100
AcDbLine
 10
77.1584446148845
 20
254.9583381529874
 30
0.0
 11
77.1584446148845
 21
254.7755307074613
 31
0.0
  0
LINE
  5
2FEA1
330
16627
100
AcDbEntity
  8
0
100
AcDbLine
 10
94.15844181346619
 20
254.7584837790555
 30
0.0
 11
94.15844181346619
 21
254.9583381529874
 31
0.0
  0
LINE
  5
2FEA2
330
16627
100
AcDbEntity
  8
0
100
AcDbLine
 10
-235.5075617713956
 20
407.2678154822415
 30
0.0
 11
-245.9491481466321
 21
407.1767395850247
 31
0.0
  0
LINE
  5
2FEA3
330
16627
100
AcDbEntity
  8
0
100
AcDbLine
 10
-245.9492077512769
 20
307.3770469542569
 30
0.0
 11
-235.5075617713956
 21
307.2859710570401
 31
0.0
  0
SPLINE
  5
2FEA4
330
16627
100
AcDbEntity
  8
0
100
AcDbSpline
210
0.0
220
0.0
230
1.0
 70
     8
 71
     3
 72
    10
 73
     6
 74
     0
 42
0.000000001
 43
0.0000000001
 40
0.0
 40
0.0
 40
0.0
 40
0.0
 40
0.409198308909971
 40
0.7708874924311715
 40
1.0
 40
1.0
 40
1.0
 40
1.0
 10
-245.961367098811
 20
407.171077143771
 30
0.0
 10
-246.0618469752662
 20
407.1599494323118
 30
0.0
 10
-246.2511407194288
 20
407.138985969369
 30
0.0
 10
-246.475888406334
 20
407.0245498218964
 30
0.0
 10
-246.5815329385077
 20
406.9247929762777
 30
0.0
 10
-246.6225018186597
 20
406.8861073370999
 30
0.0
  0
SPLINE
  5
2FEA5
330
16627
100
AcDbEntity
  8
0
100
AcDbSpline
210
0.0
220
0.0
230
1.0
 70
     8
 71
     3
 72
    10
 73
     6
 74
     0
 42
0.000000001
 43
0.0000000001
 40
0.0
 40
0.0
 40
0.0
 40
0.0
 40
0.1629780254269863
 40
0.6675875992882685
 40
0.9999999999999998
 40
0.9999999999999998
 40
0.9999999999999998
 40
0.9999999999999998
 10
-246.6196705980328
 20
307.6700633879728
 30
0.0
 10
-246.5920508033414
 20
307.6407516593708
 30
0.0
 10
-246.4789151067671
 20
307.5206854941489
 30
0.0
 10
-246.2445042852669
 20
307.4042141783966
 30
0.0
 10
-246.0372201826867
 20
307.3955627369423
 30
0.0
 10
-245.9548999948529
 20
307.3921269293851
 30
0.0
  0
SPLINE
  5
2FEA6
330
16627
100
AcDbEntity
  8
0
100
AcDbSpline
210
0.0
220
0.0
230
1.0
 70
     8
 71
     3
 72
     9
 73
     5
 74
     0
 42
0.000000001
 43
0.0000000001
 40
0.0
 40
0.0
 40
0.0
 40
0.0
 40
0.4532482071873388
 40
0.9999999999999998
 40
0.9999999999999998
 40
0.9999999999999998
 40
0.9999999999999998
 10
-246.7534234209088
 20
406.7432350035733
 30
0.0
 10
-247.7653572465278
 20
404.9563843414935
 30
0.0
 10
-249.9979834534752
 20
401.0140617161733
 30
0.0
 10
-252.1781531497
 20
397.0424751297278
 30
0.0
 10
-253.3701648397473
 20
394.8710030432767
 30
0.0
  0
SPLINE
  5
2FEA7
330
16627
100
AcDbEntity
  8
0
100
AcDbSpline
210
0.0
220
0.0
230
1.0
 70
     8
 71
     3
 72
     9
 73
     5
 74
     0
 42
0.000000001
 43
0.0000000001
 40
0.0
 40
0.0
 40
0.0
 40
0.0
 40
0.4989679821033938
 40
1.0
 40
1.0
 40
1.0
 40
1.0
 10
-253.3702542467145
 20
319.6826046820707
 30
0.0
 10
-252.282825854385
 20
317.7007497991281
 30
0.0
 10
-250.1034708028929
 20
313.7288418731105
 30
0.0
 10
-247.8717009704888
 20
309.7861468120418
 30
0.0
 10
-246.753512827876
 20
307.8107303496427
 30
0.0
  0
LINE
  5
2FEA8
330
16627
100
AcDbEntity
  8
0
100
AcDbLine
 10
-234.6774925870923
 20
406.2768882628506
 30
0.0
 11
-235.6957783384351
 21
406.2768882628506
 31
0.0
  0
LINE
  5
2FEA9
330
16627
100
AcDbEntity
  8
0
100
AcDbLine
 10
-235.6957783384351
 20
308.276898276431
 30
0.0
 11
-234.6774925870923
 21
308.276898276431
 31
0.0
  0
ARC
  5
2FEAA
330
16627
100
AcDbEntity
  8
0
100
AcDbCircle
 10
-252.4535267926949
 20
394.4631464749682
 30
0.0
 40
1.000000000000038
100
AcDbArc
 50
154.6446020216407
 51
174.1913664969531
  0
SPLINE
  5
2FEAB
330
16627
100
AcDbEntity
  8
0
100
AcDbSpline
210
0.0
220
0.0
230
1.0
 70
     8
 71
     3
 72
    24
 73
    20
 74
     0
 42
0.000000001
 43
0.0000000001
 40
0.0
 40
0.0
 40
0.0
 40
0.0
 40
0.0995444525479897
 40
0.1927068325290559
 40
0.2711007818226097
 40
0.3348129184426777
 40
0.3752581827987133
 40
0.4063713651657889
 40
0.4281660190398687
 40
0.4406494383355415
 40
0.4525975677573366
 40
0.4786455678253587
 40
0.5170401252860272
 40
0.5677869222979887
 40
0.630910489129516
 40
0.7064567238768618
 40
0.794504571410978
 40
0.8951444611710524
 40
1.0
 40
1.0
 40
1.0
 40
1.0
 10
-253.4492900056867
 20
394.526488196475
 30
0.0
 10
-253.7568253061981
 20
392.065229078783
 30
0.0
 10
-254.3521789611223
 20
387.3005090319702
 30
0.0
 10
-255.0425752359479
 20
380.5802686607012
 30
0.0
 10
-255.5254738136209
 20
374.7376536325746
 30
0.0
 10
-255.8086693472833
 20
370.1975681085814
 30
0.0
 10
-255.9655795795661
 20
366.8306136879537
 30
0.0
 10
-256.0478350657286
 20
364.5059569391005
 30
0.0
 10
-256.0916901561177
 20
362.8771846873888
 30
0.0
 10
-256.1163521773124
 20
361.7256305536421
 30
0.0
 10
-256.1382504793765
 20
360.4680228257594
 30
0.0
 10
-256.1596931180829
 20
358.5646986691781
 30
0.0
 10
-256.1617853680909
 20
355.6944585121555
 30
0.0
 10
-256.1092002917831
 20
351.9006730154424
 30
0.0
 10
-255.9568701270764
 20
347.1831358026675
 30
0.0
 10
-255.6525849445206
 20
341.5417077056145
 30
0.0
 10
-255.1405462711155
 20
334.9771776473672
 30
0.0
 10
-254.4069258796371
 20
327.6990605497986
 30
0.0
 10
-253.772522243511
 20
322.6180653822293
 30
0.0
 10
-253.4488131685284
 20
320.0254505988187
 30
0.0
  0
LINE
  5
2FEAC
330
16627
100
AcDbEntity
  8
0
100
AcDbLine
 10
256.8244496898624
 20
307.2859710570401
 30
0.0
 11
267.2660360650989
 21
307.3770469542569
 31
0.0
  0
LINE
  5
2FEAD
330
16627
100
AcDbEntity
  8
0
100
AcDbLine
 10
267.2660956697437
 20
407.1766799803799
 30
0.0
 11
256.8244496898624
 21
407.2678154822415
 31
0.0
  0
SPLINE
  5
2FEAE
330
16627
100
AcDbEntity
  8
0
100
AcDbSpline
210
0.0
220
0.0
230
1.0
 70
     8
 71
     3
 72
    10
 73
     6
 74
     0
 42
0.000000001
 43
0.0000000001
 40
0.0
 40
0.0
 40
0.0
 40
0.0
 40
0.409198308909971
 40
0.7708874924311715
 40
1.0
 40
1.0
 40
1.0
 40
1.0
 10
267.2782550172779
 20
307.3827093955106
 30
0.0
 10
267.3787348937294
 20
307.3938371069735
 30
0.0
 10
267.5680286378956
 20
307.4148005699126
 30
0.0
 10
267.7927763248008
 20
307.5292367173852
 30
0.0
 10
267.8984208569709
 20
307.6289935630039
 30
0.0
 10
267.9393897371265
 20
307.6676792021817
 30
0.0
  0
SPLINE
  5
2FEAF
330
16627
100
AcDbEntity
  8
0
100
AcDbSpline
210
0.0
220
0.0
230
1.0
 70
     8
 71
     3
 72
    10
 73
     6
 74
     0
 42
0.000000001
 43
0.0000000001
 40
0.0
 40
0.0
 40
0.0
 40
0.0
 40
0.1629780254269863
 40
0.6675875992882685
 40
0.9999999999999998
 40
0.9999999999999998
 40
0.9999999999999998
 40
0.9999999999999998
 10
267.9365585164997
 20
406.8837231513088
 30
0.0
 10
267.9089387218046
 20
406.9130348799108
 30
0.0
 10
267.7958030252303
 20
407.0331010451327
 30
0.0
 10
267.5613922037337
 20
407.149572360885
 30
0.0
 10
267.3541081011535
 20
407.1582238023429
 30
0.0
 10
267.2717879133197
 20
407.1616596098965
 30
0.0
  0
SPLINE
  5
2FEB0
330
16627
100
AcDbEntity
  8
0
100
AcDbSpline
210
0.0
220
0.0
230
1.0
 70
     8
 71
     3
 72
     9
 73
     5
 74
     0
 42
0.000000001
 43
0.0000000001
 40
0.0
 40
0.0
 40
0.0
 40
0.0
 40
0.4532482071873388
 40
0.9999999999999998
 40
0.9999999999999998
 40
0.9999999999999998
 40
0.9999999999999998
 10
268.0703113393756
 20
307.8105515357083
 30
0.0
 10
269.0822451649911
 20
309.5974021977881
 30
0.0
 10
271.3148713719383
 20
313.5397248231084
 30
0.0
 10
273.4950410681631
 20
317.5113114095538
 30
0.0
 10
274.6870527582141
 20
319.682783496005
 30
0.0
  0
SPLINE
  5
2FEB1
330
16627
100
AcDbEntity
  8
0
100
AcDbSpline
210
0.0
220
0.0
230
1.0
 70
     8
 71
     3
 72
     9
 73
     5
 74
     0
 42
0.000000001
 43
0.0000000001
 40
0.0
 40
0.0
 40
0.0
 40
0.0
 40
0.4989679821033938
 40
1.0
 40
1.0
 40
1.0
 40
1.0
 10
274.6871421651813
 20
394.871181857211
 30
0.0
 10
273.5997137728482
 20
396.8530367401572
 30
0.0
 10
271.420358721356
 20
400.8249446661712
 30
0.0
 10
269.1885888889519
 20
404.7676397272398
 30
0.0
 10
268.0704007463428
 20
406.7430561896389
 30
0.0
  0
LINE
  5
2FEB2
330
16627
100
AcDbEntity
  8
0
100
AcDbLine
 10
255.9943805055591
 20
308.276898276431
 30
0.0
 11
257.0126662569019
 21
308.276898276431
 31
0.0
  0
LINE
  5
2FEB3
330
16627
100
AcDbEntity
  8
0
100
AcDbLine
 10
257.0126662569019
 20
406.2768882628506
 30
0.0
 11
255.9943805055591
 21
406.2768882628506
 31
0.0
  0
ARC
  5
2FEB4
330
16627
100
AcDbEntity
  8
0
100
AcDbCircle
 10
273.7704147111581
 20
320.0906361542502
 30
0.0
 40
1.000000000000098
100
AcDbArc
 50
334.6446020216407
 51
354.1913664969531
  0
SPLINE
  5
2FEB5
330
16627
100
AcDbEntity
  8
0
100
AcDbSpline
210
0.0
220
0.0
230
1.0
 70
     8
 71
     3
 72
    24
 73
    20
 74
     0
 42
0.000000001
 43
0.0000000001
 40
0.0
 40
0.0
 40
0.0
 40
0.0
 40
0.0995444524714748
 40
0.1927060391727026
 40
0.2711007831179621
 40
0.3348129196890577
 40
0.3752581840140051
 40
0.4063713663571655
 40
0.4281660202144927
 40
0.4406494395005702
 40
0.4525975689131814
 40
0.4786455689611816
 40
0.5170401263923381
 40
0.5677869233652931
 40
0.6309096931829095
 40
0.7064567241024941
 40
0.7945045715689324
 40
0.8951444612516498
 40
1.0
 40
1.0
 40
1.0
 40
1.0
 10
274.7661779241535
 20
320.0272983428067
 30
0.0
 10
275.0737122926075
 20
322.4885575515427
 30
0.0
 10
275.6690616926317
 20
327.2532581623409
 30
0.0
 10
276.3594707805205
 20
333.9734973080294
 30
0.0
 10
276.8423585930977
 20
339.8161133055173
 30
0.0
 10
277.1255575489777
 20
344.3562184064203
 30
0.0
 10
277.2824674519506
 20
347.7231728552752
 30
0.0
 10
277.3647229917951
 20
350.0478295995445
 30
0.0
 10
277.408578073464
 20
351.6766018519656
 30
0.0
 10
277.4332400963686
 20
352.8281559856432
 30
0.0
 10
277.4551383954713
 20
354.0857637134495
 30
0.0
 10
277.4765810610625
 20
355.9890878709948
 30
0.0
 10
277.4786731309287
 20
358.8593280214436
 30
0.0
 10
277.4260893467836
 20
362.6530936983754
 30
0.0
 10
277.273754534508
 20
367.3706307140919
 30
0.0
 10
276.9694758985133
 20
373.0120591257828
 30
0.0
 10
276.4574336990881
 20
379.5766088678092
 30
0.0
 10
275.7238139337787
 20
386.8547259961515
 30
0.0
 10
275.0894102078127
 20
391.9357211593078
 30
0.0
 10
274.7657010869953
 20
394.528335940463
 30
0.0
  0
LINE
  5
2FEB6
330
16627
100
AcDbEntity
  8
0
100
AcDbLine
 10
-44.14658522439276
 20
288.3747285719937
 30
0.0
 11
-44.22869434786116
 21
287.394649397952
 31
0.0
  0
LINE
  5
2FEB7
330
16627
100
AcDbEntity
  8
0
100
AcDbLine
 10
65.54562324452127
 20
287.3941725607938
 30
0.0
 11
65.46350294518197
 21
288.3743709441251
 31
0.0
  0
ARC
  5
2FEB8
330
16627
100
AcDbEntity
  8
0
100
AcDbCircle
 10
10.65844395923341
 20
-406.9231086853915
 30
0.0
 40
64.93759160674898
100
AcDbArc
 50
147.8833048729653
 51
32.11665451579662
  0
LINE
  5
2FEB9
330
16627
100
AcDbEntity
  8
0
100
AcDbLine
 10
-79.34155961704528
 20
253.4666127081937
 30
0.0
 11
-79.34155961704528
 21
253.2653278227872
 31
0.0
  0
LINE
  5
2FEBA
330
16627
100
AcDbEntity
  8
0
100
AcDbLine
 10
100.6584475355121
 20
253.2653278227872
 30
0.0
 11
100.6584475355121
 21
253.4666127081937
 31
0.0
  0
LINE
  5
2FEBB
330
16627
100
AcDbEntity
  8
0
100
AcDbLine
 10
-44.34155574274337
 20
284.8086422797269
 30
0.0
 11
-44.34155574274337
 21
254.2463606711454
 31
0.0
  0
LINE
  5
2FEBC
330
16627
100
AcDbEntity
  8
0
100
AcDbLine
 10
65.65844366121019
 20
254.2463606711454
 30
0.0
 11
65.65844366121019
 21
284.8086422797269
 31
0.0
  0
LINE
  5
2FEBD
330
16627
100
AcDbEntity
  8
0
100
AcDbLine
 10
-44.34155574274337
 20
349.1647309180326
 30
0.0
 11
-44.34155574274337
 21
285.9070962782926
 31
0.0
  0
LINE
  5
2FEBE
330
16627
100
AcDbEntity
  8
0
100
AcDbLine
 10
65.65844366121019
 20
285.4846185561246
 30
0.0
 11
65.65844366121019
 21
349.1647309180326
 31
0.0
  0
LINE
  5
2FEBF
330
16627
100
AcDbEntity
  8
0
100
AcDbLine
 10
65.65844366121019
 20
-406.9231086853915
 30
0.0
 11
65.65844366121019
 21
-195.5509269122058
 31
0.0
  0
LINE
  5
2FEC0
330
16627
100
AcDbEntity
  8
0
100
AcDbLine
 10
-44.34155574274337
 20
-195.5509269122058
 30
0.0
 11
-44.34155574274337
 21
-406.9231086853915
 31
0.0
  0
LINE
  5
2FEC1
330
16627
100
AcDbEntity
  8
0
100
AcDbLine
 10
65.65844366121019
 20
132.1116155501431
 30
0.0
 11
65.65844366121019
 21
142.9503625746793
 31
0.0
  0
LINE
  5
2FEC2
330
16627
100
AcDbEntity
  8
0
100
AcDbLine
 10
-44.34155574274337
 20
142.9506605979031
 30
0.0
 11
-44.34155574274337
 21
132.1119731780118
 31
0.0
  0
LINE
  5
2FEC3
330
16627
100
AcDbEntity
  8
0
100
AcDbLine
 10
255.8006952123615
 20
407.2768753882473
 30
0.0
 11
-234.4838072938947
 21
407.2768753882473
 31
0.0
  0
LINE
  5
2FEC4
330
16627
100
AcDbEntity
  8
0
100
AcDbLine
 10
-234.4836284799603
 20
307.2769111510343
 30
0.0
 11
-44.34155574274337
 21
307.2769111510343
 31
0.0
  0
LINE
  5
2FEC5
330
16627
100
AcDbEntity
  8
0
100
AcDbLine
 10
65.65844366121019
 20
307.2769111510343
 30
0.0
 11
255.8005163984272
 21
307.2769111510343
 31
0.0
  0
LWPOLYLINE
  5
2FEC6
330
16627
100
AcDbEntity
  8
0
100
AcDbPolyline
 90
       19
 70
   128
 43
0.0
 10
-94.77096697521483
 20
250.0473326560086
 10
-83.34236493540084
 20
250.3881520148343
 10
-71.81327691507613
 20
250.6897515173978
 10
-60.19602617454802
 20
250.9517735358304
 10
-48.50304028225218
 20
251.1739796515531
 10
-36.74681386184966
 20
251.3560718413419
 10
-24.93991231751716
 20
251.4979308959073
 10
-13.09495507014071
 20
251.599378001315
 10
-1.224606244089954
 20
251.6602939482755
 10
10.65844395922977
 20
251.6806191321439
 10
22.54149416255677
 20
251.6602939482755
 10
34.41184298860753
 20
251.599378001315
 10
46.25680023598397
 20
251.4979308959073
 10
58.06370178031648
 20
251.3560718413419
 10
69.81992820071901
 20
251.1739796515531
 10
81.51291409301483
 20
250.9517735358304
 10
93.13016483354294
 20
250.6897515173978
 10
104.6592528538676
 20
250.3881520148343
 10
116.0878548936816
 20
250.0473326560086
  0
LWPOLYLINE
  5
2FEC7
330
16627
100
AcDbEntity
  8
0
100
AcDbPolyline
 90
       19
 70
   128
 43
0.0
 10
116.0878548936816
 20
251.041836154086
 10
104.6592528538676
 20
251.3826555129117
 10
93.13016483354294
 20
251.6842550154752
 10
81.51291409301483
 20
251.9462770339078
 10
69.81992820071901
 20
252.1684831496305
 10
58.06370178031648
 20
252.3506349440641
 10
46.25680023598397
 20
252.4924939986295
 10
34.41184298860753
 20
252.5938814993924
 10
22.54149416255677
 20
252.6547974463529
 10
10.65844395922977
 20
252.6751226302213
 10
-1.224606244089954
 20
252.6547974463529
 10
-13.09495507014071
 20
252.5938814993924
 10
-24.93991231751716
 20
252.4924939986295
 10
-36.74681386184966
 20
252.3506349440641
 10
-48.50304028225218
 20
252.1684831496305
 10
-60.19602617454802
 20
251.9462770339078
 10
-71.81327691507613
 20
251.6842550154752
 10
-83.34236493540084
 20
251.3826555129117
 10
-94.77096697521483
 20
251.041836154086
  0
LINE
  5
2FEC8
330
16627
100
AcDbEntity
  8
0
100
AcDbLine
 10
116.0878548936816
 20
250.0473326560086
 30
0.0
 11
116.0878548936816
 21
251.041836154086
 31
0.0
  0
LINE
  5
2FEC9
330
16627
100
AcDbEntity
  8
0
100
AcDbLine
 10
-94.77096697521483
 20
250.0473326560086
 30
0.0
 11
-94.77096697521483
 21
251.041836154086
 31
0.0
  0
LWPOLYLINE
  5
2FECA
330
16627
100
AcDbEntity
  8
0
100
AcDbPolyline
 90
        9
 70
   128
 43
0.0
 10
-94.77096697521483
 20
251.041836154086
 10
-94.75982090664183
 20
251.4260476943082
 10
-94.72680738401686
 20
251.78778828345
 10
-94.673200456622
 20
252.1131700392789
 10
-94.60106393528258
 20
252.3896759863919
 10
-94.51316198540007
 20
252.6067561026639
 10
-94.41286971998488
 20
252.7559465285367
 10
-94.30405399036681
 20
252.8316444274015
 10
-94.19088712168013
 20
252.8308099623746
  0
LWPOLYLINE
  5
2FECB
330
16627
100
AcDbEntity
  8
0
100
AcDbPolyline
 90
       19
 70
   128
 43
0.0
 10
-94.19088712168013
 20
252.8308099623746
 10
-82.82516053152358
 20
253.1697815772123
 10
-71.35950675440108
 20
253.469712149722
 10
-59.80618199539458
 20
253.73030365668
 10
-48.17753186655318
 20
253.9512580748624
 10
-36.48598766160285
 20
254.1323965903348
 10
-24.74404772949493
 20
254.2734807845182
 10
-12.96426071059977
 20
254.3743318434781
 10
-1.159225536706799
 20
254.4348901625699
 10
10.65844395922977
 20
254.4550961371488
 10
22.47611345517362
 20
254.4348901625699
 10
34.28114862906659
 20
254.3743318434781
 10
46.06093564796174
 20
254.2734807845182
 10
57.80287558006967
 20
254.1323965903348
 10
69.49441978502
 20
253.9512580748624
 10
81.12306991386139
 20
253.73030365668
 10
92.67639467286789
 20
253.469712149722
 10
104.1420484499904
 20
253.1697815772123
 10
115.5077750401469
 20
252.8308099623746
  0
LWPOLYLINE
  5
2FECC
330
16627
100
AcDbEntity
  8
0
100
AcDbPolyline
 90
        9
 70
   128
 43
0.0
 10
116.0878548936816
 20
251.041836154086
 10
116.0767088251086
 20
251.4260476943082
 10
116.0436953024837
 20
251.78778828345
 10
115.9900883750888
 20
252.1131700392789
 10
115.9179518537494
 20
252.3896759863919
 10
115.8300499038669
 20
252.6067561026639
 10
115.7297576384517
 20
252.7559465285367
 10
115.6209419088336
 20
252.8316444274015
 10
115.5077750401469
 20
252.8308099623746
  0
LWPOLYLINE
  5
2FECD
330
16627
100
AcDbEntity
  8
0
100
AcDbPolyline
 90
       11
 70
   128
 43
0.0
 10
-113.5750626606968
 20
247.4718755599088
 10
-113.2785966081646
 20
247.8163308020658
 10
-112.5738685412434
 20
248.1542295332975
 10
-111.4718680663136
 20
248.4802669402188
 10
-109.9897613210705
 20
248.7894958373136
 10
-108.1506600065258
 20
249.0769094344205
 10
-105.9832190556553
 20
249.3382161971158
 10
-103.521226851466
 20
249.5691841956205
 10
-100.8030538840321
 20
249.7663563605375
 10
-97.87106415462767
 20
249.9265736456937
 10
-94.77096697521483
 20
250.0473326560086
  0
LWPOLYLINE
  5
2FECE
330
16627
100
AcDbEntity
  8
0
100
AcDbPolyline
 90
       11
 70
   128
 43
0.0
 10
116.0878548936816
 20
250.0473326560086
 10
119.1879520730945
 20
249.9265736456937
 10
122.1199418024989
 20
249.7663563605375
 10
124.8381147699328
 20
249.5691841956205
 10
127.3001069741221
 20
249.3382161971158
 10
129.4675479249927
 20
249.0769094344205
 10
131.3066492395373
 20
248.7894958373136
 10
132.7887559847804
 20
248.4802669402188
 10
133.8907564597102
 20
248.1542295332975
 10
134.5954845266315
 20
247.8163308020658
 10
134.8919505791636
 20
247.4718755599088
  0
LWPOLYLINE
  5
2FECF
330
16627
100
AcDbEntity
  8
0
100
AcDbPolyline
 90
       11
 70
   128
 43
0.0
 10
-94.77096697521483
 20
251.041836154086
 10
-97.87106415462767
 20
250.9210771437711
 10
-100.8030538840321
 20
250.7608598586148
 10
-103.521226851466
 20
250.5637472983426
 10
-105.9832190556553
 20
250.3327196951932
 10
-108.1506600065258
 20
250.0714725371427
 10
-109.9897613210705
 20
249.783999335391
 10
-111.4718680663136
 20
249.474830042941
 10
-112.5738685412434
 20
249.1487330313749
 10
-113.2785966081646
 20
248.8108343001432
 10
-113.5750626606968
 20
248.466438662631
  0
LINE
  5
2FED0
330
16627
100
AcDbEntity
  8
0
100
AcDbLine
 10
-113.5750626606968
 20
247.4718755599088
 30
0.0
 11
-113.5750626606968
 21
248.466438662631
 31
0.0
  0
LWPOLYLINE
  5
2FED1
330
16627
100
AcDbEntity
  8
0
100
AcDbPolyline
 90
       11
 70
   128
 43
0.0
 10
134.8919505791636
 20
248.466438662631
 10
134.5954845266315
 20
248.8108343001432
 10
133.8907564597102
 20
249.1487330313749
 10
132.7887559847804
 20
249.474830042941
 10
131.3066492395373
 20
249.783999335391
 10
129.4675479249927
 20
250.0714725371427
 10
127.3001069741221
 20
250.3327196951932
 10
124.8381147699328
 20
250.5637472983426
 10
122.1199418024989
 20
250.7608598586148
 10
119.1879520730945
 20
250.9210771437711
 10
116.0878548936816
 20
251.041836154086
  0
LINE
  5
2FED2
330
16627
100
AcDbEntity
  8
0
100
AcDbLine
 10
134.8919505791636
 20
247.4718755599088
 30
0.0
 11
134.8919505791636
 21
248.466438662631
 31
0.0
  0
ARC
  5
2FED3
330
16627
100
AcDbEntity
  8
0
100
AcDbCircle
 10
113.5205956364116
 20
141.9935079403103
 30
0.0
 40
110.855114458077
100
AcDbArc
 50
81.88286762917936
 51
88.97286568887384
  0
LWPOLYLINE
  5
2FED4
330
16627
100
AcDbEntity
  8
0
100
AcDbPolyline
 90
       19
 70
   128
 43
0.0
 10
-92.4090882225064
 20
202.2537058707303
 10
-81.20570233297621
 20
202.5680607672757
 10
-69.91488388014113
 20
202.8461164351529
 10
-58.54736915064131
 20
203.0876344557828
 10
-47.11399501395499
 20
203.292436015231
 10
-35.62562814188277
 20
203.4602230902737
 10
-24.09321343732154
 20
203.5908764716214
 10
-12.52771815490996
 20
203.6843365546292
 10
-0.9401570467380224
 20
203.7404245253628
 10
10.65844395922977
 20
203.7591403838223
 10
22.25704496520484
 20
203.7404245253628
 10
33.84460607337678
 20
203.6843365546292
 10
45.41010135578836
 20
203.5908764716214
 10
56.94251606034959
 20
203.4602230902737
 10
68.43088293242181
 20
203.292436015231
 10
79.86425706910813
 20
203.0876344557828
 10
91.23177179860794
 20
202.8461164351529
 10
102.522590251443
 20
202.5680607672757
 10
113.7259761409732
 20
202.2537058707303
  0
ARC
  5
2FED5
330
16627
100
AcDbEntity
  8
0
100
AcDbCircle
 10
105.1883004105802
 20
201.3631660436504
 30
0.0
 40
8.583994877731516
100
AcDbArc
 50
328.3078837959118
 51
5.954820355672076
  0
LWPOLYLINE
  5
2FED6
330
16627
100
AcDbEntity
  8
0
100
AcDbPolyline
 90
       19
 70
   128
 43
0.0
 10
-91.17539128494536
 20
196.8535250540799
 10
-80.10610839557921
 20
197.1641248580045
 10
-68.95043602419173
 20
197.4388426657742
 10
-57.71899869871413
 20
197.6774996634549
 10
-46.4224731011418
 20
197.8797978278226
 10
-35.07162159514701
 20
198.0456179495877
 10
-23.67724379730498
 20
198.1747216101712
 10
-12.2501858903197
 20
198.2670492049283
 10
-0.801324790540093
 20
198.3224219199246
 10
10.65844395922977
 20
198.340899359805
 10
22.11821270900691
 20
198.3224219199246
 10
33.56707380878652
 20
198.2670492049283
 10
44.9941317157718
 20
198.1747216101712
 10
56.38850951361383
 20
198.0456179495877
 10
67.73936101960862
 20
197.8797978278226
 10
79.03588661718095
 20
197.6774996634549
 10
90.26732394265854
 20
197.4388426657742
 10
101.422996314046
 20
197.1641248580045
 10
112.4922792034122
 20
196.8535250540799
  0
ARC
  5
2FED7
330
16627
100
AcDbEntity
  8
0
100
AcDbCircle
 10
-83.87141249211708
 20
201.3631660436504
 30
0.0
 40
8.583994877731564
100
AcDbArc
 50
174.0451796443279
 51
211.6921162040882
  0
LINE
  5
2FED8
330
16627
100
AcDbEntity
  8
0
100
AcDbLine
 10
-92.4090882225064
 20
202.2537058707303
 30
0.0
 11
-92.4090882225064
 21
229.7937339659757
 31
0.0
  0
LWPOLYLINE
  5
2FED9
330
16627
100
AcDbEntity
  8
0
100
AcDbPolyline
 90
       19
 70
   128
 43
0.0
 10
113.7259761409732
 20
229.7937339659757
 10
102.522590251443
 20
230.1080292578763
 10
91.23177179860794
 20
230.3861445303983
 10
79.86425706910813
 20
230.6276625510282
 10
68.43088293242181
 20
230.8324045058316
 10
56.94251606034959
 20
231.0002511855191
 10
45.41010135578836
 20
231.1309045668668
 10
33.84460607337678
 20
231.2243050452298
 10
22.25704496520484
 20
231.2804526206083
 10
10.65844395922977
 20
231.2991088744229
 10
-0.9401570467380224
 20
231.2804526206083
 10
-12.52771815490996
 20
231.2243050452298
 10
-24.09321343732154
 20
231.1309045668668
 10
-35.62562814188277
 20
231.0002511855191
 10
-47.11399501395499
 20
230.8324045058316
 10
-58.54736915064131
 20
230.6276625510282
 10
-69.91488388014113
 20
230.3861445303983
 10
-81.20570233297621
 20
230.1080292578763
 10
-92.4090882225064
 20
229.7937339659757
  0
LINE
  5
2FEDA
330
16627
100
AcDbEntity
  8
0
100
AcDbLine
 10
113.7259761409732
 20
202.2537058707303
 30
0.0
 11
113.7259761409732
 21
229.7937339659757
 31
0.0
  0
LWPOLYLINE
  5
2FEDB
330
16627
100
AcDbEntity
  8
0
100
AcDbPolyline
 90
       19
 70
   128
 43
0.0
 10
-92.3836370391873
 20
230.3833431120938
 10
-81.18302276563918
 20
230.6975787993497
 10
-69.89498337936675
 20
230.9756344672269
 10
-58.53028496933257
 20
231.217092883212
 10
-47.09973087740218
 20
231.4217752333707
 10
-35.61420267653739
 20
231.5895623084134
 10
-24.08463036847388
 20
231.7202156897611
 10
-12.52199424636637
 20
231.8136161681241
 10
-0.9372932298210798
 20
231.8697041388578
 10
10.65844395922977
 20
231.8883603926725
 10
22.2541811482879
 20
231.8697041388578
 10
33.83888216483319
 20
231.8136161681241
 10
45.4015182869407
 20
231.7202156897611
 10
56.93109059500421
 20
231.5895623084134
 10
68.416618795869
 20
231.4217752333707
 10
79.84717288779939
 20
231.217092883212
 10
91.21187129783356
 20
230.9756344672269
 10
102.499910684106
 20
230.6975787993497
 10
113.7005249576541
 20
230.3833431120938
  0
ARC
  5
2FEDC
330
16627
100
AcDbEntity
  8
0
100
AcDbCircle
 10
107.1064912050096
 20
229.8033498774885
 30
0.0
 40
6.619491920321919
100
AcDbArc
 50
359.9167683341669
 51
5.02664437407209
  0
ARC
  5
2FEDD
330
16627
100
AcDbEntity
  8
0
100
AcDbCircle
 10
-85.78960328654284
 20
229.8033498774885
 30
0.0
 40
6.619491920321975
100
AcDbArc
 50
174.9733556259279
 51
180.0832316658331
  0
LWPOLYLINE
  5
2FEDE
330
16627
100
AcDbEntity
  8
0
100
AcDbPolyline
 90
       19
 70
   128
 43
0.0
 10
112.2022728042575
 20
247.0473712798185
 10
101.1645133213969
 20
247.3570770140714
 10
90.04061022567475
 20
247.6310199614591
 10
78.84115079211915
 20
247.8689617034024
 10
67.57680052685464
 20
248.0707234259671
 10
56.2582733647796
 20
248.2360667105741
 10
44.89634657072747
 20
248.3648127432889
 10
33.50183279978955
 20
248.4568423148221
 10
22.08557637202466
 20
248.5120958205289
 10
10.65844395922977
 20
248.5305136557645
 10
-0.7686884535578429
 20
248.5120958205289
 10
-12.18494488132273
 20
248.4568423148221
 10
-23.57945865226065
 20
248.3648127432889
 10
-34.94138544631278
 20
248.2360667105741
 10
-46.25991260838782
 20
248.0707234259671
 10
-57.52426287365233
 20
247.8689617034024
 10
-68.72372230720793
 20
247.6310199614591
 10
-79.84762540293013
 20
247.3570770140714
 10
-90.8853848857907
 20
247.0473712798185
  0
LINE
  5
2FEDF
330
16627
100
AcDbEntity
  8
0
100
AcDbLine
 10
112.2022728042575
 20
247.0473712798185
 30
0.0
 11
113.7005249576541
 21
230.3833431120938
 31
0.0
  0
LINE
  5
2FEE0
330
16627
100
AcDbEntity
  8
0
100
AcDbLine
 10
-90.8853848857907
 20
247.0473712798185
 30
0.0
 11
-92.3836370391873
 21
230.3833431120938
 31
0.0
  0
ARC
  5
2FEE1
330
16627
100
AcDbEntity
  8
0
100
AcDbCircle
 10
49.79715402577494
 20
170.6422037001675
 30
0.0
 40
90.3535682597365
100
AcDbArc
 50
345.4399230435866
 51
14.56007695641336
  0
LWPOLYLINE
  5
2FEE2
330
16627
100
AcDbEntity
  8
0
100
AcDbPolyline
 90
       13
 70
   128
 43
0.0
 10
137.2489790039035
 20
147.9277676459378
 10
136.9598219709369
 20
147.5486225005215
 10
136.2901786880466
 20
147.1747225638455
 10
135.2474922852489
 20
146.8102997656888
 10
133.8433633165332
 20
146.4593476172513
 10
132.0934081988307
 20
146.1258000250882
 10
130.0171102004024
 20
145.8134120818204
 10
127.6375512199374
 20
145.5256408568448
 10
124.9812255220386
 20
145.2656453963345
 10
122.0776821093532
 20
145.0363463278836
 10
118.9592192487689
 20
144.8403066512173
 10
115.6605342941257
 20
144.6796721335477
 10
112.2183362560245
 20
144.5562309142178
  0
LWPOLYLINE
  5
2FEE3
330
16627
100
AcDbEntity
  8
0
100
AcDbPolyline
 90
       19
 70
   128
 43
0.0
 10
112.2183362560245
 20
144.5562309142178
 10
101.1788333373042
 20
144.2464655753201
 10
90.05317190456116
 20
143.9724630232877
 10
78.8519392328235
 20
143.7344616766995
 10
67.58580455350602
 20
143.5326999541348
 10
56.26548925208772
 20
143.3673566695279
 10
44.90176314282144
 20
143.238610636813
 10
33.50544633137906
 20
143.1465214606351
 10
22.08738500046456
 20
143.0912679549283
 10
10.65844395922977
 20
143.0728501196927
 10
-0.7704970819977462
 20
143.0912679549283
 10
-12.18855841291224
 20
143.1465214606351
 10
-23.58487522435462
 20
143.238610636813
 10
-34.9486013336209
 20
143.3673566695279
 10
-46.2689166350392
 20
143.5326999541348
 10
-57.53505131435668
 20
143.7344616766995
 10
-68.73628398609435
 20
143.9724630232877
 10
-79.86194541883742
 20
144.2464655753201
 10
-90.90144833755767
 20
144.5562309142178
  0
LWPOLYLINE
  5
2FEE4
330
16627
100
AcDbEntity
  8
0
100
AcDbPolyline
 90
       13
 70
   128
 43
0.0
 10
-90.90144833755767
 20
144.5562309142178
 10
-94.34364637565886
 20
144.6796721335477
 10
-97.64233133030211
 20
144.8403066512173
 10
-100.7607941908863
 20
145.0363463278836
 10
-103.6643376035717
 20
145.2656453963345
 10
-106.3206633014706
 20
145.5256408568448
 10
-108.7002222819355
 20
145.8134120818204
 10
-110.7765202803639
 20
146.1258000250882
 10
-112.5264753980664
 20
146.4593476172513
 10
-113.930604366782
 20
146.8102997656888
 10
-114.9732907695797
 20
147.1747225638455
 10
-115.6429340524701
 20
147.5486225005215
 10
-115.9320910854367
 20
147.9277676459378
  0
ARC
  5
2FEE5
330
16627
100
AcDbEntity
  8
0
100
AcDbCircle
 10
-28.48026610730812
 20
170.6422037001675
 30
0.0
 40
90.35356825973639
100
AcDbArc
 50
165.4399230435866
 51
194.5600769564133
  0
LWPOLYLINE
  5
2FEE6
330
16627
100
AcDbEntity
  8
0
100
AcDbPolyline
 90
       10
 70
   128
 43
0.0
 10
-90.36259999704634
 20
248.2457226630277
 10
-79.38166609239852
 20
248.5538190718717
 10
-68.31503560972487
 20
248.8263911124295
 10
-57.17323621940886
 20
249.0631407614774
 10
-45.96687754822051
 20
249.2638296004361
 10
-34.70662137699401
 20
249.4282788153714
 10
-23.40318909120833
 20
249.5563691969937
 10
-12.06733932924544
 20
249.6479219313687
 10
-0.7098577378419578
 20
249.7029370184964
 10
10.65844395922977
 20
249.7212356444425
  0
LWPOLYLINE
  5
2FEE7
330
16627
100
AcDbEntity
  8
0
100
AcDbPolyline
 90
       10
 70
   128
 43
0.0
 10
10.65844395922977
 20
249.7212356444425
 10
22.02674565630878
 20
249.7029370184964
 10
33.38422724771226
 20
249.6479219313687
 10
44.72007700967515
 20
249.5563691969937
 10
56.02350929546083
 20
249.4282788153714
 10
67.28376546668733
 20
249.2638296004361
 10
78.49012413787568
 20
249.0631407614774
 10
89.63192352819168
 20
248.8263911124295
 10
100.6985540108653
 20
248.5538190718717
 10
111.6794879155131
 20
248.2457226630277
  0
LWPOLYLINE
  5
2FEE8
330
16627
100
AcDbEntity
  8
0
100
AcDbPolyline
 90
        9
 70
   128
 43
0.0
 10
111.6794879155131
 20
248.2457226630277
 10
111.7658103423091
 20
248.2525771971769
 10
111.8499795513125
 20
248.2096022482938
 10
111.9298944787951
 20
248.1179303046292
 10
112.0035658197375
 20
247.9798263426847
 10
112.0691458301517
 20
247.798747431857
 10
112.1250102834674
 20
247.5791639205045
 10
112.1697584705325
 20
247.3266190405912
 10
112.2022728042575
 20
247.0473712798185
  0
LWPOLYLINE
  5
2FEE9
330
16627
100
AcDbEntity
  8
0
100
AcDbPolyline
 90
        9
 70
   128
 43
0.0
 10
-90.36259999704634
 20
248.2457226630277
 10
-90.4489224238423
 20
248.2525771971769
 10
-90.53309163284575
 20
248.2096022482938
 10
-90.61300656032836
 20
248.1179303046292
 10
-90.68667790127074
 20
247.9798263426847
 10
-90.75225791168486
 20
247.798747431857
 10
-90.8081223650006
 20
247.5791639205045
 10
-90.85287055206572
 20
247.3266190405912
 10
-90.8853848857907
 20
247.0473712798185
  0
ARC
  5
2FEEA
330
16627
100
AcDbEntity
  8
0
100
AcDbCircle
 10
-116.4309287784854
 20
198.3584143813195
 30
0.0
 40
4.999203084618707
100
AcDbArc
 50
180.1577025046115
 51
264.2578283304247
  0
LWPOLYLINE
  5
2FEEB
330
16627
100
AcDbEntity
  8
0
100
AcDbPolyline
 90
       14
 70
   128
 43
0.0
 10
-121.4301129264859
 20
198.3446544524258
 10
-121.1363961381939
 20
198.750621687991
 10
-120.4663356227902
 20
199.1517013426846
 10
-119.4262941761044
 20
199.5440191145963
 10
-118.0261363668469
 20
199.9239391203946
 10
-116.279109327319
 20
200.2878254767483
 10
-114.2018129510907
 20
200.6322211142606
 10
-111.8139167709378
 20
200.9538477774686
 10
-109.1380780024556
 20
201.2496656294888
 10
-106.1996658725766
 20
201.5169328566617
 10
-103.0265306515721
 20
201.753026854617
 10
-99.6487652344731
 20
201.9557422514981
 10
-96.09839966726577
 20
202.1231716986722
 10
-92.4090882225064
 20
202.2537058707303
  0
LWPOLYLINE
  5
2FEEC
330
16627
100
AcDbEntity
  8
0
100
AcDbPolyline
 90
       13
 70
   128
 43
0.0
 10
-91.17539128494536
 20
196.8535250540799
 10
-94.71730044317519
 20
196.7265075560635
 10
-98.11153909397399
 20
196.5612238761014
 10
-101.3203327937153
 20
196.3595217581815
 10
-104.30799326134
 20
196.1235469695157
 10
-107.0412611050633
 20
195.8560413237637
 10
-109.4897454066304
 20
195.5599254485196
 10
-111.6261919422177
 20
195.2384775992459
 10
-113.4268408103016
 20
194.8952740546292
 10
-114.8716499490765
 20
194.5341891165799
 10
-115.9445335550335
 20
194.1592162962979
 10
-116.6335781497982
 20
193.7744683142728
 10
-116.9311096353558
 20
193.3842963095731
  0
LWPOLYLINE
  5
2FEED
330
16627
100
AcDbEntity
  8
0
100
AcDbPolyline
 90
       14
 70
   128
 43
0.0
 10
113.7259761409732
 20
202.2537058707303
 10
117.4152875857326
 20
202.1231716986722
 10
120.9656531529399
 20
201.9557422514981
 10
124.3434185700389
 20
201.753026854617
 10
127.5165537910434
 20
201.5169328566617
 10
130.4549659209224
 20
201.2496656294888
 10
133.1308046894046
 20
200.9538477774686
 10
135.5187008695575
 20
200.6322211142606
 10
137.5959972457858
 20
200.2878254767483
 10
139.3430242853137
 20
199.9239391203946
 10
140.7431820945712
 20
199.5440191145963
 10
141.783223541257
 20
199.1517013426846
 10
142.4532840566608
 20
198.750621687991
 10
142.7470008449527
 20
198.3446544524258
  0
ARC
  5
2FEEE
330
16627
100
AcDbEntity
  8
0
100
AcDbCircle
 10
137.7478166969522
 20
198.3584143813195
 30
0.0
 40
4.999203084618707
100
AcDbArc
 50
275.7421716695753
 51
359.8422974953884
  0
LWPOLYLINE
  5
2FEEF
330
16627
100
AcDbEntity
  8
0
100
AcDbPolyline
 90
       13
 70
   128
 43
0.0
 10
138.2479975538226
 20
193.3842963095731
 10
137.9504660682651
 20
193.7744683142728
 10
137.2614214735004
 20
194.1592162962979
 10
136.1885378675433
 20
194.5341891165799
 10
134.7437287287684
 20
194.8952740546292
 10
132.9430798606845
 20
195.2384775992459
 10
130.8066333250972
 20
195.5599254485196
 10
128.3581490235301
 20
195.8560413237637
 10
125.6248811798068
 20
196.1235469695157
 10
122.6372207121821
 20
196.3595217581815
 10
119.4284270124408
 20
196.5612238761014
 10
116.034188361642
 20
196.7265075560635
 10
112.4922792034122
 20
196.8535250540799
  0
LINE
  5
2FEF0
330
16627
100
AcDbEntity
  8
0
100
AcDbLine
 10
-121.4301129264859
 20
198.3446544524258
 30
0.0
 11
-121.4301129264859
 21
225.8846825476712
 31
0.0
  0
LWPOLYLINE
  5
2FEF1
330
16627
100
AcDbEntity
  8
0
100
AcDbPolyline
 90
       14
 70
   128
 43
0.0
 10
-92.4090882225064
 20
229.7937339659757
 10
-96.09839966726577
 20
229.6631997939176
 10
-99.6487652344731
 20
229.4957703467435
 10
-103.0265306515721
 20
229.2930549498624
 10
-106.1996658725766
 20
229.0569609519071
 10
-109.1380780024556
 20
228.7896937247342
 10
-111.8139167709378
 20
228.493875872714
 10
-114.2018129510907
 20
228.172249209506
 10
-116.279109327319
 20
227.8278535719937
 10
-118.0261363668469
 20
227.46396721564
 10
-119.4262941761044
 20
227.0840472098416
 10
-120.4663356227902
 20
226.6916698332853
 10
-121.1363961381939
 20
226.2906497832364
 10
-121.4301129264859
 20
225.8846825476712
  0
LWPOLYLINE
  5
2FEF2
330
16627
100
AcDbEntity
  8
0
100
AcDbPolyline
 90
       14
 70
   128
 43
0.0
 10
142.7470008449527
 20
225.8846825476712
 10
142.4532840566608
 20
226.2906497832364
 10
141.783223541257
 20
226.6916698332853
 10
140.7431820945712
 20
227.0840472098416
 10
139.3430242853137
 20
227.46396721564
 10
137.5959972457858
 20
227.8278535719937
 10
135.5187008695575
 20
228.172249209506
 10
133.1308046894046
 20
228.493875872714
 10
130.4549659209224
 20
228.7896937247342
 10
127.5165537910434
 20
229.0569609519071
 10
124.3434185700389
 20
229.2930549498624
 10
120.9656531529399
 20
229.4957703467435
 10
117.4152875857326
 20
229.6631997939176
 10
113.7259761409732
 20
229.7937339659757
  0
LINE
  5
2FEF3
330
16627
100
AcDbEntity
  8
0
100
AcDbLine
 10
142.7470008449527
 20
198.3446544524258
 30
0.0
 11
142.7470008449527
 21
225.8846825476712
 31
0.0
  0
LINE
  5
2FEF4
330
16627
100
AcDbEntity
  8
0
100
AcDbLine
 10
142.6465223150226
 20
226.5101140852994
 30
0.0
 11
142.6541964130374
 21
226.4833515997953
 31
0.0
  0
ARC
  5
2FEF5
330
16627
100
AcDbEntity
  8
0
100
AcDbCircle
 10
140.7703949246061
 20
225.8848009080893
 30
0.0
 40
1.976605923888671
100
AcDbArc
 50
359.9965690922577
 51
17.62690230592696
  0
ARC
  5
2FEF6
330
16627
100
AcDbEntity
  8
0
100
AcDbCircle
 10
-119.4535070061429
 20
225.8848009080893
 30
0.0
 40
1.976605923888671
100
AcDbArc
 50
162.373097694073
 51
180.0034309077423
  0
LINE
  5
2FEF7
330
16627
100
AcDbEntity
  8
0
100
AcDbLine
 10
-121.3373084945706
 20
226.4833515997953
 30
0.0
 11
-121.3296343965557
 21
226.5101140852994
 31
0.0
  0
LINE
  5
2FEF8
330
16627
100
AcDbEntity
  8
0
100
AcDbLine
 10
137.1903876380893
 20
243.6815565939969
 30
0.0
 11
137.183756621358
 21
243.704623591525
 31
0.0
  0
LINE
  5
2FEF9
330
16627
100
AcDbEntity
  8
0
100
AcDbLine
 10
-115.8668687028912
 20
243.704623591525
 30
0.0
 11
-115.8734997196225
 21
243.6815565939969
 31
0.0
  0
ARC
  5
2FEFA
330
16627
100
AcDbEntity
  8
0
100
AcDbCircle
 10
-116.4318876531724
 20
193.360090354482
 30
0.0
 40
0.4998084790789136
100
AcDbArc
 50
177.2240530902933
 51
359.6044356978933
  0
ARC
  5
2FEFB
330
16627
100
AcDbEntity
  8
0
100
AcDbCircle
 10
137.7487755716356
 20
193.360090354482
 30
0.0
 40
0.4998084790789705
100
AcDbArc
 50
180.3955643021067
 51
2.775946909706658
  0
ARC
  5
2FEFC
330
16627
100
AcDbEntity
  8
0
100
AcDbCircle
 10
108.0088332070409
 20
76.86250982179172
 30
0.0
 40
171.4225170442144
100
AcDbArc
 50
83.14782664535004
 51
88.77303692857346
  0
ARC
  5
2FEFD
330
16627
100
AcDbEntity
  8
0
100
AcDbCircle
 10
-86.77444521792494
 20
78.54875556943352
 30
0.0
 40
169.7348976948584
100
AcDbArc
 50
91.21130918449225
 51
96.97621932378845
  0
ARC
  5
2FEFE
330
16627
100
AcDbEntity
  8
0
100
AcDbCircle
 10
-35.40096337942305
 20
175.6148700489166
 30
0.0
 40
88.94037088364951
100
AcDbArc
 50
176.2527398990153
 51
183.6112825772459
  0
ARC
  5
2FEFF
330
16627
100
AcDbEntity
  8
0
100
AcDbCircle
 10
-29.46874594755355
 20
170.6670886393613
 30
0.0
 40
90.36446528469587
100
AcDbArc
 50
165.4399019769201
 51
194.5600980230799
  0
ARC
  5
2FF00
330
16627
100
AcDbEntity
  8
0
100
AcDbCircle
 10
56.73911100116675
 20
175.6147562709111
 30
0.0
 40
88.91915308202653
100
AcDbArc
 50
356.2518796337613
 51
3.612142132681059
  0
ARC
  5
2FF01
330
16627
100
AcDbEntity
  8
0
100
AcDbCircle
 10
137.7487207045778
 20
147.9283239590395
 30
0.0
 40
0.4997420103182549
100
AcDbArc
 50
180.0637817089009
 51
2.472293773038157
  0
ARC
  5
2FF02
330
16627
100
AcDbEntity
  8
0
100
AcDbCircle
 10
-34.39123162272518
 20
203.1056794287533
 30
0.0
 40
89.95034323190434
100
AcDbArc
 50
170.3687775687188
 51
179.9686679790892
  0
ARC
  5
2FF03
330
16627
100
AcDbEntity
  8
0
100
AcDbCircle
 10
55.69292551485705
 20
203.1049151384132
 30
0.0
 40
89.96553767709354
100
AcDbArc
 50
0.0318134780336097
 51
9.704777329024558
  0
LWPOLYLINE
  5
2FF04
330
16627
100
AcDbEntity
  8
0
100
AcDbPolyline
 90
        3
 70
   128
 43
0.0
 10
-123.3693053407696
 20
216.2467306967801
 10
-122.6110150499371
 20
220.801836859805
 10
-121.3373084945706
 20
226.4833515997953
  0
LWPOLYLINE
  5
2FF05
330
16627
100
AcDbEntity
  8
0
100
AcDbPolyline
 90
        3
 70
   128
 43
0.0
 10
142.6541964130374
 20
226.4833515997953
 10
143.9279029684039
 20
220.801836859805
 10
144.5455411987277
 20
217.2086304541654
  0
ARC
  5
2FF06
330
16627
100
AcDbEntity
  8
0
100
AcDbCircle
 10
10.65844395923341
 20
134.8735478827902
 30
0.0
 40
335.0118179516542
100
AcDbArc
 50
260.882737880351
 51
279.117262119649
  0
ARC
  5
2FF07
330
16627
100
AcDbEntity
  8
0
100
AcDbCircle
 10
57.61331183394213
 20
-156.5977782650016
 30
0.0
 40
39.783039615227
100
AcDbArc
 50
278.8632141712096
 51
342.5850421809181
  0
ARC
  5
2FF08
330
16627
100
AcDbEntity
  8
0
100
AcDbCircle
 10
-36.25783442826287
 20
-156.5529520443861
 30
0.0
 40
39.833288517548
100
AcDbArc
 50
197.4598672787442
 51
261.0918763689614
  0
LWPOLYLINE
  5
2FF09
330
16627
100
AcDbEntity
  8
0
100
AcDbPolyline
 90
       14
 70
   128
 43
0.0
 10
-117.560311166766
 20
83.80544842444123
 10
-116.5769984407452
 20
64.09174860678376
 10
-115.1990284605053
 20
44.40099657736482
 10
-113.4269376678494
 20
24.74085153303804
 10
-111.2613966150311
 20
5.11894286833467
 10
-108.7032546682385
 20
-14.45710002221403
 10
-105.7535102052716
 20
-33.97961794175444
 10
-102.4133106155423
 20
-53.44104110040007
 10
-98.68395230007445
 20
-72.83379970826445
 10
-94.56689557266509
 20
-92.1503239754611
 10
-90.06373485756194
 20
-111.3831037167483
 10
-85.17622104120528
 20
-130.5246883515292
 10
-79.90626147222792
 20
-149.5675974968844
 10
-74.25589760971343
 20
-168.5044401768618
  0
LINE
  5
2FF0A
330
16627
100
AcDbEntity
  8
0
100
AcDbLine
 10
-117.560311166766
 20
88.59748305044831
 30
0.0
 11
-117.560311166766
 21
83.80544842444123
 31
0.0
  0
LINE
  5
2FF0B
330
16627
100
AcDbEntity
  8
0
100
AcDbLine
 10
138.8771990852328
 20
88.59748305044831
 30
0.0
 11
138.8771990852328
 21
83.80544842444123
 31
0.0
  0
LWPOLYLINE
  5
2FF0C
330
16627
100
AcDbEntity
  8
0
100
AcDbPolyline
 90
       14
 70
   128
 43
0.0
 10
95.57278552818024
 20
-168.5044401768618
 10
101.2231493906947
 20
-149.5675974968844
 10
106.4931089596721
 20
-130.5246883515292
 10
111.3806227760287
 20
-111.3831037167483
 10
115.8837834911319
 20
-92.1503239754611
 10
120.0008402185412
 20
-72.83379970826445
 10
123.7301985340091
 20
-53.44104110040007
 10
127.0703981237384
 20
-33.97961794175444
 10
130.0201425867053
 20
-14.45710002221403
 10
132.5782845334979
 20
5.11894286833467
 10
134.7438255863162
 20
24.74085153303804
 10
136.5159163789722
 20
44.40099657736482
 10
137.893886359212
 20
64.09174860678376
 10
138.8771990852328
 20
83.80544842444123
  0
LWPOLYLINE
  5
2FF0D
330
16627
100
AcDbEntity
  8
0
100
AcDbPolyline
 90
        5
 70
   128
 43
0.0
 10
63.74292546677316
 20
-195.9057682637149
 10
63.74252686071122
 20
-195.9206545237475
 10
63.74133104252542
 20
-195.9306681040698
 10
63.73934173750604
 20
-195.9358090046817
 10
63.73817199635232
 20
-195.936524260419
  0
ARC
  5
2FF0E
330
16627
100
AcDbEntity
  8
0
100
AcDbCircle
 10
100.0377145041275
 20
90.13672491466332
 30
0.0
 40
38.86997334758858
100
AcDbArc
 50
357.73050710468
 51
23.19297374328311
  0
ARC
  5
2FF0F
330
16627
100
AcDbEntity
  8
0
100
AcDbCircle
 10
-78.71593140764526
 20
90.13563445404271
 30
0.0
 40
38.87482152513542
100
AcDbArc
 50
157.2368677115125
 51
182.2676012738488
  0
LINE
  5
2FF10
330
16627
100
AcDbEntity
  8
0
100
AcDbLine
 10
138.8771990852328
 20
83.80544842444123
 30
0.0
 11
138.9079550819369
 21
85.34998358450593
 31
0.0
  0
LINE
  5
2FF11
330
16627
100
AcDbEntity
  8
0
100
AcDbLine
 10
-117.5910671634701
 20
85.34998358450593
 30
0.0
 11
-117.560311166766
 21
83.80544842444123
 31
0.0
  0
LINE
  5
2FF12
330
16627
100
AcDbEntity
  8
0
100
AcDbLine
 10
-56.40417238903319
 20
256.067699801547
 30
0.0
 11
-56.4651777429608
 21
255.965000998599
 31
0.0
  0
LWPOLYLINE
  5
2FF13
330
16627
100
AcDbEntity
  8
0
100
AcDbPolyline
 90
       16
 70
   128
 43
0.0
 10
-72.27893075180327
 20
256.0689514990873
 10
-72.23240932655608
 20
256.1574047919339
 10
-71.86344167423522
 20
256.3325828429288
 10
-71.14276191425597
 20
256.4954227324552
 10
-70.10406157207762
 20
256.638235461337
 10
-68.79591098261153
 20
256.7544049140042
 10
-67.27948686313903
 20
256.8384474631375
 10
-65.62568148803984
 20
256.8864292021817
 10
-63.91183188391005
 20
256.8961447592801
 10
-62.21808394623076
 20
256.8671172972745
 10
-60.62362244558608
 20
256.8007177229947
 10
-59.20300534200942
 20
256.7000454779691
 10
-58.02266201210295
 20
256.5697497244901
 10
-57.1377863569287
 20
256.4160293456144
 10
-56.58974399996077
 20
256.2460368987149
 10
-56.40417238903319
 20
256.067699801547
  0
ARC
  5
2FF14
330
16627
100
AcDbEntity
  8
0
100
AcDbCircle
 10
-64.34152549338614
 20
237.6453743947814
 30
0.0
 40
22.10969496756887
100
AcDbArc
 50
78.2986876170149
 51
101.7013123829851
  0
ARC
  5
2FF15
330
16627
100
AcDbEntity
  8
0
100
AcDbCircle
 10
-64.34155529570853
 20
233.1285785798091
 30
0.0
 40
26.59933892109704
100
AcDbArc
 50
81.40287379699293
 51
98.59712620300706
  0
LINE
  5
2FF16
330
16627
100
AcDbEntity
  8
0
100
AcDbLine
 10
93.59582612085068
 20
256.067699801547
 30
0.0
 11
93.53482076692307
 21
255.965000998599
 31
0.0
  0
LWPOLYLINE
  5
2FF17
330
16627
100
AcDbEntity
  8
0
100
AcDbPolyline
 90
       16
 70
   128
 43
0.0
 10
77.7210752086612
 20
256.0689514990873
 10
77.7675891833278
 20
256.1574047919339
 10
78.13655683564866
 20
256.3325828429288
 10
78.85724404620851
 20
256.4954227324552
 10
79.89593693780626
 20
256.638235461337
 10
81.20408752727234
 20
256.7544049140042
 10
82.72051909732544
 20
256.8384474631375
 10
84.37431702184403
 20
256.8864292021817
 10
86.08816662597382
 20
256.8961447592801
 10
87.78192201423371
 20
256.8671172972745
 10
89.37638351487839
 20
256.8007177229947
 10
90.79699316787445
 20
256.7000454779691
 10
91.97733649778092
 20
256.5697497244901
 10
92.86221960353577
 20
256.4160293456144
 10
93.4102545099231
 20
256.2460368987149
 10
93.59582612085068
 20
256.067699801547
  0
ARC
  5
2FF18
330
16627
100
AcDbEntity
  8
0
100
AcDbCircle
 10
85.65847301649773
 20
237.6453107065054
 30
0.0
 40
22.10975733229075
100
AcDbArc
 50
78.29872108959023
 51
101.7012789104098
  0
ARC
  5
2FF19
330
16627
100
AcDbEntity
  8
0
100
AcDbCircle
 10
85.65846184062683
 20
233.1333156503633
 30
0.0
 40
26.59462233007035
100
AcDbArc
 50
81.40095603434525
 51
98.59904396565475
  0
LWPOLYLINE
  5
2FF1A
330
16627
100
AcDbEntity
  8
0
100
AcDbPolyline
 90
       16
 70
   128
 43
0.0
 10
-55.84155669641768
 20
254.9583381529874
 10
-56.02729967069899
 20
255.1431125517911
 10
-56.57642236185347
 20
255.3197211142606
 10
-57.46491154861724
 20
255.4805940505094
 10
-58.65394225549971
 20
255.6186384078092
 10
-60.09155413341796
 20
255.7278341170377
 10
-61.71490898561751
 20
255.8033532019681
 10
-63.45306238365447
 20
255.8419770117826
 10
-65.23004820776259
 20
255.8419770117826
 10
-66.96820160579955
 20
255.8033532019681
 10
-68.5915564579991
 20
255.7278341170377
 10
-70.02916833591735
 20
255.6186384078092
 10
-71.21819904279982
 20
255.4805940505094
 10
-72.10669568014418
 20
255.3197211142606
 10
-72.65581092071807
 20
255.1431125517911
 10
-72.84155389499938
 20
254.9583381529874
  0
LWPOLYLINE
  5
2FF1B
330
16627
100
AcDbEntity
  8
0
100
AcDbPolyline
 90
       16
 70
   128
 43
0.0
 10
94.15844181346619
 20
254.9583381529874
 10
93.97269883918488
 20
255.1431125517911
 10
93.42358359861099
 20
255.3197211142606
 10
92.53508696126663
 20
255.4805940505094
 10
91.34605625438416
 20
255.6186384078092
 10
89.90844437646591
 20
255.7278341170377
 10
88.28508952426636
 20
255.8033532019681
 10
86.5469361262294
 20
255.8419770117826
 10
84.76995030212128
 20
255.8419770117826
 10
83.03179690408432
 20
255.8033532019681
 10
81.40844205188477
 20
255.7278341170377
 10
79.97083017396653
 20
255.6186384078092
 10
78.78179946708406
 20
255.4805940505094
 10
77.89331028032029
 20
255.3197211142606
 10
77.34418758916581
 20
255.1431125517911
 10
77.1584446148845
 20
254.9583381529874
  0
LINE
  5
2FF1C
330
16627
100
AcDbEntity
  8
0
100
AcDbLine
 10
-249.4731237573651
 20
382.2768992301053
 30
0.0
 11
270.7900116758319
 21
382.2768992301053
 31
0.0
  0
SPLINE
  5
2FF1D
330
16627
100
AcDbEntity
  8
0
100
AcDbSpline
210
0.0
220
0.0
230
1.0
 70
     8
 71
     3
 72
    17
 73
    13
 74
     0
 42
0.000000001
 43
0.0000000001
 40
0.0
 40
0.0
 40
0.0
 40
0.0
 40
0.0403300558857466
 40
0.1452428728481012
 40
0.2501612293654223
 40
0.3553632472404881
 40
0.4605737870551471
 40
0.5674420463746471
 40
0.6743146753296731
 40
0.7826133362748036
 40
0.8909072183549632
 40
1.0
 40
1.0
 40
1.0
 40
1.0
 10
-235.5068316144971
 20
407.1841305609768
 30
0.0
 10
-235.5024966083038
 20
407.2060482377919
 30
0.0
 10
-235.4868847094476
 20
407.2849815860563
 30
0.0
 10
-235.6033806207888
 20
406.6924061814634
 30
0.0
 10
-235.8394790557213
 20
405.4598749554961
 30
0.0
 10
-236.1961375839856
 20
403.5382763047737
 30
0.0
 10
-236.6354582412205
 20
401.050173138984
 30
0.0
 10
-237.1360244198004
 20
398.0203267623574
 30
0.0
 10
-237.6681267096865
 20
394.5316498648162
 30
0.0
 10
-238.196960617679
 20
390.6720261956898
 30
0.0
 10
-238.7037900006144
 20
386.5464760859386
 30
0.0
 10
-238.9921393628465
 20
383.7035740859201
 30
0.0
 10
-239.1368438882855
 20
382.2768992301053
 30
0.0
  0
LINE
  5
2FF1E
330
16627
100
AcDbEntity
  8
0
100
AcDbLine
 10
-249.4731237573651
 20
332.2768873091764
 30
0.0
 11
-44.34155574274337
 21
332.2768873091764
 31
0.0
  0
SPLINE
  5
2FF1F
330
16627
100
AcDbEntity
  8
0
100
AcDbSpline
210
0.0
220
0.0
230
1.0
 70
     8
 71
     3
 72
    17
 73
    13
 74
     0
 42
0.000000001
 43
0.0000000001
 40
0.0
 40
0.0
 40
0.0
 40
0.0
 40
0.0894568472426087
 40
0.1789163694470425
 40
0.286810422963944
 40
0.3947054123896701
 40
0.5031647869940626
 40
0.6116181175366619
 40
0.7196505519959723
 40
0.8276740481845925
 40
0.9340022234578832
 40
1.0
 40
1.0
 40
1.0
 40
1.0
 10
-239.1368438882855
 20
332.2768873091764
 30
0.0
 10
-239.0190880946357
 20
331.1074885860353
 30
0.0
 10
-238.7835729861654
 20
328.7686561720866
 30
0.0
 10
-238.3512214064503
 20
325.0976724500388
 30
0.0
 10
-237.8588091337806
 20
321.3659684198201
 30
0.0
 10
-237.3212700569711
 20
317.7092465013511
 30
0.0
 10
-236.7990228036287
 20
314.4688723002719
 30
0.0
 10
-236.3246052828799
 20
311.7274564313293
 30
0.0
 10
-235.9316698225593
 20
309.580969014899
 30
0.0
 10
-235.6516098416796
 20
308.112429367603
 30
0.0
 10
-235.503215879482
 20
307.3497868341064
 30
0.0
 10
-235.5058303274127
 20
307.364153717378
 30
0.0
 10
-235.5068316144971
 20
307.3696559783048
 30
0.0
  0
SPLINE
  5
2FF20
330
16627
100
AcDbEntity
  8
0
100
AcDbSpline
210
0.0
220
0.0
230
1.0
 70
     8
 71
     3
 72
    13
 73
     9
 74
     0
 42
0.000000001
 43
0.0000000001
 40
0.0
 40
0.0
 40
0.0
 40
0.0
 40
0.1291309760174757
 40
0.3258597736967472
 40
0.5148595166814547
 40
0.7091490080334257
 40
0.8942434266667017
 40
1.0
 40
1.0
 40
1.0
 40
1.0
 10
-248.2649078054456
 20
398.2139295455045
 30
0.0
 10
-248.1578022779904
 20
398.8905284751918
 30
0.0
 10
-247.8875233409344
 20
400.597914115041
 30
0.0
 10
-247.5119351691428
 20
402.7610471911202
 30
0.0
 10
-247.1616475726478
 20
404.7149374570426
 30
0.0
 10
-246.9240022419108
 20
405.9880793315123
 30
0.0
 10
-246.8005484769965
 20
406.6396608500317
 30
0.0
 10
-246.8072743922203
 20
406.6036293482638
 30
0.0
 10
-246.8097200078992
 20
406.5905279036587
 30
0.0
  0
LWPOLYLINE
  5
2FF21
330
16627
100
AcDbEntity
  8
0
100
AcDbPolyline
 90
        9
 70
   128
 43
0.0
 10
-249.4731237573651
 20
382.2768992301053
 10
-249.5931973142651
 20
382.289714228732
 10
-249.7114231271771
 20
382.3023504134244
 10
-249.8259832544354
 20
382.3146289702481
 10
-249.9352683706311
 20
382.3263710852689
 10
-250.0376691503552
 20
382.3373383399076
 10
-250.1316358728436
 20
382.3474115248746
 10
-250.2158572359113
 20
382.3565310355252
 10
-250.2890219373731
 20
382.3643988486356
  0
SPLINE
  5
2FF22
330
16627
100
AcDbEntity
  8
0
100
AcDbSpline
210
0.0
220
0.0
230
1.0
 70
     8
 71
     3
 72
    14
 73
    10
 74
     0
 42
0.000000001
 43
0.0000000001
 40
0.0
 40
0.0
 40
0.0
 40
0.0
 40
0.0728219838992015
 40
0.2407777417160661
 40
0.4140450414413655
 40
0.5797388239206269
 40
0.7503178249278586
 40
0.9165307877062728
 40
0.9999999999999998
 40
0.9999999999999998
 40
0.9999999999999998
 40
0.9999999999999998
 10
-246.8098392171887
 20
307.9638546820707
 30
0.0
 10
-246.8065290108061
 20
307.9463168533393
 30
0.0
 10
-246.7955841837793
 20
307.8883299849394
 30
0.0
 10
-246.9175095364699
 20
308.5300707212946
 30
0.0
 10
-247.1672296340803
 20
309.8704072654427
 30
0.0
 10
-247.5339349082897
 20
311.9056830843101
 30
0.0
 10
-247.9748662648235
 20
314.4991732956178
 30
0.0
 10
-248.3850528348666
 20
317.0267830374496
 30
0.0
 10
-248.6389541044955
 20
318.7820104585289
 30
0.0
 10
-248.7238337678937
 20
319.3687862273282
 30
0.0
  0
LWPOLYLINE
  5
2FF23
330
16627
100
AcDbEntity
  8
0
100
AcDbPolyline
 90
        9
 70
   128
 43
0.0
 10
-249.4731237573651
 20
332.2768873091764
 10
-249.5931973142651
 20
332.2640723105497
 10
-249.7114231271771
 20
332.2514361258573
 10
-249.8260130567578
 20
332.2391575690335
 10
-249.9352683706311
 20
332.2274750586576
 10
-250.0376691503552
 20
332.2164481993741
 10
-250.1316358728436
 20
332.2063750144071
 10
-250.2158572359113
 20
332.1973151084012
 10
-250.2890219373731
 20
332.1893876906461
  0
LINE
  5
2FF24
330
16627
100
AcDbEntity
  8
0
100
AcDbLine
 10
-249.5235194845227
 20
332.7886527892179
 30
0.0
 11
-249.4731237573651
 21
332.2768873091764
 31
0.0
  0
SPLINE
  5
2FF25
330
16627
100
AcDbEntity
  8
0
100
AcDbSpline
210
0.0
220
0.0
230
1.0
 70
     8
 71
     3
 72
    11
 73
     7
 74
     0
 42
0.000000001
 43
0.0000000001
 40
0.0
 40
0.0
 40
0.0
 40
0.0
 40
0.1888651935470474
 40
0.3960179835409461
 40
0.6034566726876633
 40
1.0
 40
1.0
 40
1.0
 40
1.0
 10
-249.5235194845227
 20
381.7651337500638
 30
0.0
 10
-249.7704447279393
 20
378.687568821223
 30
0.0
 10
-250.2882046981358
 20
372.2344419403662
 30
0.0
 10
-250.627660101145
 20
362.3739055336837
 30
0.0
 10
-250.6709229778971
 20
349.1102896124167
 30
0.0
 10
-249.9782757801695
 20
339.2574905986212
 30
0.0
 10
-249.5235194845227
 20
332.7886527892179
 30
0.0
  0
LINE
  5
2FF26
330
16627
100
AcDbEntity
  8
0
100
AcDbLine
 10
-249.4731237573651
 20
382.2768992301053
 30
0.0
 11
-249.5235194845227
 21
381.7651337500638
 31
0.0
  0
ARC
  5
2FF27
330
16627
100
AcDbEntity
  8
0
100
AcDbCircle
 10
19.65844395923341
 20
357.2768913146092
 30
0.0
 40
260.0
100
AcDbArc
 50
174.482265626299
 51
185.5177343737009
  0
LWPOLYLINE
  5
2FF28
330
16627
100
AcDbEntity
  8
0
100
AcDbPolyline
 90
        9
 70
   128
 43
0.0
 10
-249.5235194845227
 20
332.7886527892179
 10
-249.6425797624616
 20
332.7779239531583
 10
-249.7598220987347
 20
332.7673143263883
 10
-249.8735179586438
 20
332.7570623274869
 10
-249.9820580167798
 20
332.747227561099
 10
-250.0839223547009
 20
332.7379888411588
 10
-250.1775910539655
 20
332.7294653769559
 10
-250.2617528123883
 20
332.7218359824247
 10
-250.3351857347516
 20
332.7151602622098
  0
SPLINE
  5
2FF29
330
16627
100
AcDbEntity
  8
0
100
AcDbSpline
210
0.0
220
0.0
230
1.0
 70
     8
 71
     3
 72
    14
 73
    10
 74
     0
 42
0.000000001
 43
0.0000000001
 40
0.0
 40
0.0
 40
0.0
 40
0.0
 40
0.0000012117661094
 40
0.1982912834279662
 40
0.3965812733344174
 40
0.6038647723977978
 40
0.8111469329413402
 40
0.9999987882338906
 40
1.0
 40
1.0
 40
1.0
 40
1.0
 10
-250.3351857347516
 20
332.7151602622098
 30
0.0
 10
-250.335185734748
 20
332.7151801304272
 30
0.0
 10
-250.3351848170969
 20
335.9663800492517
 30
0.0
 10
-251.23662351436
 20
342.4334691579052
 30
0.0
 10
-251.4374826756139
 20
352.338384089001
 30
0.0
 10
-251.4358713718029
 20
362.3847087690801
 30
0.0
 10
-251.2347656007805
 20
372.2826360969184
 30
0.0
 10
-250.3351848217026
 20
378.7421562410118
 30
0.0
 10
-250.335185734748
 20
381.8386064088581
 30
0.0
 10
-250.3351857347516
 20
381.8386262770719
 30
0.0
  0
LWPOLYLINE
  5
2FF2A
330
16627
100
AcDbEntity
  8
0
100
AcDbPolyline
 90
        9
 70
   128
 43
0.0
 10
-249.5235194845227
 20
381.7651337500638
 10
-249.6425797624616
 20
381.7758625861234
 10
-249.7598220987347
 20
381.7864722128934
 10
-249.8735179586438
 20
381.7967242117948
 10
-249.9820580167798
 20
381.8065589781827
 10
-250.0839223547009
 20
381.8157976981229
 10
-250.1775910539655
 20
381.8243211623258
 10
-250.2617528123883
 20
381.831950556857
 10
-250.3351857347516
 20
381.8386262770719
  0
SPLINE
  5
2FF2B
330
16627
100
AcDbEntity
  8
0
100
AcDbSpline
210
0.0
220
0.0
230
1.0
 70
     8
 71
     3
 72
     9
 73
     5
 74
     0
 42
0.000000001
 43
0.0000000001
 40
0.0
 40
0.0
 40
0.0
 40
0.0
 40
0.0001131393451979
 40
1.0
 40
1.0
 40
1.0
 40
1.0
 10
-250.3351857347516
 20
381.8386262770719
 30
0.0
 10
-250.3351857348498
 20
381.8386461452892
 30
0.0
 10
-250.3351866054618
 20
382.0142545263143
 30
0.0
 10
-250.3121029655849
 20
382.1893365918104
 30
0.0
 10
-250.2890219373731
 20
382.3643988486356
 30
0.0
  0
SPLINE
  5
2FF2C
330
16627
100
AcDbEntity
  8
0
100
AcDbSpline
210
0.0
220
0.0
230
1.0
 70
     8
 71
     3
 72
     9
 73
     5
 74
     0
 42
0.000000001
 43
0.0000000001
 40
0.0
 40
0.0
 40
0.0
 40
0.0
 40
0.9998868606195078
 40
1.0
 40
1.0
 40
1.0
 40
1.0
 10
-250.2890219373731
 20
332.1893876906461
 30
0.0
 10
-250.3121029656431
 20
332.3644499751563
 30
0.0
 10
-250.3351866055782
 20
332.5395320683483
 30
0.0
 10
-250.3351857348498
 20
332.7151403939924
 30
0.0
 10
-250.3351857347516
 20
332.7151602622098
 30
0.0
  0
LINE
  5
2FF2D
330
16627
100
AcDbEntity
  8
0
100
AcDbLine
 10
-250.3351857347516
 20
381.8386262770719
 30
0.0
 11
-254.5831491632489
 21
376.2915200110501
 31
0.0
  0
LINE
  5
2FF2E
330
16627
100
AcDbEntity
  8
0
100
AcDbLine
 10
-254.5831789655713
 20
338.2623261328763
 30
0.0
 11
-250.3351857347516
 21
332.7151602622098
 31
0.0
  0
SPLINE
  5
2FF2F
330
16627
100
AcDbEntity
  8
0
100
AcDbSpline
210
0.0
220
0.0
230
1.0
 70
     8
 71
     3
 72
    12
 73
     8
 74
     0
 42
0.000000001
 43
0.0000000001
 40
0.0
 40
0.0
 40
0.0
 40
0.0
 40
0.000001566740386
 40
0.4650320243652339
 40
0.7325181750590102
 40
0.999998433259614
 40
1.0
 40
1.0
 40
1.0
 40
1.0
 10
-254.5831491632489
 20
376.2915200110501
 30
0.0
 10
-254.5831491632489
 20
376.2915001428364
 30
0.0
 10
-254.5831487336618
 20
370.3943162142341
 30
0.0
 10
-255.1816327452761
 20
361.1149252973764
 30
0.0
 10
-255.0772479138686
 20
348.4276187518726
 30
0.0
 10
-254.5831784883739
 20
341.6543479314814
 30
0.0
 10
-254.5831789655713
 20
338.2623460010937
 30
0.0
 10
-254.5831789655713
 20
338.2623261328763
 30
0.0
  0
SPLINE
  5
2FF30
330
16627
100
AcDbEntity
  8
0
100
AcDbSpline
210
0.0
220
0.0
230
1.0
 70
     8
 71
     3
 72
    17
 73
    13
 74
     0
 42
0.000000001
 43
0.0000000001
 40
0.0
 40
0.0
 40
0.0
 40
0.0
 40
0.1081009088687607
 40
0.2162062684898989
 40
0.3242829438747217
 40
0.4323602430697674
 40
0.5408686463315123
 40
0.6493711893283251
 40
0.757218585108435
 40
0.8650583036917099
 40
0.9712043901217285
 40
1.0
 40
1.0
 40
1.0
 40
1.0
 10
-238.1321628971127
 20
382.2768992301053
 30
0.0
 10
-237.993943385598
 20
383.6346003190947
 30
0.0
 10
-237.7174986717655
 20
386.3500583966115
 30
0.0
 10
-237.2368198844342
 20
390.3012054473284
 30
0.0
 10
-236.7308196589256
 20
394.0148938382399
 30
0.0
 10
-236.221190233402
 20
397.4034719276669
 30
0.0
 10
-235.7383590532809
 20
400.356982797045
 30
0.0
 10
-235.3128854388379
 20
402.7982867381861
 30
0.0
 10
-234.9740534294688
 20
404.6495833502622
 30
0.0
 10
-234.7538002012152
 20
405.8111560308343
 30
0.0
 10
-234.6565363169138
 20
406.318397265556
 30
0.0
 10
-234.6738071192267
 20
406.2278449608811
 30
0.0
 10
-234.6774925870923
 20
406.2085217352932
 30
0.0
  0
SPLINE
  5
2FF31
330
16627
100
AcDbEntity
  8
0
100
AcDbSpline
210
0.0
220
0.0
230
1.0
 70
     8
 71
     3
 72
    17
 73
    13
 74
     0
 42
0.000000001
 43
0.0000000001
 40
0.0
 40
0.0
 40
0.0
 40
0.0
 40
0.0773392090711964
 40
0.1823482830603993
 40
0.2873637851793402
 40
0.3929494190646734
 40
0.4985439499643296
 40
0.6057934047654661
 40
0.7130452586529877
 40
0.821457586913683
 40
0.9298663078183022
 40
1.0
 40
1.0
 40
1.0
 40
1.0
 10
-234.6774925870923
 20
308.3452648039884
 30
0.0
 10
-234.6787741526241
 20
308.3522140670748
 30
0.0
 10
-234.6817957929634
 20
308.3685988505195
 30
0.0
 10
-234.8370722398868
 20
309.1767560174621
 30
0.0
 10
-235.1022050992942
 20
310.5972141643024
 30
0.0
 10
-235.4707781503748
 20
312.6460442806956
 30
0.0
 10
-235.9111832769195
 20
315.2295417563719
 30
0.0
 10
-236.400057024799
 20
318.3088528284161
 30
0.0
 10
-236.9096465572766
 20
321.8000835006305
 30
0.0
 10
-237.4072659057747
 20
325.6102641938769
 30
0.0
 10
-237.8198583576959
 20
329.1546349463488
 30
0.0
 10
-238.0440841876189
 20
331.3963238714777
 30
0.0
 10
-238.1321628971127
 20
332.2768873091764
 30
0.0
  0
SPLINE
  5
2FF32
330
16627
100
AcDbEntity
  8
0
100
AcDbSpline
210
0.0
220
0.0
230
1.0
 70
     8
 71
     3
 72
    17
 73
    13
 74
     0
 42
0.000000001
 43
0.0000000001
 40
0.0
 40
0.0
 40
0.0
 40
0.0
 40
0.0713925200504296
 40
0.1792838675389573
 40
0.287172623379339
 40
0.3952699301188721
 40
0.5033686437160796
 40
0.611623002128686
 40
0.7198728029026066
 40
0.827448643330975
 40
0.935016754217117
 40
0.9999999999999998
 40
0.9999999999999998
 40
0.9999999999999998
 40
0.9999999999999998
 10
-253.4513463659314
 20
320.0241392966336
 30
0.0
 10
-253.4511205242016
 20
320.0219786263324
 30
0.0
 10
-253.4505533810516
 20
320.0165526611481
 30
0.0
 10
-253.5079672546199
 20
320.612808001787
 30
0.0
 10
-253.6101326357748
 20
321.703128366923
 30
0.0
 10
-253.7543406902369
 20
323.2999065242211
 30
0.0
 10
-253.9263015075303
 20
325.313490360305
 30
0.0
 10
-254.116597875327
 20
327.7101095558055
 30
0.0
 10
-254.3133278472778
 20
330.4023706541657
 30
0.0
 10
-254.5044885903771
 20
333.3208473676013
 30
0.0
 10
-254.6590945447351
 20
335.9724335204583
 30
0.0
 10
-254.7435197918531
 20
337.6292468390302
 30
0.0
 10
-254.7753145380048
 20
338.2532066222257
 30
0.0
  0
ARC
  5
2FF33
330
16627
100
AcDbEntity
  8
0
100
AcDbCircle
 10
-256.319857407907
 20
372.8231810834359
 30
0.0
 40
34.60446137314825
100
AcDbArc
 50
272.5582018714375
 51
272.8766857990482
  0
SPLINE
  5
2FF34
330
16627
100
AcDbEntity
  8
0
100
AcDbSpline
210
0.0
220
0.0
230
1.0
 70
     8
 71
     3
 72
    17
 73
    13
 74
     0
 42
0.000000001
 43
0.0000000001
 40
0.0
 40
0.0
 40
0.0
 40
0.0
 40
0.1044732096963324
 40
0.2119340065000478
 40
0.3163459290796533
 40
0.4236906711876972
 40
0.5293645017253721
 40
0.6380573660589645
 40
0.7446591624231268
 40
0.8543846607258569
 40
0.9609053163619661
 40
1.0
 40
1.0
 40
1.0
 40
1.0
 10
-254.7752847356824
 20
376.300579917056
 30
0.0
 10
-254.7234539614947
 20
377.3039471502589
 30
0.0
 10
-254.6183102249742
 20
379.3393745899002
 30
0.0
 10
-254.4376513701463
 20
382.2907620074575
 30
0.0
 10
-254.2460177333996
 20
385.098301462479
 30
0.0
 10
-254.0543867431661
 20
387.6462771479592
 30
0.0
 10
-253.8704816245699
 20
389.9070116552748
 30
0.0
 10
-253.7077960772476
 20
391.7779717653311
 30
0.0
 10
-253.5740429066027
 20
393.2390029088592
 30
0.0
 10
-253.4860310689
 20
394.1689960366702
 30
0.0
 10
-253.4438253101434
 20
394.6065231052371
 30
0.0
 10
-253.4498484797259
 20
394.5443677159374
 30
0.0
 10
-253.451465575221
 20
394.5276802893705
 30
0.0
  0
ARC
  5
2FF35
330
16627
100
AcDbEntity
  8
0
100
AcDbCircle
 10
-255.9306914208246
 20
349.7557344481456
 30
0.0
 40
26.56997902852964
100
AcDbArc
 50
87.09289866380983
 51
87.5076830814892
  0
SPLINE
  5
2FF36
330
16627
100
AcDbEntity
  8
0
100
AcDbSpline
210
0.0
220
0.0
230
1.0
 70
     8
 71
     3
 72
    10
 73
     6
 74
     0
 42
0.000000001
 43
0.0000000001
 40
0.0
 40
0.0
 40
0.0
 40
0.0
 40
0.2674885830472633
 40
0.534967667802801
 40
1.0
 40
1.0
 40
1.0
 40
1.0
 10
-254.7753145380048
 20
338.2532066222257
 30
0.0
 10
-254.9164141012661
 20
341.643975465332
 30
0.0
 10
-255.1986082174662
 20
348.4253927482305
 30
0.0
 10
-255.3280154171953
 20
361.1150819437999
 30
0.0
 10
-254.9899221032792
 20
370.4037201630044
 30
0.0
 10
-254.7752847356824
 20
376.300579917056
 30
0.0
  0
SPLINE
  5
2FF37
330
16627
100
AcDbEntity
  8
0
100
AcDbSpline
210
0.0
220
0.0
230
1.0
 70
     8
 71
     3
 72
    17
 73
    13
 74
     0
 42
0.000000001
 43
0.0000000001
 40
0.0
 40
0.0
 40
0.0
 40
0.0
 40
0.0403300558857466
 40
0.1452428728481012
 40
0.2501612293654223
 40
0.3553632472404881
 40
0.4605737870551471
 40
0.5674420463746471
 40
0.6743146753296731
 40
0.7826133362748036
 40
0.8909072183549632
 40
1.0
 40
1.0
 40
1.0
 40
1.0
 10
256.8237195329639
 20
307.3696559783048
 30
0.0
 10
256.819384526767
 20
307.3477383014897
 30
0.0
 10
256.8037726279108
 20
307.2688049532253
 30
0.0
 10
256.920268539252
 20
307.8613803578182
 30
0.0
 10
257.1563669741845
 20
309.0939115837855
 30
0.0
 10
257.5130255024487
 20
311.0155102345079
 30
0.0
 10
257.9523461596873
 20
313.5036134002976
 30
0.0
 10
258.4529123382635
 20
316.5334597769279
 30
0.0
 10
258.9850146281496
 20
320.0221366744654
 30
0.0
 10
259.5138485361422
 20
323.8817603435919
 30
0.0
 10
260.0206779190776
 20
328.0073104533467
 30
0.0
 10
260.3090272813097
 20
330.8502124533616
 30
0.0
 10
260.4537318067523
 20
332.2768873091764
 30
0.0
  0
SPLINE
  5
2FF38
330
16627
100
AcDbEntity
  8
0
100
AcDbSpline
210
0.0
220
0.0
230
1.0
 70
     8
 71
     3
 72
    17
 73
    13
 74
     0
 42
0.000000001
 43
0.0000000001
 40
0.0
 40
0.0
 40
0.0
 40
0.0
 40
0.0894568472426087
 40
0.1789163694470425
 40
0.286810422963944
 40
0.3947054123896701
 40
0.5031647869940626
 40
0.6116181175366619
 40
0.7196505519959723
 40
0.8276740481845925
 40
0.9340022234578832
 40
1.0
 40
1.0
 40
1.0
 40
1.0
 10
260.4537318067523
 20
382.2768992301053
 30
0.0
 10
260.3359760130989
 20
383.4462979532464
 30
0.0
 10
260.1004609046285
 20
385.785130367195
 30
0.0
 10
259.6681093249172
 20
389.4561140892429
 30
0.0
 10
259.1756970522438
 20
393.1878181194652
 30
0.0
 10
258.6381579754343
 20
396.8445400379305
 30
0.0
 10
258.1159107220919
 20
400.0849142390134
 30
0.0
 10
257.6414932013431
 20
402.8263301079523
 30
0.0
 10
257.2485577410225
 20
404.9728175243862
 30
0.0
 10
256.9684977601428
 20
406.4413571716823
 30
0.0
 10
256.8201037979452
 20
407.2039997051751
 30
0.0
 10
256.8227182458759
 20
407.1896328219072
 30
0.0
 10
256.8237195329639
 20
407.1841305609768
 30
0.0
  0
SPLINE
  5
2FF39
330
16627
100
AcDbEntity
  8
0
100
AcDbSpline
210
0.0
220
0.0
230
1.0
 70
     8
 71
     3
 72
    13
 73
     9
 74
     0
 42
0.000000001
 43
0.0000000001
 40
0.0
 40
0.0
 40
0.0
 40
0.0
 40
0.1291309760174757
 40
0.3258597736967472
 40
0.5148595166814547
 40
0.7091490080334257
 40
0.8942434266667017
 40
1.0
 40
1.0
 40
1.0
 40
1.0
 10
269.5817957239124
 20
316.3398569937772
 30
0.0
 10
269.4746901964536
 20
315.6632580640899
 30
0.0
 10
269.2044112593976
 20
313.9558724242442
 30
0.0
 10
268.828823087606
 20
311.792739348165
 30
0.0
 10
268.4785354911146
 20
309.838849082239
 30
0.0
 10
268.2408901603776
 20
308.5657072077693
 30
0.0
 10
268.1174363954597
 20
307.9141256892535
 30
0.0
 10
268.1241623106835
 20
307.9501571910214
 30
0.0
 10
268.126607926366
 20
307.9632586356229
 30
0.0
  0
LWPOLYLINE
  5
2FF3A
330
16627
100
AcDbEntity
  8
0
100
AcDbPolyline
 90
        9
 70
   128
 43
0.0
 10
270.7900116758319
 20
332.2768873091764
 10
270.910085232732
 20
332.2640723105497
 10
271.0283110456439
 20
332.2514361258573
 10
271.1428711729023
 20
332.2391575690335
 10
271.2521562890979
 20
332.2274154540128
 10
271.354557068822
 20
332.2164481993741
 10
271.4485237913105
 20
332.2063154097623
 10
271.5327451543781
 20
332.1972555037564
 10
271.6059098558399
 20
332.1893876906461
  0
SPLINE
  5
2FF3B
330
16627
100
AcDbEntity
  8
0
100
AcDbSpline
210
0.0
220
0.0
230
1.0
 70
     8
 71
     3
 72
    14
 73
    10
 74
     0
 42
0.000000001
 43
0.0000000001
 40
0.0
 40
0.0
 40
0.0
 40
0.0
 40
0.0728219838992015
 40
0.2407777417160661
 40
0.4140450414413655
 40
0.5797388239206269
 40
0.7503178249278586
 40
0.9165307877062728
 40
0.9999999999999998
 40
0.9999999999999998
 40
0.9999999999999998
 40
0.9999999999999998
 10
268.1267271356555
 20
406.5899318572109
 30
0.0
 10
268.1234169292693
 20
406.6074696859459
 30
0.0
 10
268.1124721022424
 20
406.6654565543458
 30
0.0
 10
268.234397454933
 20
406.0237158179907
 30
0.0
 10
268.4841175525435
 20
404.6833792738425
 30
0.0
 10
268.8508228267565
 20
402.6481034549751
 30
0.0
 10
269.2917541832867
 20
400.0546132436638
 30
0.0
 10
269.7019407533298
 20
397.5270035018357
 30
0.0
 10
269.9558420229623
 20
395.7717760807564
 30
0.0
 10
270.0407216863605
 20
395.1850003119535
 30
0.0
  0
LWPOLYLINE
  5
2FF3C
330
16627
100
AcDbEntity
  8
0
100
AcDbPolyline
 90
        9
 70
   128
 43
0.0
 10
270.7900116758319
 20
382.2768992301053
 10
270.910085232732
 20
382.289714228732
 10
271.0283110456439
 20
382.3023504134244
 10
271.1429009752246
 20
382.3146289702481
 10
271.2521562890979
 20
382.3263114806241
 10
271.354557068822
 20
382.3373383399076
 10
271.4485237913105
 20
382.3474115248746
 10
271.5327451543781
 20
382.3564714308805
 10
271.6059098558399
 20
382.3643988486356
  0
SPLINE
  5
2FF3D
330
16627
100
AcDbEntity
  8
0
100
AcDbSpline
210
0.0
220
0.0
230
1.0
 70
     8
 71
     3
 72
    11
 73
     7
 74
     0
 42
0.000000001
 43
0.0000000001
 40
0.0
 40
0.0
 40
0.0
 40
0.0
 40
0.1888651935470474
 40
0.3960179835409461
 40
0.6034566726876633
 40
1.0
 40
1.0
 40
1.0
 40
1.0
 10
270.8404074029895
 20
332.7886527892179
 30
0.0
 10
271.0873326464025
 20
335.8662177180622
 30
0.0
 10
271.605092616599
 20
342.3193445989154
 30
0.0
 10
271.9445480196082
 20
352.1798810056016
 30
0.0
 10
271.9878108963603
 20
365.4434969268686
 30
0.0
 10
271.2951636986327
 20
375.2962959406641
 30
0.0
 10
270.8404074029895
 20
381.7651337500638
 30
0.0
  0
LWPOLYLINE
  5
2FF3E
330
16627
100
AcDbEntity
  8
0
100
AcDbPolyline
 90
        9
 70
   128
 43
0.0
 10
270.8404074029895
 20
381.7651337500638
 10
270.9594676809284
 20
381.7758625861234
 10
271.0767100172016
 20
381.7864722128934
 10
271.1904058771106
 20
381.7967242117948
 10
271.2989459352466
 20
381.8065589781827
 10
271.4008102731678
 20
381.8157976981229
 10
271.4944789724323
 20
381.8243211623258
 10
271.5786407308551
 20
381.831950556857
 10
271.6520736532184
 20
381.8386262770719
  0
SPLINE
  5
2FF3F
330
16627
100
AcDbEntity
  8
0
100
AcDbSpline
210
0.0
220
0.0
230
1.0
 70
     8
 71
     3
 72
    14
 73
    10
 74
     0
 42
0.000000001
 43
0.0000000001
 40
0.0
 40
0.0
 40
0.0
 40
0.0
 40
0.0000012117661094
 40
0.1982912834279662
 40
0.3965812733344174
 40
0.6038647723977978
 40
0.8111469329413402
 40
0.9999987882338906
 40
1.0
 40
1.0
 40
1.0
 40
1.0
 10
271.6520736532184
 20
381.8386262770719
 30
0.0
 10
271.6520736532111
 20
381.8386064088581
 30
0.0
 10
271.6520727355601
 20
378.5874064921036
 30
0.0
 10
272.5535114328232
 20
372.1203173803615
 30
0.0
 10
272.7543705940807
 20
362.2154024507499
 30
0.0
 10
272.7527592902661
 20
352.1690777693502
 30
0.0
 10
272.5516535192437
 20
342.2711504451645
 30
0.0
 10
271.6520727401694
 20
335.8116302928311
 30
0.0
 10
271.6520736532111
 20
332.7151801304272
 30
0.0
 10
271.6520736532184
 20
332.7151602622098
 30
0.0
  0
LWPOLYLINE
  5
2FF40
330
16627
100
AcDbEntity
  8
0
100
AcDbPolyline
 90
        9
 70
   128
 43
0.0
 10
270.8404074029895
 20
332.7886527892179
 10
270.9594676809284
 20
332.7779239531583
 10
271.0767100172016
 20
332.7673143263883
 10
271.1904058771106
 20
332.7570623274869
 10
271.2989459352466
 20
332.747227561099
 10
271.4008102731678
 20
332.7379888411588
 10
271.4944789724323
 20
332.7294653769559
 10
271.5786407308551
 20
332.7218359824247
 10
271.6520736532184
 20
332.7151602622098
  0
LINE
  5
2FF41
330
16627
100
AcDbEntity
  8
0
100
AcDbLine
 10
270.8404074029895
 20
381.7651337500638
 30
0.0
 11
270.7900116758319
 21
382.2768992301053
 31
0.0
  0
LINE
  5
2FF42
330
16627
100
AcDbEntity
  8
0
100
AcDbLine
 10
270.7900116758319
 20
332.2768873091764
 30
0.0
 11
270.8404074029895
 21
332.7886527892179
 31
0.0
  0
ARC
  5
2FF43
330
16627
100
AcDbEntity
  8
0
100
AcDbCircle
 10
1.658443959233409
 20
357.2768913146092
 30
0.0
 40
260.0
100
AcDbArc
 50
354.482265626299
 51
5.517734373700973
  0
SPLINE
  5
2FF44
330
16627
100
AcDbEntity
  8
0
100
AcDbSpline
210
0.0
220
0.0
230
1.0
 70
     8
 71
     3
 72
     9
 73
     5
 74
     0
 42
0.000000001
 43
0.0000000001
 40
0.0
 40
0.0
 40
0.0
 40
0.0
 40
0.0001131393451979
 40
1.0
 40
1.0
 40
1.0
 40
1.0
 10
271.6520736532184
 20
332.7151602622098
 30
0.0
 10
271.6520736533166
 20
332.7151403939924
 30
0.0
 10
271.652074523925
 20
332.5395320138441
 30
0.0
 10
271.6289908840481
 20
332.3644499479078
 30
0.0
 10
271.6059098558399
 20
332.1893876906461
 30
0.0
  0
SPLINE
  5
2FF45
330
16627
100
AcDbEntity
  8
0
100
AcDbSpline
210
0.0
220
0.0
230
1.0
 70
     8
 71
     3
 72
     9
 73
     5
 74
     0
 42
0.000000001
 43
0.0000000001
 40
0.0
 40
0.0
 40
0.0
 40
0.0
 40
0.9998868606195078
 40
1.0
 40
1.0
 40
1.0
 40
1.0
 10
271.6059098558399
 20
382.3643988486356
 30
0.0
 10
271.6289908841063
 20
382.1893365640526
 30
0.0
 10
271.6520745240414
 20
382.0142544707878
 30
0.0
 10
271.6520736533166
 20
381.8386461452892
 30
0.0
 10
271.6520736532184
 20
381.8386262770719
 30
0.0
  0
LINE
  5
2FF46
330
16627
100
AcDbEntity
  8
0
100
AcDbLine
 10
271.6520736532184
 20
332.7151602622098
 30
0.0
 11
275.9000370817157
 21
338.2622665282315
 31
0.0
  0
LINE
  5
2FF47
330
16627
100
AcDbEntity
  8
0
100
AcDbLine
 10
275.9000668840381
 20
376.2914604064054
 30
0.0
 11
271.6520736532184
 21
381.8386262770719
 31
0.0
  0
SPLINE
  5
2FF48
330
16627
100
AcDbEntity
  8
0
100
AcDbSpline
210
0.0
220
0.0
230
1.0
 70
     8
 71
     3
 72
    12
 73
     8
 74
     0
 42
0.000000001
 43
0.0000000001
 40
0.0
 40
0.0
 40
0.0
 40
0.0
 40
0.000001566740386
 40
0.4650320243652339
 40
0.7325181750590102
 40
0.999998433259614
 40
1.0
 40
1.0
 40
1.0
 40
1.0
 10
275.9000370817157
 20
338.2622665282315
 30
0.0
 10
275.9000370817121
 20
338.2622863964489
 30
0.0
 10
275.900036652125
 20
344.159470312813
 30
0.0
 10
276.4985206637393
 20
353.4388612518624
 30
0.0
 10
276.3941358323318
 20
366.126167773672
 30
0.0
 10
275.9000664068371
 20
372.8994386363402
 30
0.0
 10
275.9000668840345
 20
376.2914405381916
 30
0.0
 10
275.9000668840381
 20
376.2914604064054
 30
0.0
  0
SPLINE
  5
2FF49
330
16627
100
AcDbEntity
  8
0
100
AcDbSpline
210
0.0
220
0.0
230
1.0
 70
     8
 71
     3
 72
    17
 73
    13
 74
     0
 42
0.000000001
 43
0.0000000001
 40
0.0
 40
0.0
 40
0.0
 40
0.0
 40
0.1081008824519709
 40
0.2162062156552317
 40
0.3242828646291867
 40
0.4323601374132121
 40
0.5408685141585872
 40
0.6493710306404622
 40
0.7572191071545955
 40
0.8650583366676254
 40
0.9712043971585572
 40
1.0
 40
1.0
 40
1.0
 40
1.0
 10
259.4490508155796
 20
332.2768873091764
 30
0.0
 10
259.310831304414
 20
330.9191862101825
 30
0.0
 10
259.0343865912837
 20
328.2037281126459
 30
0.0
 10
258.5537077986846
 20
324.2525812120575
 30
0.0
 10
258.0477075931849
 20
320.5388922507982
 30
0.0
 10
257.5380780928063
 20
317.150316295395
 30
0.0
 10
257.0552471931369
 20
314.1967974303652
 30
0.0
 10
256.6297716072258
 20
311.7555179790388
 30
0.0
 10
256.2909435011352
 20
309.90411131157
 30
0.0
 10
256.0706872887786
 20
308.7426542679196
 30
0.0
 10
255.9734242705308
 20
308.2353879271714
 30
0.0
 10
255.9906950438744
 20
308.3259413415899
 30
0.0
 10
255.9943805055591
 20
308.3452648039884
 30
0.0
  0
SPLINE
  5
2FF4A
330
16627
100
AcDbEntity
  8
0
100
AcDbSpline
210
0.0
220
0.0
230
1.0
 70
     8
 71
     3
 72
    17
 73
    13
 74
     0
 42
0.000000001
 43
0.0000000001
 40
0.0
 40
0.0
 40
0.0
 40
0.0
 40
0.0773392251904175
 40
0.1823483210658602
 40
0.2873638450723806
 40
0.3929503029161558
 40
0.4985438454496724
 40
0.6057933226039943
 40
0.713045198845201
 40
0.8214575497014505
 40
0.9298662932008721
 40
1.0
 40
1.0
 40
1.0
 40
1.0
 10
255.9943805055591
 20
406.2085217352932
 30
0.0
 10
255.9956620921184
 20
406.2015727361822
 30
0.0
 10
255.9986837820507
 20
406.1851885751338
 30
0.0
 10
256.1539597543597
 20
405.3770254512738
 30
0.0
 10
256.4190951946439
 20
403.9565876324477
 30
0.0
 10
256.7876612496839
 20
401.9076668045336
 30
0.0
 10
257.2280744922173
 20
399.3242531443712
 30
0.0
 10
257.7169444704014
 20
396.2449288355774
 30
0.0
 10
258.2265346040585
 20
392.7537043616494
 30
0.0
 10
258.7241537893679
 20
388.9435219858742
 30
0.0
 10
259.1367462813978
 20
385.3991516469278
 30
0.0
 10
259.3609721075591
 20
383.1574626830325
 30
0.0
 10
259.4490508155796
 20
382.2768992301053
 30
0.0
  0
SPLINE
  5
2FF4B
330
16627
100
AcDbEntity
  8
0
100
AcDbSpline
210
0.0
220
0.0
230
1.0
 70
     8
 71
     3
 72
    17
 73
    13
 74
     0
 42
0.000000001
 43
0.0000000001
 40
0.0
 40
0.0
 40
0.0
 40
0.0
 40
0.0713925425957562
 40
0.1792839241557197
 40
0.2871734476919194
 40
0.395269739148769
 40
0.5033684868828973
 40
0.6116228794815762
 40
0.7198727144401299
 40
0.827448588840299
 40
0.9350167336958005
 40
1.0
 40
1.0
 40
1.0
 40
1.0
 10
274.7682342843982
 20
394.529647242648
 30
0.0
 10
274.7680084236526
 20
394.531806895654
 30
0.0
 10
274.7674412327469
 20
394.5372303061586
 30
0.0
 10
274.8248557527404
 20
393.9410001785209
 30
0.0
 10
274.927019125571
 20
392.8505705367197
 30
0.0
 10
275.0712296989732
 20
391.2538953784851
 30
0.0
 10
275.2431892826571
 20
389.2402903076791
 30
0.0
 10
275.4334858322291
 20
386.843678557997
 30
0.0
 10
275.6302157555074
 20
384.1514154657953
 30
0.0
 10
275.8213765116088
 20
381.2329392850616
 30
0.0
 10
275.9759824628163
 20
378.581353003111
 30
0.0
 10
276.0604077102107
 20
376.9245396959513
 30
0.0
 10
276.0922024564716
 20
376.300579917056
 30
0.0
  0
ARC
  5
2FF4C
330
16627
100
AcDbEntity
  8
0
100
AcDbCircle
 10
277.8154019632602
 20
337.9665553315926
 30
0.0
 40
38.37273586101421
100
AcDbArc
 50
92.57383976468011
 51
92.86104790570133
  0
SPLINE
  5
2FF4D
330
16627
100
AcDbEntity
  8
0
100
AcDbSpline
210
0.0
220
0.0
230
1.0
 70
     8
 71
     3
 72
    17
 73
    13
 74
     0
 42
0.000000001
 43
0.0000000001
 40
0.0
 40
0.0
 40
0.0
 40
0.0
 40
0.1044713672019873
 40
0.2119323851000491
 40
0.3163445225011194
 40
0.423689485464734
 40
0.5293635334201761
 40
0.6380566213830222
 40
0.7446586370741875
 40
0.8543843611307558
 40
0.9609052359269256
 40
0.9999999999999998
 40
0.9999999999999998
 40
0.9999999999999998
 40
0.9999999999999998
 10
276.0921726541492
 20
338.2531470175809
 30
0.0
 10
276.0403415658184
 20
337.249799842305
 30
0.0
 10
275.9351961420835
 20
335.2143927672869
 30
0.0
 10
275.7545395054185
 20
332.2630245284117
 30
0.0
 10
275.5629055926511
 20
329.4554850777377
 30
0.0
 10
275.371274677389
 20
326.9075093910751
 30
0.0
 10
275.1873695387003
 20
324.6467748840796
 30
0.0
 10
275.0246839968604
 20
322.7758147739323
 30
0.0
 10
274.8909308247494
 20
321.3147836304261
 30
0.0
 10
274.8029189874469
 20
320.3847905026114
 30
0.0
 10
274.7607132285994
 20
319.9472634340482
 30
0.0
 10
274.7667363981891
 20
320.0094188233443
 30
0.0
 10
274.7683534936878
 20
320.0261062499112
 30
0.0
  0
ARC
  5
2FF4E
330
16627
100
AcDbEntity
  8
0
100
AcDbCircle
 10
277.8321023356621
 20
376.939653421482
 30
0.0
 40
38.72561339779853
100
AcDbArc
 50
267.1402606532441
 51
267.4248516762018
  0
SPLINE
  5
2FF4F
330
16627
100
AcDbEntity
  8
0
100
AcDbSpline
210
0.0
220
0.0
230
1.0
 70
     8
 71
     3
 72
    10
 73
     6
 74
     0
 42
0.000000001
 43
0.0000000001
 40
0.0
 40
0.0
 40
0.0
 40
0.0
 40
0.2674881642992534
 40
0.5349668303216506
 40
1.0
 40
1.0
 40
1.0
 40
1.0
 10
276.0922024564716
 20
376.300579917056
 30
0.0
 10
276.233302044995
 20
372.9098110733967
 30
0.0
 10
276.5154962117194
 20
366.1283937893959
 30
0.0
 10
276.6449031418015
 20
353.4386847386695
 30
0.0
 10
276.3068101078534
 20
344.1500266404682
 30
0.0
 10
276.0921726541492
 20
338.2531470175809
 30
0.0
  0
SPLINE
  5
2FF50
330
16627
100
AcDbEntity
  8
0
100
AcDbSpline
210
0.0
220
0.0
230
1.0
 70
     8
 71
     3
 72
    10
 73
     6
 74
     0
 42
0.000000001
 43
0.0000000001
 40
0.0
 40
0.0
 40
0.0
 40
0.0
 40
0.2899248604266007
 40
0.5798406330127467
 40
1.0
 40
1.0
 40
1.0
 40
1.0
 10
-8.297794444682949
 20
264.8252314444608
 30
0.0
 10
-4.635462989317602
 20
264.8337548281261
 30
0.0
 10
2.689085123798577
 20
264.8508013282872
 30
0.0
 10
15.33450560893834
 20
264.8542980941265
 30
0.0
 10
24.3061019469933
 20
264.836036834894
 30
0.0
 10
29.61469540166581
 20
264.8252314444608
 30
0.0
  0
SPLINE
  5
2FF51
330
16627
100
AcDbEntity
  8
0
100
AcDbSpline
210
0.0
220
0.0
230
1.0
 70
     8
 71
     3
 72
    26
 73
    22
 74
     0
 42
0.000000001
 43
0.0000000001
 40
0.0
 40
0.0
 40
0.0
 40
0.0
 40
0.0608230187863193
 40
0.1216535600455963
 40
0.1748197689164833
 40
0.2279876109406984
 40
0.2816415820301153
 40
0.3352944829332491
 40
0.3893281908214344
 40
0.4433611605589928
 40
0.4972024741104569
 40
0.5510439396476509
 40
0.6048175036432487
 40
0.6585922823774584
 40
0.7124879302394499
 40
0.7663844178695865
 40
0.8204206491198084
 40
0.8744564534900604
 40
0.9282786486204658
 40
0.9821005707329009
 40
1.0
 40
1.0
 40
1.0
 40
1.0
 10
-8.297783268812054
 20
309.0337580557889
 30
0.0
 10
-9.709131912015436
 20
308.9425402881452
 30
0.0
 10
-12.5320037512829
 20
308.7600934712164
 30
0.0
 10
-16.43887629230812
 20
307.5371501143918
 30
0.0
 10
-19.90478498109587
 20
305.766567932892
 30
0.0
 10
-22.90242141107956
 20
303.5432528759729
 30
0.0
 10
-25.49063596527776
 20
300.8418615720902
 30
0.0
 10
-27.61627172461158
 20
297.7396546028604
 30
0.0
 10
-29.18482552315618
 20
294.31563972606
 30
0.0
 10
-30.16839224838259
 20
290.6805716944573
 30
0.0
 10
-30.51143709243115
 20
286.9417509510122
 30
0.0
 10
-30.23313175085059
 20
283.210470512443
 30
0.0
 10
-29.31770243610299
 20
279.5911444334806
 30
0.0
 10
-27.81598684613709
 20
276.1769826332775
 30
0.0
 10
-25.7456449299716
 20
273.0737296456455
 30
0.0
 10
-23.18418562834631
 20
270.3516377182487
 30
0.0
 10
-20.18457589082027
 20
268.1088819028473
 30
0.0
 10
-16.85045102416552
 20
266.3898794782099
 30
0.0
 10
-13.26875331388146
 20
265.2735532844699
 30
0.0
 10
-10.37519620719467
 20
264.8550907407253
 30
0.0
 10
-8.712701630709489
 20
264.8311950653724
 30
0.0
 10
-8.297794444682949
 20
264.8252314444608
 30
0.0
  0
SPLINE
  5
2FF52
330
16627
100
AcDbEntity
  8
0
100
AcDbSpline
210
0.0
220
0.0
230
1.0
 70
     8
 71
     3
 72
    10
 73
     6
 74
     0
 42
0.000000001
 43
0.0000000001
 40
0.0
 40
0.0
 40
0.0
 40
0.0
 40
0.2899250498272097
 40
0.5798410649891883
 40
1.0
 40
1.0
 40
1.0
 40
1.0
 10
29.61467677521432
 20
309.0338176604337
 30
0.0
 10
25.95234506149064
 20
309.056398787
 30
0.0
 10
18.62779575988315
 20
309.1015603364567
 30
0.0
 10
5.982387989941344
 20
309.115902583063
 30
0.0
 10
-2.989199243413168
 20
309.0642948832092
 30
0.0
 10
-8.297783268812054
 20
309.0337580557889
 30
0.0
  0
SPLINE
  5
2FF53
330
16627
100
AcDbEntity
  8
0
100
AcDbSpline
210
0.0
220
0.0
230
1.0
 70
     8
 71
     3
 72
    26
 73
    22
 74
     0
 42
0.000000001
 43
0.0000000001
 40
0.0
 40
0.0
 40
0.0
 40
0.0
 40
0.0608458701469492
 40
0.1216982311755417
 40
0.174838405989086
 40
0.2279805867978137
 40
0.2817129318265088
 40
0.3354476328097656
 40
0.3894327753529981
 40
0.4434181369151717
 40
0.4972608310806122
 40
0.5511054279805287
 40
0.6049046124892676
 40
0.6587051729126233
 40
0.7125390650732778
 40
0.7663721934573583
 40
0.820447645523089
 40
0.8745247625432641
 40
0.928369104736118
 40
0.9822132325655935
 40
1.0
 40
1.0
 40
1.0
 40
1.0
 10
29.61469540166581
 20
264.8252314444608
 30
0.0
 10
31.02657930952773
 20
264.9009329486935
 30
0.0
 10
33.85049774141226
 20
265.0523440327988
 30
0.0
 10
37.75766488711452
 20
266.2224719091419
 30
0.0
 10
41.22252662594473
 20
267.9391187432366
 30
0.0
 10
44.22123798456595
 20
270.1099538987064
 30
0.0
 10
46.81140885458444
 20
272.7650358349374
 30
0.0
 10
48.93671927521791
 20
275.827659562211
 30
0.0
 10
50.50392071802708
 20
279.2185534486298
 30
0.0
 10
51.48596856328004
 20
282.8301042730227
 30
0.0
 10
51.82818074634633
 20
286.5604291067966
 30
0.0
 10
51.54946254161405
 20
290.2984825636622
 30
0.0
 10
50.63315916415013
 20
293.9391409509835
 30
0.0
 10
49.12959748315916
 20
297.3843085559593
 30
0.0
 10
47.05990451222897
 20
300.5271669610547
 30
0.0
 10
44.50026312956106
 20
303.2970411875167
 30
0.0
 10
41.4997052876788
 20
305.591765086253
 30
0.0
 10
38.16315440059771
 20
307.3639756761941
 30
0.0
 10
34.57950393301144
 20
308.5303668909574
 30
0.0
 10
31.68736184257068
 20
308.9824145320772
 30
0.0
 10
30.02697079124118
 20
309.0235926616833
 30
0.0
 10
29.61467677521432
 20
309.0338176604337
 30
0.0
  0
ARC
  5
2FF54
330
16627
100
AcDbEntity
  8
0
100
AcDbCircle
 10
13.70880448148091
 20
309.0612520613022
 30
0.0
 40
15.90589595309951
100
AcDbArc
 50
359.9011765091818
 51
1.670377603264294
  0
SPLINE
  5
2FF55
330
16627
100
AcDbEntity
  8
0
100
AcDbSpline
210
0.0
220
0.0
230
1.0
 70
     8
 71
     3
 72
    28
 73
    24
 74
     0
 42
0.000000001
 43
0.0000000001
 40
0.0
 40
0.0
 40
0.0
 40
0.0
 40
0.0000008410536947
 40
0.0178773235166935
 40
0.0718717591302262
 40
0.1258660614438056
 40
0.1799575496630387
 40
0.2340468759420303
 40
0.2878165551999026
 40
0.3415866082643932
 40
0.3952915313568747
 40
0.4489940444437821
 40
0.5027329110565172
 40
0.5564707265428419
 40
0.6103597812396081
 40
0.6642501386395524
 40
0.7179236624459752
 40
0.771596975744748
 40
0.8247575339704349
 40
0.8779167275517934
 40
0.9389606896985029
 40
0.9999991589463052
 40
1.0
 40
1.0
 40
1.0
 40
1.0
 10
29.6079414503547
 20
309.5249003287381
 30
0.0
 10
29.60796131856842
 20
309.5249003287563
 30
0.0
 10
30.03027741940605
 20
309.5249006991207
 30
0.0
 10
31.72473370782973
 20
309.4298523701537
 30
0.0
 10
34.67477352801143
 20
308.971975781139
 30
0.0
 10
38.3201384669519
 20
307.7448758831188
 30
0.0
 10
41.7089063009771
 20
305.9216220251355
 30
0.0
 10
44.75081520728781
 20
303.5713817019596
 30
0.0
 10
47.34395106722149
 20
300.7453690345928
 30
0.0
 10
49.43912522558457
 20
297.545705997064
 30
0.0
 10
50.96105613618419
 20
294.0424739400978
 30
0.0
 10
51.8884314443967
 20
290.3431511687149
 30
0.0
 10
52.17056858618525
 20
286.5458467400049
 30
0.0
 10
51.82418109319769
 20
282.7563039989827
 30
0.0
 10
50.83025944814654
 20
279.0862505663345
 30
0.0
 10
49.24396762411561
 20
275.6374193427937
 30
0.0
 10
47.09232661121496
 20
272.5186412847752
 30
0.0
 10
44.46809366973684
 20
269.8068535275043
 30
0.0
 10
41.42763918475248
 20
267.5849285454742
 30
0.0
 10
37.9075177904997
 20
265.7993018193947
 30
0.0
 10
33.93074128246372
 20
264.6258946810549
 30
0.0
 10
31.04991742084531
 20
264.3038092695197
 30
0.0
 10
29.60798553295536
 20
264.3038100119547
 30
0.0
 10
29.60796566474164
 20
264.3038100119657
 30
0.0
  0
ARC
  5
2FF56
330
16627
100
AcDbEntity
  8
0
100
AcDbCircle
 10
10.58931448148723
 20
264.8100287871812
 30
0.0
 40
19.0253869941887
100
AcDbArc
 50
358.4753202267015
 51
0.0457834678257324
  0
SPLINE
  5
2FF57
330
16627
100
AcDbEntity
  8
0
100
AcDbSpline
210
0.0
220
0.0
230
1.0
 70
     8
 71
     3
 72
    28
 73
    24
 74
     0
 42
0.000000001
 43
0.0000000001
 40
0.0
 40
0.0
 40
0.0
 40
0.0
 40
0.0000008410535589
 40
0.017990521141187
 40
0.0719623348154861
 40
0.125933661608248
 40
0.179984701642296
 40
0.2340346435619232
 40
0.2878685254681779
 40
0.3417012440949387
 40
0.395378887857006
 40
0.449056196438307
 40
0.5027922480322701
 40
0.556526953590217
 40
0.6104652863563569
 40
0.6644029912992206
 40
0.7179954109259718
 40
0.7715881555005872
 40
0.8247761694975419
 40
0.8779627264278207
 40
0.9389837013108401
 40
0.9999991589464411
 40
1.0
 40
1.0
 40
1.0
 40
1.0
 10
-8.29105911982333
 20
264.3038100119657
 30
0.0
 10
-8.29107898804068
 20
264.3038100119547
 30
0.0
 10
-8.716069225501996
 20
264.3038097359595
 30
0.0
 10
-10.4126576317467
 20
264.374628791832
 30
0.0
 10
-13.36408978829786
 20
264.8089183362417
 30
0.0
 10
-17.00748485133226
 20
265.9850099774258
 30
0.0
 10
-20.39371865339126
 20
267.756656542987
 30
0.0
 10
-23.43477964647172
 20
270.0548887517753
 30
0.0
 10
-26.0297235991311
 20
272.8332245610718
 30
0.0
 10
-28.12549714159104
 20
275.9931061877423
 30
0.0
 10
-29.64557704933395
 20
279.465073108181
 30
0.0
 10
-30.57200880453456
 20
283.1428472021935
 30
0.0
 10
-30.85375845124145
 20
286.9332531258833
 30
0.0
 10
-30.50648752458073
 20
290.7313790932885
 30
0.0
 10
-29.51111141964793
 20
294.4251778045063
 30
0.0
 10
-27.92333481619062
 20
297.9073416296223
 30
0.0
 10
-25.77157204734249
 20
301.0659101468618
 30
0.0
 10
-23.14914693959872
 20
303.8239471968763
 30
0.0
 10
-20.10985332759446
 20
306.0976417441625
 30
0.0
 10
-16.58869819700339
 20
307.9383570049786
 30
0.0
 10
-12.61212578410414
 20
309.1542756911686
 30
0.0
 10
-9.732460055180126
 20
309.5249011814549
 30
0.0
 10
-8.291071537460084
 20
309.524900328749
 30
0.0
 10
-8.291051669242733
 20
309.5249003287381
 30
0.0
  0
ARC
  5
2FF58
330
16627
100
AcDbEntity
  8
0
100
AcDbCircle
 10
7.616339172556763
 20
309.0612562458801
 30
0.0
 40
15.91414619856642
100
AcDbArc
 50
178.3305036747041
 51
180.0990019195626
  0
ARC
  5
2FF59
330
16627
100
AcDbEntity
  8
0
100
AcDbCircle
 10
10.72927583563068
 20
264.8102544268686
 30
0.0
 40
19.02707617483912
100
AcDbArc
 50
179.9549000603187
 51
181.5252240877369
  0
SPLINE
  5
2FF5A
330
16627
100
AcDbEntity
  8
0
100
AcDbSpline
210
0.0
220
0.0
230
1.0
 70
     8
 71
     3
 72
    14
 73
    10
 74
     0
 42
0.000000001
 43
0.0000000001
 40
0.0
 40
0.0
 40
0.0
 40
0.0
 40
0.0000012110551488
 40
0.2148877702910025
 40
0.4297751008745458
 40
0.653555307790564
 40
0.8773350997501928
 40
0.9999987889448512
 40
1.0
 40
1.0
 40
1.0
 40
1.0
 10
-13.91791453790938
 20
257.2595542784757
 30
0.0
 10
-13.91789466969567
 20
257.2595542784757
 30
0.0
 10
-10.3925090159355
 20
257.2595541556393
 30
0.0
 10
-3.378876180642691
 20
257.3839564786058
 30
0.0
 10
7.349581356393173
 20
257.4063117276119
 30
0.0
 10
18.21474069428586
 20
257.3940577502463
 30
0.0
 10
27.57178153290806
 20
257.361458539438
 30
0.0
 10
33.22237823858813
 20
257.2595541639703
 30
0.0
 10
35.23478258815885
 20
257.2595542784757
 30
0.0
 10
35.2348024563762
 20
257.2595542784757
 30
0.0
  0
LINE
  5
2FF5B
330
16627
100
AcDbEntity
  8
0
100
AcDbLine
 10
-8.29105911982333
 20
264.3038100119657
 30
0.0
 11
-13.91791453790938
 21
257.2595542784757
 31
0.0
  0
SPLINE
  5
2FF5C
330
16627
100
AcDbEntity
  8
0
100
AcDbSpline
210
0.0
220
0.0
230
1.0
 70
     8
 71
     3
 72
    12
 73
     8
 74
     0
 42
0.000000001
 43
0.0000000001
 40
0.0
 40
0.0
 40
0.0
 40
0.0
 40
0.0000015721277016
 40
0.4201562717882663
 40
0.710080675231923
 40
0.9999984278722983
 40
1.0
 40
1.0
 40
1.0
 40
1.0
 10
29.60796566474164
 20
264.3038100119657
 30
0.0
 10
29.60794579652429
 20
264.3038100119657
 30
0.0
 10
24.29810034705224
 20
264.3038099487849
 30
0.0
 10
15.33463690721328
 20
264.3816303413614
 30
0.0
 10
2.689932726108963
 20
264.3737295667879
 30
0.0
 10
-4.627100587331369
 20
264.303809953034
 30
0.0
 10
-8.291039251609618
 20
264.3038100119657
 30
0.0
 10
-8.29105911982333
 20
264.3038100119657
 30
0.0
  0
LINE
  5
2FF5D
330
16627
100
AcDbEntity
  8
0
100
AcDbLine
 10
35.2348024563762
 20
257.2595542784757
 30
0.0
 11
29.60796566474164
 21
264.3038100119657
 31
0.0
  0
SPLINE
  5
2FF5E
330
16627
100
AcDbEntity
  8
0
100
AcDbSpline
210
0.0
220
0.0
230
1.0
 70
     8
 71
     3
 72
     9
 73
     5
 74
     0
 42
0.000000001
 43
0.0000000001
 40
0.0
 40
0.0
 40
0.0
 40
0.0
 40
0.999835940501083
 40
1.0
 40
1.0
 40
1.0
 40
1.0
 10
-14.42958129775798
 20
257.2594350691861
 30
0.0
 10
-14.23432370046066
 20
257.2594946705094
 30
0.0
 10
-14.03903406404061
 20
257.259554281608
 30
0.0
 10
-13.91793440546098
 20
257.2595542784757
 30
0.0
 10
-13.91791453790938
 20
257.2595542784757
 30
0.0
  0
SPLINE
  5
2FF5F
330
16627
100
AcDbEntity
  8
0
100
AcDbSpline
210
0.0
220
0.0
230
1.0
 70
     8
 71
     3
 72
    27
 73
    23
 74
     0
 42
0.000000001
 43
0.0000000001
 40
0.0
 40
0.0
 40
0.0
 40
0.0
 40
0.0202770615823403
 40
0.0747765861544985
 40
0.1292770134838912
 40
0.1830511238632481
 40
0.2368230574553749
 40
0.289473616480395
 40
0.3421186680626518
 40
0.3941880712290406
 40
0.4462527486505363
 40
0.4919788767214847
 40
0.5377043479245347
 40
0.5911587364774553
 40
0.6446184155105077
 40
0.6988338102872756
 40
0.7530548900884686
 40
0.8071872029568556
 40
0.8613222182624323
 40
0.9133642395904333
 40
0.9654058918056088
 40
1.0
 40
1.0
 40
1.0
 40
1.0
 10
-14.42963717711245
 20
315.6588143225736
 30
0.0
 10
-15.05138453154723
 20
315.6349100169309
 30
0.0
 10
-17.34422880912825
 20
315.5467570879109
 30
0.0
 10
-21.27424884075663
 20
314.8606278813777
 30
0.0
 10
-26.01757228686984
 20
313.2284625923266
 30
0.0
 10
-30.39947787452547
 20
310.8187003575358
 30
0.0
 10
-34.29542791981294
 20
307.7678107014244
 30
0.0
 10
-37.61068178129426
 20
304.133793575219
 30
0.0
 10
-40.28133188766878
 20
300.0601416387426
 30
0.0
 10
-42.23527377000573
 20
295.6179788227846
 30
0.0
 10
-43.40209498027616
 20
291.1326175972927
 30
0.0
 10
-43.83018482321131
 20
286.7304142423663
 30
0.0
 10
-43.62541646886529
 20
282.2826948654465
 30
0.0
 10
-42.65898146721156
 20
277.705628304072
 30
0.0
 10
-40.85206667183229
 20
273.1327668768854
 30
0.0
 10
-38.26674904571337
 20
268.9423768185543
 30
0.0
 10
-35.00379855963911
 20
265.2387237254107
 30
0.0
 10
-31.14703060360625
 20
262.1603808209138
 30
0.0
 10
-26.88288170272063
 20
259.7852392948471
 30
0.0
 10
-22.32824092693045
 20
258.1798728729364
 30
0.0
 10
-18.14721732800171
 20
257.3708284223822
 30
0.0
 10
-15.49044447065898
 20
257.2912222331679
 30
0.0
 10
-14.42958129775798
 20
257.2594350691861
 30
0.0
  0
SPLINE
  5
2FF60
330
16627
100
AcDbEntity
  8
0
100
AcDbSpline
210
0.0
220
0.0
230
1.0
 70
     8
 71
     3
 72
     9
 73
     5
 74
     0
 42
0.000000001
 43
0.0000000001
 40
0.0
 40
0.0
 40
0.0
 40
0.0
 40
0.0001159998978841
 40
1.0
 40
1.0
 40
1.0
 40
1.0
 10
-13.91791453790938
 20
315.6683510657376
 30
0.0
 10
-13.91793440613037
 20
315.6683510657595
 30
0.0
 10
-14.08921231259592
 20
315.6683512501868
 30
0.0
 10
-14.25943461773931
 20
315.6635825097938
 30
0.0
 10
-14.42963717711245
 20
315.6588143225736
 30
0.0
  0
LINE
  5
2FF61
330
16627
100
AcDbEntity
  8
0
100
AcDbLine
 10
-8.291051669242733
 20
309.5249003287381
 30
0.0
 11
-13.91791453790938
 21
315.6683510657376
 31
0.0
  0
SPLINE
  5
2FF62
330
16627
100
AcDbEntity
  8
0
100
AcDbSpline
210
0.0
220
0.0
230
1.0
 70
     8
 71
     3
 72
     9
 73
     5
 74
     0
 42
0.000000001
 43
0.0000000001
 40
0.0
 40
0.0
 40
0.0
 40
0.0
 40
0.9998839954954467
 40
1.0
 40
1.0
 40
1.0
 40
1.0
 10
35.74650460648263
 20
315.6588143225736
 30
0.0
 10
35.57630889082793
 20
315.6635825098156
 30
0.0
 10
35.40609342941389
 20
315.6683512502523
 30
0.0
 10
35.23482232459355
 20
315.6683510657595
 30
0.0
 10
35.2348024563762
 20
315.6683510657376
 30
0.0
  0
SPLINE
  5
2FF63
330
16627
100
AcDbEntity
  8
0
100
AcDbSpline
210
0.0
220
0.0
230
1.0
 70
     8
 71
     3
 72
    27
 73
    23
 74
     0
 42
0.000000001
 43
0.0000000001
 40
0.0
 40
0.0
 40
0.0
 40
0.0
 40
0.0202439283733649
 40
0.0747428425518213
 40
0.129242739035441
 40
0.1830170165934394
 40
0.2367896354882872
 40
0.289439624057483
 40
0.3420847413569858
 40
0.3941570257571189
 40
0.446224056436317
 40
0.4919659818849226
 40
0.5377083088948114
 40
0.5911566797870595
 40
0.6446108660554341
 40
0.6988257460461568
 40
0.7530466342337298
 40
0.8071818198331278
 40
0.8613192434280383
 40
0.9133626166638517
 40
0.965405305462302
 40
1.0
 40
1.0
 40
1.0
 40
1.0
 10
35.74655676054681
 20
257.2594946738309
 30
0.0
 10
36.36728349862096
 20
257.2705192458698
 30
0.0
 10
38.65907588180198
 20
257.3112231960613
 30
0.0
 10
42.58809597416257
 20
257.9030117497087
 30
0.0
 10
47.33161737320552
 20
259.4040979887495
 30
0.0
 10
51.71380225226312
 20
261.6759933415297
 30
0.0
 10
55.6100238172803
 20
264.5917417749906
 30
0.0
 10
58.92572270907113
 20
268.1005807725478
 30
0.0
 10
61.59675821270139
 20
272.0671424439633
 30
0.0
 10
63.55122053133891
 20
276.4274134935868
 30
0.0
 10
64.71861507832727
 20
280.8627197620908
 30
0.0
 10
65.14712045617852
 20
285.2472624257089
 30
0.0
 10
64.94239363243469
 20
289.7047346289937
 30
0.0
 10
63.97588228611858
 20
294.3241158782466
 30
0.0
 10
62.16920412827676
 20
298.9730603105045
 30
0.0
 10
59.58406703946093
 20
303.2682381366712
 30
0.0
 10
56.32115039245036
 20
307.0963927977418
 30
0.0
 10
52.46445267828676
 20
310.3107770883971
 30
0.0
 10
48.20002384377949
 20
312.8225907654623
 30
0.0
 10
43.6452395976994
 20
314.5566116095279
 30
0.0
 10
39.46418080908188
 20
315.4696593035578
 30
0.0
 10
36.80737789080013
 20
315.6048371886527
 30
0.0
 10
35.74650460648263
 20
315.6588143225736
 30
0.0
  0
SPLINE
  5
2FF64
330
16627
100
AcDbEntity
  8
0
100
AcDbSpline
210
0.0
220
0.0
230
1.0
 70
     8
 71
     3
 72
     9
 73
     5
 74
     0
 42
0.000000001
 43
0.0000000001
 40
0.0
 40
0.0
 40
0.0
 40
0.0
 40
0.0001640316681775
 40
1.0
 40
1.0
 40
1.0
 40
1.0
 10
35.2348024563762
 20
257.2595542784757
 30
0.0
 10
35.23482232392416
 20
257.2595542784757
 30
0.0
 10
35.35594252975352
 20
257.2595542798945
 30
0.0
 10
35.55126566474064
 20
257.259524474418
 30
0.0
 10
35.74655676054681
 20
257.2594946738309
 30
0.0
  0
LINE
  5
2FF65
330
16627
100
AcDbEntity
  8
0
100
AcDbLine
 10
29.6079414503547
 20
309.5249003287381
 30
0.0
 11
35.2348024563762
 21
315.6683510657376
 31
0.0
  0
SPLINE
  5
2FF66
330
16627
100
AcDbEntity
  8
0
100
AcDbSpline
210
0.0
220
0.0
230
1.0
 70
     8
 71
     3
 72
    12
 73
     8
 74
     0
 42
0.000000001
 43
0.0000000001
 40
0.0
 40
0.0
 40
0.0
 40
0.0
 40
0.1226645393291881
 40
0.3462639487753267
 40
0.570225015082511
 40
0.7849519950974036
 40
1.0
 40
1.0
 40
1.0
 40
1.0
 10
35.15717858242715
 20
256.6689914580411
 30
0.0
 10
33.15807186939855
 20
256.6878623752227
 30
0.0
 10
27.5148877164138
 20
256.7411321982354
 30
0.0
 10
18.19603647396798
 20
256.7899015877438
 30
0.0
 10
7.363787118501932
 20
256.7988331982806
 30
0.0
 10
-3.326527652159711
 20
256.7628444073516
 30
0.0
 10
-10.33395823568207
 20
256.7002913493661
 30
0.0
 10
-13.84029066396033
 20
256.6689914580411
 30
0.0
  0
ARC
  5
2FF67
330
16627
100
AcDbEntity
  8
0
100
AcDbCircle
 10
-11.92925088119227
 20
257.2205623583459
 30
0.0
 40
1.98904587915602
100
AcDbArc
 50
178.876740051309
 51
196.0993803397411
  0
ARC
  5
2FF68
330
16627
100
AcDbEntity
  8
0
100
AcDbCircle
 10
33.24613879965546
 20
257.2205623583459
 30
0.0
 40
1.989045879155907
100
AcDbArc
 50
343.9006196602588
 51
1.123259948691008
  0
LWPOLYLINE
  5
2FF69
330
16627
100
AcDbEntity
  8
0
100
AcDbPolyline
 90
        9
 70
   128
 43
0.0
 10
35.74650460648263
 20
315.6588143225736
 10
35.73912853169168
 20
315.7604402419156
 10
35.73036664890969
 20
315.8503836508817
 10
35.72036983239377
 20
315.9270948287076
 10
35.70931130814279
 20
315.9893220778531
 10
35.69737920331681
 20
316.0358733054227
 10
35.68477840888227
 20
316.0660332556791
 10
35.67172499167646
 20
316.0792654868192
 10
35.65844433176244
 20
316.075331580264
  0
SPLINE
  5
2FF6A
330
16627
100
AcDbEntity
  8
0
100
AcDbSpline
210
0.0
220
0.0
230
1.0
 70
     8
 71
     3
 72
    27
 73
    23
 74
     0
 42
0.000000001
 43
0.0000000001
 40
0.0
 40
0.0
 40
0.0
 40
0.0
 40
0.0344144396470535
 40
0.0862785022253556
 40
0.1381444195265645
 40
0.1922342599587822
 40
0.2463230011776246
 40
0.3006223445698946
 40
0.354916737735415
 40
0.4085374204999313
 40
0.4621535853183433
 40
0.5080620591750805
 40
0.5539709199484321
 40
0.6061924053502051
 40
0.6584172443181951
 40
0.7111288973890014
 40
0.7638439161998124
 40
0.8175585072707026
 40
0.8712735573989151
 40
0.9255712867641246
 40
0.9798666273604059
 40
1.0
 40
1.0
 40
1.0
 40
1.0
 10
35.65844433176244
 20
316.075331580264
 30
0.0
 10
36.73500199237242
 20
316.0305967942795
 30
0.0
 10
39.43397903425648
 20
315.9184447333455
 30
0.0
 10
43.68872990414092
 20
315.0206111670805
 30
0.0
 10
48.33259792230456
 20
313.2813896355683
 30
0.0
 10
52.68522619058058
 20
310.7392744339331
 30
0.0
 10
56.62757159477405
 20
307.4704411609555
 30
0.0
 10
59.96423339919783
 20
303.5677461421355
 30
0.0
 10
62.61007017840166
 20
299.1803792883938
 30
0.0
 10
64.45936952401462
 20
294.4276524651386
 30
0.0
 10
65.448911859683
 20
289.7013943816373
 30
0.0
 10
65.65861831073198
 20
285.1396120017662
 30
0.0
 10
65.21977398903619
 20
280.6522633066006
 30
0.0
 10
64.0245595896813
 20
276.1133553053942
 30
0.0
 10
62.02406264515594
 20
271.6543075395957
 30
0.0
 10
59.29055918218728
 20
267.6007755848359
 30
0.0
 10
55.9004132123955
 20
264.022050229275
 30
0.0
 10
51.9184082845386
 20
261.0561534766666
 30
0.0
 10
47.44681412952559
 20
258.7581530833186
 30
0.0
 10
42.61247041960451
 20
257.2576326390399
 30
0.0
 10
38.61577516806574
 20
256.6866581663771
 30
0.0
 10
36.28809461067067
 20
256.6684368075976
 30
0.0
 10
35.65844433176244
 20
256.6635078307218
 30
0.0
  0
ARC
  5
2FF6B
330
16627
100
AcDbEntity
  8
0
100
AcDbCircle
 10
33.95128418319291
 20
257.220406174175
 30
0.0
 40
1.795698064209509
100
AcDbArc
 50
341.9329851828365
 51
1.24730488342254
  0
ARC
  5
2FF6C
330
16627
100
AcDbEntity
  8
0
100
AcDbCircle
 10
-12.63257709043319
 20
257.2204072522245
 30
0.0
 40
1.797427965633378
100
AcDbArc
 50
178.7558305626303
 51
198.0490634139433
  0
SPLINE
  5
2FF6D
330
16627
100
AcDbEntity
  8
0
100
AcDbSpline
210
0.0
220
0.0
230
1.0
 70
     8
 71
     3
 72
    27
 73
    23
 74
     0
 42
0.000000001
 43
0.0000000001
 40
0.0
 40
0.0
 40
0.0
 40
0.0
 40
0.0344123021878396
 40
0.0855929925248426
 40
0.1381380353444328
 40
0.1914579253680729
 40
0.2463139531676084
 40
0.2998186167089021
 40
0.3549086201713651
 40
0.4077411841788006
 40
0.4621579694407756
 40
0.5075456463772432
 40
0.553941191529249
 40
0.6054303759752817
 40
0.6583838722137907
 40
0.7103704006240884
 40
0.7638106340399826
 40
0.8167730531685188
 40
0.871240236057903
 40
0.9247545354744598
 40
0.9798338586281685
 40
0.9999999999999998
 40
0.9999999999999998
 40
0.9999999999999998
 40
0.9999999999999998
 10
-14.34155641329562
 20
256.6635078307218
 30
0.0
 10
-15.4180581468463
 20
256.6855222926888
 30
0.0
 10
-18.09561817551366
 20
256.7402783990501
 30
0.0
 10
-22.35207850509687
 20
257.5225438514562
 30
0.0
 10
-26.97322120188983
 20
259.1266665728899
 30
0.0
 10
-31.35076488858977
 20
261.5297197143582
 30
0.0
 10
-35.27315474876377
 20
264.6507290965737
 30
0.0
 10
-38.63679960059381
 20
268.4366942707447
 30
0.0
 10
-41.26818206332609
 20
272.7016625600509
 30
0.0
 10
-43.14108447866965
 20
277.3949582759187
 30
0.0
 10
-44.12520882954777
 20
282.0658704380175
 30
0.0
 10
-44.3457601588052
 20
286.6415603774212
 30
0.0
 10
-43.90724674535158
 20
291.1240840336641
 30
0.0
 10
-42.72159684880898
 20
295.7305352327667
 30
0.0
 10
-40.72815158623052
 20
300.2499804489989
 30
0.0
 10
-37.99417619572341
 20
304.4359827960316
 30
0.0
 10
-34.61794635106344
 20
308.1208023536337
 30
0.0
 10
-30.62750227304423
 20
311.2461354138168
 30
0.0
 10
-26.1755649489387
 20
313.6685712879798
 30
0.0
 10
-21.32476408821458
 20
315.3223503079962
 30
0.0
 10
-17.32548920085537
 20
315.9886460556545
 30
0.0
 10
-14.97223870683956
 20
316.0570097783448
 30
0.0
 10
-14.34155641329562
 20
316.075331580264
 30
0.0
  0
LWPOLYLINE
  5
2FF6E
330
16627
100
AcDbEntity
  8
0
100
AcDbPolyline
 90
        9
 70
   128
 43
0.0
 10
-14.42963717711245
 20
315.6588143225736
 10
-14.42225923967635
 20
315.7604402419156
 10
-14.41349549424922
 20
315.8503836508817
 10
-14.40349681508815
 20
315.9270948287076
 10
-14.39243456554686
 20
315.9892624732083
 10
-14.38050059807574
 20
316.0358733054227
 10
-14.36789607835089
 20
316.0660332556791
 10
-14.35484079849993
 20
316.0792654868192
 10
-14.34155641329562
 20
316.075331580264
  0
ELLIPSE
  5
2FF6F
330
16627
100
AcDbEntity
  8
0
100
AcDbEllipse
 10
10.65844395923704
 20
226.3190311610442
 30
0.0
 11
260.0
 21
-0.0000000000027922
 31
0.0
210
0.0
220
0.0
230
1.0
 40
0.1132075243635558
 41
1.474493694721958
 42
1.667098958867838
  0
LINE
  5
2FF70
330
16627
100
AcDbEntity
  8
0
100
AcDbLine
 10
-14.34155641329562
 20
256.6635078307218
 30
0.0
 11
-14.34155641329562
 21
255.6166118498868
 31
0.0
  0
LINE
  5
2FF71
330
16627
100
AcDbEntity
  8
0
100
AcDbLine
 10
-13.84029066396033
 20
256.6689914580411
 30
0.0
 11
-14.34155641329562
 21
256.6635078307218
 31
0.0
  0
LINE
  5
2FF72
330
16627
100
AcDbEntity
  8
0
100
AcDbLine
 10
35.65844433176244
 20
256.6635078307218
 30
0.0
 11
35.15717858242715
 21
256.6689914580411
 31
0.0
  0
LINE
  5
2FF73
330
16627
100
AcDbEntity
  8
0
100
AcDbLine
 10
35.65844433176244
 20
256.6635078307218
 30
0.0
 11
35.65844433176244
 21
255.6166118498868
 31
0.0
  0
SPLINE
  5
2FF74
330
16627
100
AcDbEntity
  8
0
100
AcDbSpline
210
0.0
220
0.0
230
1.0
 70
     8
 71
     3
 72
    18
 73
    14
 74
     0
 42
0.000000001
 43
0.0000000001
 40
0.0
 40
0.0
 40
0.0
 40
0.0
 40
0.0173902862598968
 40
0.1239678243831635
 40
0.2336914110954484
 40
0.3393985196324287
 40
0.4481174733439659
 40
0.5517634211917376
 40
0.6582827588510578
 40
0.7606632334353099
 40
0.8659250947554124
 40
0.9691728560866579
 40
1.0
 40
1.0
 40
1.0
 40
1.0
 10
-14.34155641329562
 20
255.6166118498868
 30
0.0
 10
-14.61568361058744
 20
255.6159744560382
 30
0.0
 10
-16.56981776022439
 20
255.6114307511553
 30
0.0
 10
-20.24645723443973
 20
255.9858827662092
 30
0.0
 10
-25.13211112885983
 20
257.3198990855517
 30
0.0
 10
-29.73351816228751
 20
259.4639807868725
 30
0.0
 10
-33.81823985284791
 20
262.2889673256131
 30
0.0
 10
-37.37335967356194
 20
265.7633609732757
 30
0.0
 10
-40.23672947950763
 20
269.7092034041298
 30
0.0
 10
-42.43155812484838
 20
274.1122190429187
 30
0.0
 10
-43.7906114094003
 20
278.7886447894298
 30
0.0
 10
-44.40018424942173
 20
282.5362814614154
 30
0.0
 10
-44.27314417289744
 20
284.6493172272667
 30
0.0
 10
-44.24393451047217
 20
285.1351565238065
 30
0.0
  0
SPLINE
  5
2FF75
330
16627
100
AcDbEntity
  8
0
100
AcDbSpline
210
0.0
220
0.0
230
1.0
 70
     8
 71
     3
 72
    17
 73
    13
 74
     0
 42
0.000000001
 43
0.0000000001
 40
0.0
 40
0.0
 40
0.0
 40
0.0
 40
0.0849056790998212
 40
0.1827325090153984
 40
0.2833841368903568
 40
0.3815544484211084
 40
0.4824691334313542
 40
0.5825242452235182
 40
0.6853935063598407
 40
0.7869726764173964
 40
0.8915000500992542
 40
1.0
 40
1.0
 40
1.0
 40
1.0
 10
65.48404419588769
 20
287.3924440260953
 30
0.0
 10
65.5690579771981
 20
285.9887291241639
 30
0.0
 10
65.75202314188572
 20
282.9676786044429
 30
0.0
 10
65.0300353037419
 20
278.3289532585359
 30
0.0
 10
63.56795519833759
 20
273.6789599137401
 30
0.0
 10
61.31156938535787
 20
269.3149312399755
 30
0.0
 10
58.37627825127128
 20
265.4052524570898
 30
0.0
 10
54.77177614528773
 20
261.995031855563
 30
0.0
 10
50.62885594987893
 20
259.224102433257
 30
0.0
 10
45.99820410049869
 20
257.1693922750519
 30
0.0
 10
40.9735268869772
 20
255.8292711061795
 30
0.0
 10
37.45202838673504
 20
255.6883740938892
 30
0.0
 10
35.65844433176244
 20
255.6166118498868
 30
0.0
  0
SPLINE
  5
2FF76
330
16627
100
AcDbEntity
  8
0
100
AcDbSpline
210
0.0
220
0.0
230
1.0
 70
     8
 71
     3
 72
    12
 73
     8
 74
     0
 42
0.000000001
 43
0.0000000001
 40
0.0
 40
0.0
 40
0.0
 40
0.0
 40
0.0000015721290415
 40
0.4201557662864723
 40
0.7100804343589797
 40
0.9999984278709584
 40
1.0
 40
1.0
 40
1.0
 40
1.0
 10
-8.291051669242733
 20
309.5249003287381
 30
0.0
 10
-8.291031801029021
 20
309.5249003287381
 30
0.0
 10
-2.981197265755326
 20
309.5249002909795
 30
0.0
 10
5.982257049210602
 20
309.5689893532026
 30
0.0
 10
18.62695047120723
 20
309.5629046972927
 30
0.0
 10
25.94398299603563
 20
309.5249002815244
 30
0.0
 10
29.60792158213735
 20
309.5249003287381
 30
0.0
 10
29.6079414503547
 20
309.5249003287381
 30
0.0
  0
SPLINE
  5
2FF77
330
16627
100
AcDbEntity
  8
0
100
AcDbSpline
210
0.0
220
0.0
230
1.0
 70
     8
 71
     3
 72
    14
 73
    10
 74
     0
 42
0.000000001
 43
0.0000000001
 40
0.0
 40
0.0
 40
0.0
 40
0.0
 40
0.0000012110550754
 40
0.2148877787658853
 40
0.4297751101765964
 40
0.6535553103066395
 40
0.8773350404069992
 40
0.9999987889449247
 40
1.0
 40
1.0
 40
1.0
 40
1.0
 10
35.2348024563762
 20
315.6683510657376
 30
0.0
 10
35.23478258815885
 20
315.6683510657376
 30
0.0
 10
31.70939658239149
 20
315.6683510098219
 30
0.0
 10
24.6957646181545
 20
315.7457235673746
 30
0.0
 10
13.96730620079324
 20
315.7592939615051
 30
0.0
 10
3.102150112768867
 20
315.751791932983
 30
0.0
 10
-6.254898850507743
 20
315.7316937740643
 30
0.0
 10
-11.90548922465314
 20
315.668350996747
 30
0.0
 10
-13.91789466969567
 20
315.6683510657376
 30
0.0
 10
-13.91791453790938
 20
315.6683510657376
 30
0.0
  0
ARC
  5
2FF78
330
16627
100
AcDbEntity
  8
0
100
AcDbCircle
 10
-13.33809814837877
 20
315.7721449280243
 30
0.0
 40
0.5890332854921643
100
AcDbArc
 50
148.4923826311009
 51
190.1491106586126
  0
SPLINE
  5
2FF79
330
16627
100
AcDbEntity
  8
0
100
AcDbSpline
210
0.0
220
0.0
230
1.0
 70
     8
 71
     3
 72
    12
 73
     8
 74
     0
 42
0.000000001
 43
0.0000000001
 40
0.0
 40
0.0
 40
0.0
 40
0.0
 40
0.1226645819120769
 40
0.3462639766189157
 40
0.5702250285517258
 40
0.7849519877768471
 40
1.0
 40
1.0
 40
1.0
 40
1.0
 10
-13.84029066396033
 20
316.0799807425565
 30
0.0
 10
-11.84118411357485
 20
316.0959599983462
 30
0.0
 10
-6.198001924942218
 20
316.1410670746254
 30
0.0
 10
3.120851942323497
 20
316.1822932415953
 30
0.0
 10
13.95310036805313
 20
316.189862128459
 30
0.0
 10
24.64341644982051
 20
316.1594115684229
 30
0.0
 10
31.65084629456032
 20
316.1064708672011
 30
0.0
 10
35.15717858242715
 20
316.0799807425565
 30
0.0
  0
ARC
  5
2FF7A
330
16627
100
AcDbEntity
  8
0
100
AcDbCircle
 10
34.65498606684196
 20
315.7721449280243
 30
0.0
 40
0.5890332854921084
100
AcDbArc
 50
349.8508893413874
 51
31.5076173688991
  0
LINE
  5
2FF7B
330
16627
100
AcDbEntity
  8
0
100
AcDbLine
 10
-14.34155641329562
 20
316.075331580264
 30
0.0
 11
-13.84029066396033
 21
316.0799807425565
 31
0.0
  0
LINE
  5
2FF7C
330
16627
100
AcDbEntity
  8
0
100
AcDbLine
 10
35.15717858242715
 20
316.0799807425565
 30
0.0
 11
35.65844433176244
 21
316.075331580264
 31
0.0
  0
ARC
  5
2FF7D
330
16627
100
AcDbEntity
  8
0
100
AcDbCircle
 10
10.65844395923341
 20
-406.9231086853915
 30
0.0
 40
57.5
100
AcDbArc
 50
163.0425737057598
 51
16.95739446802793
  0
LWPOLYLINE
  5
2FF7E
330
16627
100
AcDbEntity
  8
0
100
AcDbPolyline
 90
       15
 70
   128
 43
0.0
 10
-57.56112834644591
 20
254.8651760932035
 10
-59.70655283165251
 20
254.9578017111844
 10
-61.96296861601149
 20
255.0146645423001
 10
-64.27633663845336
 20
255.0345128890104
 10
-66.59126928282057
 20
255.0167507048673
 10
-68.85233422947203
 20
254.9619144316739
 10
-71.00538810920989
 20
254.8713153716153
 10
-72.99887290430342
 20
254.7469800826139
 10
-74.78505274486815
 20
254.5920676108426
 10
-76.32116874885833
 20
254.4101542349881
 10
-77.57042994928633
 20
254.2057103034085
 10
-78.50292226505553
 20
253.9835041876859
 10
-79.09632375669753
 20
253.7489599104947
 10
-79.3364187164334
 20
253.5076207037992
 10
-79.34155961704528
 20
253.4666127081937
  0
LWPOLYLINE
  5
2FF7F
330
16627
100
AcDbEntity
  8
0
100
AcDbPolyline
 90
       15
 70
   128
 43
0.0
 10
100.6584475355121
 20
253.4666127081937
 10
100.6533066349002
 20
253.5076207037992
 10
100.4132116751643
 20
253.7489599104947
 10
99.81981018352236
 20
253.9835041876859
 10
98.88731786775316
 20
254.2057103034085
 10
97.63805666732515
 20
254.4101542349881
 10
96.10194066333498
 20
254.5920676108426
 10
94.31576082277024
 20
254.7469800826139
 10
92.3222760276767
 20
254.8713153716153
 10
90.16922214793885
 20
254.9619144316739
 10
87.90815720128739
 20
255.0167507048673
 10
85.59322455692017
 20
255.0345128890104
 10
83.2798565344783
 20
255.0146645423001
 10
81.02344075011933
 20
254.9578017111844
 10
78.87801626491273
 20
254.8651760932035
  0
LWPOLYLINE
  5
2FF80
330
16627
100
AcDbEntity
  8
0
100
AcDbPolyline
 90
        4
 70
   128
 43
0.0
 10
78.87801626491273
 20
254.8651760932035
 10
72.15106585788453
 20
254.5303768035001
 10
65.27424702214921
 20
254.2307442542142
 10
61.27094948458398
 20
254.0750569220609
  0
LWPOLYLINE
  5
2FF81
330
16627
100
AcDbEntity
  8
0
100
AcDbPolyline
 90
        4
 70
   128
 43
0.0
 10
-39.96587073636329
 20
254.0754741545743
 10
-43.95735910368239
 20
254.2307442542142
 10
-50.83417793941771
 20
254.5303768035001
 10
-57.56112834644591
 20
254.8651760932035
  0
SPLINE
  5
2FF82
330
16627
100
AcDbEntity
  8
0
100
AcDbSpline
210
0.0
220
0.0
230
1.0
 70
     8
 71
     3
 72
    17
 73
    13
 74
     0
 42
0.000000001
 43
0.0000000001
 40
0.0
 40
0.0
 40
0.0
 40
0.0
 40
0.1107795304040399
 40
0.2215657419022964
 40
0.3323070115113107
 40
0.4430502781533477
 40
0.5545049668699838
 40
0.6659513769516904
 40
0.7767548622052259
 40
0.8875476441059838
 40
0.9961706412198035
 40
1.0
 40
1.0
 40
1.0
 40
1.0
 10
-14.34155641329562
 20
255.462116610629
 30
0.0
 10
-16.03853152392185
 20
255.5285274436347
 30
0.0
 10
-19.4325840894453
 20
255.6613531148678
 30
0.0
 10
-24.36801828277021
 20
256.9131521842383
 30
0.0
 10
-29.00506999251229
 20
258.9179210440516
 30
0.0
 10
-33.23866273018211
 20
261.674141955099
 30
0.0
 10
-36.9331429281192
 20
265.1216134408269
 30
0.0
 10
-39.98784003809124
 20
269.1472220336645
 30
0.0
 10
-42.31365975389053
 20
273.6518109881463
 30
0.0
 10
-43.7399133036597
 20
278.4603702228551
 30
0.0
 10
-44.37282818047606
 20
281.8518307742989
 30
0.0
 10
-44.30325590482971
 20
283.5725563673504
 30
0.0
 10
-44.30088674855506
 20
283.6311525221891
 30
0.0
  0
LINE
  5
2FF83
330
16627
100
AcDbEntity
  8
0
100
AcDbLine
 10
-44.11873495412146
 20
288.4413665648526
 30
0.0
 11
-44.01262005996978
 21
288.9514035101957
 31
0.0
  0
LINE
  5
2FF84
330
16627
100
AcDbEntity
  8
0
100
AcDbLine
 10
65.26983627843583
 20
288.900620352847
 30
0.0
 11
65.40272483396257
 21
287.8733939047879
 31
0.0
  0
SPLINE
  5
2FF85
330
16627
100
AcDbEntity
  8
0
100
AcDbSpline
210
0.0
220
0.0
230
1.0
 70
     8
 71
     3
 72
    17
 73
    13
 74
     0
 42
0.000000001
 43
0.0000000001
 40
0.0
 40
0.0
 40
0.0
 40
0.0
 40
0.0715781645645138
 40
0.1766585830574686
 40
0.2817466701359002
 40
0.3875814818418371
 40
0.493425412419136
 40
0.6013833429245566
 40
0.7093427262153439
 40
0.8186528980961472
 40
0.9279571781362839
 40
1.0
 40
1.0
 40
1.0
 40
1.0
 10
65.56246528196061
 20
284.525997054202
 30
0.0
 10
65.55291244898763
 20
283.4076243449881
 30
0.0
 10
65.52933556702192
 20
280.6474231112434
 30
0.0
 10
64.53789973326275
 20
276.3544476192647
 30
0.0
 10
62.77893881647833
 20
271.7846815709627
 30
0.0
 10
60.23745378006424
 20
267.5928392129599
 30
0.0
 10
57.02804082863804
 20
263.8466401151081
 30
0.0
 10
53.19512219270473
 20
260.6847130018095
 30
0.0
 10
48.83718769254119
 20
258.1635670193418
 30
0.0
 10
44.07321977246829
 20
256.4250173244427
 30
0.0
 10
39.61405674571506
 20
255.5511511043251
 30
0.0
 10
36.78308842282422
 20
255.4874305460607
 30
0.0
 10
35.65844433176244
 20
255.462116610629
 30
0.0
  0
LWPOLYLINE
  5
2FF86
330
16627
100
AcDbEntity
  8
0
100
AcDbPolyline
 90
        9
 70
   128
 43
0.0
 10
-14.34155641329562
 20
255.462116610629
 10
-8.10434384477412
 20
255.5173701163358
 10
-1.856173334839695
 20
255.5568879958219
 10
4.399307125982886
 20
255.5806106444425
 10
10.65844395923341
 20
255.5885380621976
 10
16.91758079248393
 20
255.5806106444425
 10
23.17306125330651
 20
255.5568879958219
 10
29.42123176324094
 20
255.5173701163358
 10
35.65844433176244
 20
255.462116610629
  0
LINE
  5
2FF87
330
16627
100
AcDbEntity
  8
0
100
AcDbLine
 10
35.65844433176244
 20
380.7085818167752
 30
0.0
 11
-14.34155641329562
 21
380.7085818167752
 31
0.0
  0
ELLIPSE
  5
2FF88
330
16627
100
AcDbEntity
  8
0
100
AcDbEllipse
 10
-14.34155604076659
 20
349.1647200763173
 30
0.0
 11
0.0000000000000077
 21
31.54386672714782
 31
0.0
210
0.0
220
0.0
230
1.0
 40
0.9510565162951579
 41
0.0
 42
1.570796326794896
  0
ELLIPSE
  5
2FF89
330
16627
100
AcDbEntity
  8
0
100
AcDbEllipse
 10
35.65844395923341
 20
349.1647200763173
 30
0.0
 11
0.0000000000000077
 21
31.54386672714782
 31
0.0
210
0.0
220
0.0
230
1.0
 40
0.9510565162951596
 41
4.712388980384702
 42
6.283185307179586
  0
LINE
  5
2FF8A
330
16627
100
AcDbEntity
  8
0
100
AcDbLine
 10
-14.34155641329562
 20
-438.4669744852954
 30
0.0
 11
35.65844433176244
 21
-438.4669744852954
 31
0.0
  0
ELLIPSE
  5
2FF8B
330
16627
100
AcDbEntity
  8
0
100
AcDbEllipse
 10
35.65844395923341
 20
-406.9231086853915
 30
0.0
 11
-0.0000000000000077
 21
-31.54386672714804
 31
0.0
210
0.0
220
0.0
230
1.0
 40
0.9510565162951527
 41
0.0
 42
1.570796326794898
  0
ELLIPSE
  5
2FF8C
330
16627
100
AcDbEntity
  8
0
100
AcDbEllipse
 10
-14.34155604076659
 20
-406.9231086853915
 30
0.0
 11
-0.0000000000000077
 21
-31.54386672714804
 31
0.0
210
0.0
220
0.0
230
1.0
 40
0.9510565162951509
 41
4.712388980384702
 42
6.283185307179586
  0
SPLINE
  5
2FF8D
330
16627
100
AcDbEntity
  8
0
100
AcDbSpline
210
0.0
220
0.0
230
1.0
 70
     8
 71
     3
 72
    17
 73
    13
 74
     0
 42
0.000000001
 43
0.0000000001
 40
0.0
 40
0.0
 40
0.0
 40
0.0
 40
0.1065382268268341
 40
0.216183000950884
 40
0.3227134930805084
 40
0.4323082519171062
 40
0.539272842915065
 40
0.6493738644047888
 40
0.7556563470111977
 40
0.8651204415514577
 40
0.9696781395899519
 40
1.0
 40
1.0
 40
1.0
 40
1.0
 10
-238.1321628971127
 20
382.2768992301053
 30
0.0
 10
-237.9902871074337
 20
383.6711186388157
 30
0.0
 10
-237.7023985730702
 20
386.5002114887311
 30
0.0
 10
-237.1991316318599
 20
390.5965299500776
 30
0.0
 10
-236.6640029609043
 20
394.4874255137902
 30
0.0
 10
-236.1273861360205
 20
397.9995132798349
 30
0.0
 10
-235.6126996421444
 20
401.0991812418279
 30
0.0
 10
-235.1634430475315
 20
403.6291230922134
 30
0.0
 10
-234.7993316483116
 20
405.5788116824942
 30
0.0
 10
-234.5672088446954
 20
406.7803362726071
 30
0.0
 10
-234.4609316050882
 20
407.3204428222624
 30
0.0
 10
-234.4796085803027
 20
407.2253065883878
 30
0.0
 10
-234.4838072938947
 20
407.2039193030422
 30
0.0
  0
SPLINE
  5
2FF8E
330
16627
100
AcDbEntity
  8
0
100
AcDbSpline
210
0.0
220
0.0
230
1.0
 70
     8
 71
     3
 72
    17
 73
    13
 74
     0
 42
0.000000001
 43
0.0000000001
 40
0.0
 40
0.0
 40
0.0
 40
0.0
 40
0.1065382268268341
 40
0.216183000950884
 40
0.3227134930805084
 40
0.4323082519171062
 40
0.539272842915065
 40
0.6493738644047888
 40
0.7556563470111977
 40
0.8651204415514577
 40
0.9696781395899519
 40
1.0
 40
1.0
 40
1.0
 40
1.0
 10
259.4490508155796
 20
382.2768992301053
 30
0.0
 10
259.3071750259005
 20
383.6711186388157
 30
0.0
 10
259.0192864915334
 20
386.5002114887311
 30
0.0
 10
258.5160195503231
 20
390.5965299500776
 30
0.0
 10
257.9808908793675
 20
394.4874255137902
 30
0.0
 10
257.4442740544837
 20
397.9995132798349
 30
0.0
 10
256.9295875606076
 20
401.0991812418279
 30
0.0
 10
256.4803309659946
 20
403.6291230922134
 30
0.0
 10
256.1162195667748
 20
405.5788116824942
 30
0.0
 10
255.8840967631586
 20
406.7803362726071
 30
0.0
 10
255.7778195235551
 20
407.3204428222624
 30
0.0
 10
255.7964964987659
 20
407.2253065883878
 30
0.0
 10
255.8006952123615
 20
407.2039193030422
 30
0.0
  0
SPLINE
  5
2FF8F
330
16627
100
AcDbEntity
  8
0
100
AcDbSpline
210
0.0
220
0.0
230
1.0
 70
     8
 71
     3
 72
    17
 73
    13
 74
     0
 42
0.000000001
 43
0.0000000001
 40
0.0
 40
0.0
 40
0.0
 40
0.0
 40
0.0773318571423134
 40
0.1822508842083736
 40
0.2871765675097007
 40
0.3927000402019238
 40
0.4982306676959613
 40
0.6054891445157207
 40
0.7127495556274432
 40
0.821199236306548
 40
0.9296458938644345
 40
1.0
 40
1.0
 40
1.0
 40
1.0
 10
-234.4836284799603
 20
307.3480194922513
 30
0.0
 10
-234.4849910099365
 20
307.3552740177174
 30
0.0
 10
-234.488202135366
 20
307.3723710296026
 30
0.0
 10
-234.6532382031546
 20
308.2135428094507
 30
0.0
 10
-234.9347140881837
 20
309.6913661736389
 30
0.0
 10
-235.3257276455515
 20
311.8230251896848
 30
0.0
 10
-235.7924733985201
 20
314.5115142282039
 30
0.0
 10
-236.3098727172546
 20
317.7170694518381
 30
0.0
 10
-236.8482368804253
 20
321.353008268371
 30
0.0
 10
-237.3723571067749
 20
325.3221683664187
 30
0.0
 10
-237.805733285164
 20
329.0178859706857
 30
0.0
 10
-238.0399886458909
 20
331.3566398894827
 30
0.0
 10
-238.1321628971127
 20
332.2768873091764
 30
0.0
  0
SPLINE
  5
2FF90
330
16627
100
AcDbEntity
  8
0
100
AcDbSpline
210
0.0
220
0.0
230
1.0
 70
     8
 71
     3
 72
    17
 73
    13
 74
     0
 42
0.000000001
 43
0.0000000001
 40
0.0
 40
0.0
 40
0.0
 40
0.0
 40
0.0773318571423134
 40
0.1822508842083736
 40
0.2871765675097007
 40
0.3927000402019238
 40
0.4982306676959613
 40
0.6054891445157207
 40
0.7127495556274432
 40
0.821199236306548
 40
0.9296458938644345
 40
1.0
 40
1.0
 40
1.0
 40
1.0
 10
255.8005163984272
 20
307.3480194922513
 30
0.0
 10
255.8018789283997
 20
307.3552740177174
 30
0.0
 10
255.8050900538292
 20
307.3723710296026
 30
0.0
 10
255.9701261216178
 20
308.2135428094507
 30
0.0
 10
256.2516020066468
 20
309.6913661736389
 30
0.0
 10
256.6426155640147
 20
311.8230251896848
 30
0.0
 10
257.1093613169832
 20
314.5115142282039
 30
0.0
 10
257.6267606357214
 20
317.7170694518381
 30
0.0
 10
258.1651247988884
 20
321.353008268371
 30
0.0
 10
258.689245025238
 20
325.3221683664187
 30
0.0
 10
259.1226212036272
 20
329.0178859706857
 30
0.0
 10
259.356876564354
 20
331.3566398894827
 30
0.0
 10
259.4490508155796
 20
332.2768873091764
 30
0.0
  0
ARC
  5
2FF91
330
16627
100
AcDbEntity
  8
0
100
AcDbCircle
 10
19.65844395923341
 20
357.2768913146092
 30
0.0
 40
259.0
100
AcDbArc
 50
174.4608951427028
 51
185.5391048572971
  0
ARC
  5
2FF92
330
16627
100
AcDbEntity
  8
0
100
AcDbCircle
 10
1.658443959233409
 20
357.2768913146092
 30
0.0
 40
259.0000000000001
100
AcDbArc
 50
354.4608951427028
 51
5.539104857297175
  0
CIRCLE
  5
2FF93
330
16627
100
AcDbEntity
  8
0
100
AcDbCircle
 10
10.65844395923341
 20
-450.6731086853915
 30
0.0
 40
5.249999999999943
  0
ARC
  5
2FF94
330
16627
100
AcDbEntity
  8
0
100
AcDbCircle
 10
-90.28436869970391
 20
249.8510551554091
 30
0.0
 40
4.49088954919602
100
AcDbArc
 50
177.4950495562546
 51
203.0334786372757
  0
ARC
  5
2FF95
330
16627
100
AcDbEntity
  8
0
100
AcDbCircle
 10
111.6012566181671
 20
249.8510551554091
 30
0.0
 40
4.490889549195963
100
AcDbArc
 50
336.9665213627243
 51
2.50495044374538
  0
ARC
  5
2FF96
330
16627
100
AcDbEntity
  8
0
100
AcDbCircle
 10
-111.5828176085633
 20
247.4744154462778
 30
0.0
 40
1.992246671168749
100
AcDbArc
 50
180.0730455775006
 51
229.6838807294568
  0
ARC
  5
2FF97
330
16627
100
AcDbEntity
  8
0
100
AcDbCircle
 10
132.9003534978838
 20
247.4741093755138
 30
0.0
 40
1.991598334024716
100
AcDbArc
 50
310.4586056255726
 51
359.9357359207774
  0
LWPOLYLINE
  5
2FF98
330
16627
100
AcDbEntity
  8
0
100
AcDbPolyline
 90
        3
 70
   128
 43
0.0
 10
-113.5101830048588
 20
248.9688462134427
 10
-113.5366474671391
 20
248.8543456908292
 10
-113.5750626606968
 20
248.466438662631
  0
LWPOLYLINE
  5
2FF99
330
16627
100
AcDbEntity
  8
0
100
AcDbPolyline
 90
        3
 70
   128
 43
0.0
 10
134.8919505791636
 20
248.466438662631
 10
134.8535353856059
 20
248.8543456908292
 10
134.8269293622943
 20
248.9693826552457
  0
LINE
  5
2FF9A
330
16627
100
AcDbEntity
  8
0
100
AcDbLine
 10
-114.0626882596043
 20
245.5207175131864
 30
0.0
 11
-113.5750626606968
 21
247.4718755599088
 31
0.0
  0
LINE
  5
2FF9B
330
16627
100
AcDbEntity
  8
0
100
AcDbLine
 10
134.8919505791636
 20
247.4718755599088
 30
0.0
 11
135.3650028424235
 21
245.5816334601468
 31
0.0
  0
LINE
  5
2FF9C
330
16627
100
AcDbEntity
  8
0
100
AcDbLine
 10
-113.5750626606968
 20
248.466438662631
 30
0.0
 11
-114.3095781488446
 21
245.455271613223
 31
0.0
  0
LINE
  5
2FF9D
330
16627
100
AcDbEntity
  8
0
100
AcDbLine
 10
135.6330598311397
 20
245.4261845465726
 30
0.0
 11
134.8919505791636
 21
248.466438662631
 31
0.0
  0
LWPOLYLINE
  5
2FF9E
330
16627
100
AcDbEntity
  8
0
100
AcDbPolyline
 90
        6
 70
   128
 43
0.0
 10
-91.17539128494536
 20
196.8535250540799
 10
-91.1673074049977
 20
196.6556972380704
 10
-91.13898774814879
 20
196.4771217223233
 10
-91.0948877615956
 20
196.3458722945279
 10
-91.04193648529326
 20
196.2826317664212
 10
-91.02348139715468
 20
196.278697859866
  0
LWPOLYLINE
  5
2FF9F
330
16627
100
AcDbEntity
  8
0
100
AcDbPolyline
 90
        6
 70
   128
 43
0.0
 10
112.4922792034122
 20
196.8535250540799
 10
112.4841953234645
 20
196.6556972380704
 10
112.4558756666156
 20
196.4771217223233
 10
112.4117756800624
 20
196.3458722945279
 10
112.3588244037601
 20
196.2826317664212
 10
112.3403767662021
 20
196.278697859866
  0
LWPOLYLINE
  5
2FFA0
330
16627
100
AcDbEntity
  8
0
100
AcDbPolyline
 90
       14
 70
   128
 43
0.0
 10
113.7005249576541
 20
230.3833431120938
 10
117.3812756853076
 20
230.2531069632596
 10
120.9234009103747
 20
230.086094748599
 10
124.2933283166858
 20
229.8838561888761
 10
127.4590949134799
 20
229.6482986327237
 10
130.3906972126933
 20
229.3816870566434
 10
133.0603221969577
 20
229.0865248557157
 10
135.4426751451465
 20
228.765613448245
 10
137.5151584463092
 20
228.4220522757596
 10
139.2581174688312
 20
228.0590003844327
 10
140.6550417261096
 20
227.679974448306
 10
141.692669184682
 20
227.288550746066
 10
142.3611650781604
 20
226.888365161044
 10
142.6465223150226
 20
226.5101140852994
  0
LWPOLYLINE
  5
2FFA1
330
16627
100
AcDbEntity
  8
0
100
AcDbPolyline
 90
       14
 70
   128
 43
0.0
 10
-121.3296343965557
 20
226.5101140852994
 10
-121.0442771596936
 20
226.888365161044
 10
-120.3757812662152
 20
227.288550746066
 10
-119.3381538076428
 20
227.679974448306
 10
-117.9412295503643
 20
228.0590003844327
 10
-116.1982705278424
 20
228.4220522757596
 10
-114.1257872266796
 20
228.765613448245
 10
-111.7434342784909
 20
229.0865248557157
 10
-109.0738092942265
 20
229.3816870566434
 10
-106.1422069950131
 20
229.6482986327237
 10
-102.976440398219
 20
229.8838561888761
 10
-99.60651299190795
 20
230.086094748599
 10
-96.06438776684081
 20
230.2531069632596
 10
-92.3836370391873
 20
230.3833431120938
  0
LWPOLYLINE
  5
2FFA2
330
16627
100
AcDbEntity
  8
0
100
AcDbPolyline
 90
       13
 70
   128
 43
0.0
 10
137.183756621358
 20
243.704623591525
 10
136.9017223434421
 20
244.0601056929654
 10
136.2332264499637
 20
244.4333499785489
 10
135.1923058347674
 20
244.7971767302579
 10
133.7905610518428
 20
245.1474732276029
 10
132.0435787157985
 20
245.4804247733182
 10
129.9708048419925
 20
245.7922762747831
 10
127.5952915267917
 20
246.0796302672452
 10
124.9434808807345
 20
246.3391488905973
 10
122.0448623018237
 20
246.5680903311795
 10
118.9316968040439
 20
246.7637723799771
 10
115.6386221365901
 20
246.9241684790677
 10
112.2022728042575
 20
247.0473712798185
  0
LWPOLYLINE
  5
2FFA3
330
16627
100
AcDbEntity
  8
0
100
AcDbPolyline
 90
       13
 70
   128
 43
0.0
 10
-90.8853848857907
 20
247.0473712798185
 10
-94.32173421812331
 20
246.9241684790677
 10
-97.61480888557708
 20
246.7637723799771
 10
-100.7279743833569
 20
246.5680903311795
 10
-103.6265929622677
 20
246.3391488905973
 10
-106.2784036083249
 20
246.0796302672452
 10
-108.6539169235257
 20
245.7922762747831
 10
-110.7266907973317
 20
245.4804247733182
 10
-112.473673133376
 20
245.1474732276029
 10
-113.8754179163006
 20
244.7971767302579
 10
-114.9163385314968
 20
244.4333499785489
 10
-115.5848344249752
 20
244.0601056929654
 10
-115.8668687028912
 20
243.704623591525
  0
ARC
  5
2FFA4
330
16627
100
AcDbEntity
  8
0
100
AcDbCircle
 10
-116.4625202204479
 20
152.8977969048965
 30
0.0
 40
4.970055145266851
100
AcDbArc
 50
194.4507821411839
 51
264.589973057426
  0
ARC
  5
2FFA5
330
16627
100
AcDbEntity
  8
0
100
AcDbCircle
 10
-31.98311952185032
 20
175.2799329456165
 30
0.0
 40
92.37286402031742
100
AcDbArc
 50
165.5407408768063
 51
176.1839855694928
  0
ARC
  5
2FFA6
330
16627
100
AcDbEntity
  8
0
100
AcDbCircle
 10
53.7123305512323
 20
175.3472216593936
 30
0.0
 40
91.95680741185741
100
AcDbArc
 50
3.659688721464777
 51
14.48280891470364
  0
ARC
  5
2FFA7
330
16627
100
AcDbEntity
  8
0
100
AcDbCircle
 10
137.7764572123269
 20
152.9012661662082
 30
0.0
 40
4.973787858695588
100
AcDbArc
 50
275.4401009182501
 51
345.5062617240689
  0
ARC
  5
2FFA8
330
16627
100
AcDbEntity
  8
0
100
AcDbCircle
 10
-116.4323896162677
 20
147.9289527627288
 30
0.0
 40
0.5002999344899656
100
AcDbArc
 50
197.5062034863154
 51
359.8642769085139
  0
LWPOLYLINE
  5
2FFA9
330
16627
100
AcDbEntity
  8
0
100
AcDbPolyline
 90
        3
 70
   128
 43
0.0
 10
-121.4301129264859
 20
225.8846825476712
 10
-122.7038343830136
 20
220.2031082030362
 10
-123.0737259073285
 20
218.1549137946195
  0
LWPOLYLINE
  5
2FFAA
330
16627
100
AcDbEntity
  8
0
100
AcDbPolyline
 90
        3
 70
   128
 43
0.0
 10
144.3710038976642
 20
218.2705468054837
 10
144.0207223014804
 20
220.2031082030362
 10
142.7470008449527
 20
225.8846825476712
  0
LWPOLYLINE
  5
2FFAB
330
16627
100
AcDbEntity
  8
0
100
AcDbPolyline
 90
        6
 70
   128
 43
0.0
 10
-91.05332842302596
 20
144.0061992522305
 10
-91.04193648529326
 20
144.0076297637051
 10
-90.98844131660735
 20
144.0614527579373
 10
-90.94281396103179
 20
144.1850727912015
 10
-90.91221442652022
 20
144.3591183539456
 10
-90.90144833755767
 20
144.5562309142178
  0
LWPOLYLINE
  5
2FFAC
330
16627
100
AcDbEntity
  8
0
100
AcDbPolyline
 90
        6
 70
   128
 43
0.0
 10
112.3702163414928
 20
144.0061992522305
 10
112.3588244037601
 20
144.0076297637051
 10
112.3053292350741
 20
144.0614527579373
 10
112.2597018794986
 20
144.1850727912015
 10
112.229102344987
 20
144.3591183539456
 10
112.2183362560245
 20
144.5562309142178
  0
LWPOLYLINE
  5
2FFAD
330
16627
100
AcDbEntity
  8
0
100
AcDbPolyline
 90
       16
 70
   128
 43
0.0
 10
-72.34129211139952
 20
255.4624742384977
 10
-72.29465892744338
 20
255.5460399504728
 10
-71.92277809810912
 20
255.7226485129422
 10
-71.19641354513442
 20
255.8867401000089
 10
-70.14951756429946
 20
256.0306853171415
 10
-68.83105537128722
 20
256.1477488394803
 10
-67.30265816879546
 20
256.2324470397062
 10
-65.63581427765166
 20
256.2808460112638
 10
-63.90844186973845
 20
256.2906211730069
 10
-62.20132759046828
 20
256.2613552924222
 10
-60.59428950977599
 20
256.1944192763395
 10
-59.16246673298156
 20
256.0929721709317
 10
-57.97281017732894
 20
255.9616631384916
 10
-57.08095332813536
 20
255.8067506667203
 10
-56.52858963442122
 20
255.6353873129911
 10
-56.34155770969664
 20
255.4556197043485
  0
LWPOLYLINE
  5
2FFAE
330
16627
100
AcDbEntity
  8
0
100
AcDbPolyline
 90
       16
 70
   128
 43
0.0
 10
-56.34155770969664
 20
255.8267182227201
 10
-56.38845166397368
 20
255.9171384688443
 10
-56.76033249330794
 20
256.0937470313138
 10
-57.48669704628264
 20
256.2578386183805
 10
-58.5335930271176
 20
256.401783835513
 10
-59.85206267071044
 20
256.5188473578519
 10
-61.3804524226216
 20
256.6035455580777
 10
-63.047303764346
 20
256.6519445296354
 10
-64.77466872167861
 20
256.6617196913785
 10
-66.48178300094878
 20
256.6324538107938
 10
-68.08882108164107
 20
256.565517794711
 10
-69.5206438584355
 20
256.4640706893033
 10
-70.71030041408812
 20
256.3327616568631
 10
-71.6021572632817
 20
256.1778491850919
 10
-72.15452095699584
 20
256.0064858313626
 10
-72.34155288172042
 20
255.8267182227201
  0
LWPOLYLINE
  5
2FFAF
330
16627
100
AcDbEntity
  8
0
100
AcDbPolyline
 90
       16
 70
   128
 43
0.0
 10
77.65871384906495
 20
255.4624742384977
 10
77.7053395824405
 20
255.5460399504728
 10
78.07722041177476
 20
255.7226485129422
 10
78.80358496474946
 20
255.8867401000089
 10
79.85048094558442
 20
256.0306853171415
 10
81.16895058917725
 20
256.1477488394803
 10
82.69734034108841
 20
256.2324470397062
 10
84.36419168281281
 20
256.2808460112638
 10
86.09155664014542
 20
256.2906211730069
 10
87.79867091941559
 20
256.2613552924222
 10
89.40570900010788
 20
256.1944192763395
 10
90.83753177690232
 20
256.0929721709317
 10
92.02718833255493
 20
255.9616631384916
 10
92.91904518174851
 20
255.8067506667203
 10
93.47140887546265
 20
255.6353873129911
 10
93.65844080018723
 20
255.4556197043485
  0
LWPOLYLINE
  5
2FFB0
330
16627
100
AcDbEntity
  8
0
100
AcDbPolyline
 90
       16
 70
   128
 43
0.0
 10
93.65844080018723
 20
255.8267182227201
 10
93.61154684591019
 20
255.9171384688443
 10
93.23966601657593
 20
256.0937470313138
 10
92.51330146360123
 20
256.2578386183805
 10
91.46640548276627
 20
256.401783835513
 10
90.14794328975403
 20
256.5188473578519
 10
88.61954608726227
 20
256.6035455580777
 10
86.95270219611847
 20
256.6519445296354
 10
85.22532978820526
 20
256.6617196913785
 10
83.51821550893509
 20
256.6324538107938
 10
81.9111774282428
 20
256.565517794711
 10
80.47935465144837
 20
256.4640706893033
 10
79.28969809579576
 20
256.3327616568631
 10
78.39784124660218
 20
256.1778491850919
 10
77.84547755288804
 20
256.0064858313626
 10
77.65844562816346
 20
255.8267182227201
  0
SPLINE
  5
2FFB1
330
16627
100
AcDbEntity
  8
0
100
AcDbSpline
210
0.0
220
0.0
230
1.0
 70
     8
 71
     3
 72
    17
 73
    13
 74
     0
 42
0.000000001
 43
0.0000000001
 40
0.0
 40
0.0
 40
0.0
 40
0.0
 40
0.0542013148656203
 40
0.1584600352553373
 40
0.2619191057245172
 40
0.3683132863532674
 40
0.4728714982731561
 40
0.5803717054865777
 40
0.6865525512276519
 40
0.7957711370691239
 40
0.8965842997581262
 40
1.0
 40
1.0
 40
1.0
 40
1.0
 10
-245.9484328908948
 20
407.0974654074734
 30
0.0
 10
-245.9460775923726
 20
407.110543782287
 30
0.0
 10
-245.9391917688809
 20
407.1487790121673
 30
0.0
 10
-246.0592116270127
 20
406.4926360035051
 30
0.0
 10
-246.2962752567291
 20
405.1758601754763
 30
0.0
 10
-246.6395045450918
 20
403.2044753337422
 30
0.0
 10
-247.0660684657378
 20
400.6444948167909
 30
0.0
 10
-247.5458084642669
 20
397.5796164376106
 30
0.0
 10
-248.0617969534578
 20
394.0435856765753
 30
0.0
 10
-248.5660466075169
 20
390.2522557693838
 30
0.0
 10
-249.0484034416877
 20
386.2824031512091
 30
0.0
 10
-249.330352669851
 20
383.6233621370075
 30
0.0
 10
-249.4731237573651
 20
382.2768992301053
 30
0.0
  0
SPLINE
  5
2FFB2
330
16627
100
AcDbEntity
  8
0
100
AcDbSpline
210
0.0
220
0.0
230
1.0
 70
     8
 71
     3
 72
    17
 73
    13
 74
     0
 42
0.000000001
 43
0.0000000001
 40
0.0
 40
0.0
 40
0.0
 40
0.0
 40
0.0918410552716563
 40
0.1938477435901795
 40
0.2985432093747642
 40
0.4053592472525731
 40
0.5152747073179022
 40
0.6220750472432491
 40
0.7320419800904514
 40
0.8405052413200881
 40
0.9523986257504407
 40
1.0
 40
1.0
 40
1.0
 40
1.0
 10
-249.4731237573651
 20
332.2768873091764
 30
0.0
 10
-249.3468408148401
 20
331.0814780324463
 30
0.0
 10
-249.080297019249
 20
328.5583429239041
 30
0.0
 10
-248.6229817408239
 20
324.7607855601846
 30
0.0
 10
-248.1258055640101
 20
320.9722529108903
 30
0.0
 10
-247.6104794404709
 20
317.4010513478015
 30
0.0
 10
-247.1176465519311
 20
314.2271216294457
 30
0.0
 10
-246.6734410643512
 20
311.5446467176326
 30
0.0
 10
-246.310652968361
 20
309.4580261381115
 30
0.0
 10
-246.0579780575499
 20
308.0534968703205
 30
0.0
 10
-245.9353132788274
 20
307.3842376037492
 30
0.0
 10
-245.9454861839112
 20
307.4400739496441
 30
0.0
 10
-245.9485222978619
 20
307.4567383643216
 30
0.0
  0
SPLINE
  5
2FFB3
330
16627
100
AcDbEntity
  8
0
100
AcDbSpline
210
0.0
220
0.0
230
1.0
 70
     8
 71
     3
 72
    12
 73
     8
 74
     0
 42
0.000000001
 43
0.0000000001
 40
0.0
 40
0.0
 40
0.0
 40
0.0
 40
0.2228206932313627
 40
0.4511831987996322
 40
0.6849884943132221
 40
0.9252840905680105
 40
1.0
 40
1.0
 40
1.0
 40
1.0
 10
-250.2890219373731
 20
382.3643988486356
 30
0.0
 10
-250.1589282488385
 20
383.6544317973048
 30
0.0
 10
-249.8955052889432
 20
386.2665823291818
 30
0.0
 10
-249.4302114040511
 20
390.1256974159942
 30
0.0
 10
-248.9316819769665
 20
393.8381618136073
 30
0.0
 10
-248.5284645898864
 20
396.5796468821709
 30
0.0
 10
-248.3154351331941
 20
397.9006159044248
 30
0.0
 10
-248.2649078054456
 20
398.2139295455045
 30
0.0
  0
SPLINE
  5
2FFB4
330
16627
100
AcDbEntity
  8
0
100
AcDbSpline
210
0.0
220
0.0
230
1.0
 70
     8
 71
     3
 72
    11
 73
     7
 74
     0
 42
0.000000001
 43
0.0000000001
 40
0.0
 40
0.0
 40
0.0
 40
0.0
 40
0.1579214283096568
 40
0.4455001189001446
 40
0.740419043169914
 40
1.0
 40
1.0
 40
1.0
 40
1.0
 10
-248.7238337678937
 20
319.3687862273282
 30
0.0
 10
-248.812503466459
 20
319.9649865643869
 30
0.0
 10
-249.0626428026881
 20
321.64688194674
 30
0.0
 10
-249.4737281210218
 20
324.7924154473758
 30
0.0
 10
-249.91853594434
 20
328.4980789161118
 30
0.0
 10
-250.1708873442439
 20
331.0123627331659
 30
0.0
 10
-250.2890219373731
 20
332.1893876906461
 30
0.0
  0
LWPOLYLINE
  5
2FFB5
330
16627
100
AcDbEntity
  8
0
100
AcDbPolyline
 90
       12
 70
   128
 43
0.0
 10
-253.3367266340283
 20
394.8845332976407
 10
-253.3340444250134
 20
394.9127858992643
 10
-253.3768107576398
 20
394.4597905989713
 10
-253.4647574110059
 20
393.5087388869352
 10
-253.5962750597028
 20
392.0319146033353
 10
-253.7530948801068
 20
390.1687926169461
 10
-253.933220116618
 20
387.8591722365445
 10
-254.1136135740308
 20
385.313338648898
 10
-254.293202368739
 20
382.442302119357
 10
-254.4509460611371
 20
379.4574803229398
 10
-254.5831491632489
 20
376.2915796156949
 10
-254.5831491632489
 20
376.2915200110501
  0
SPLINE
  5
2FFB6
330
16627
100
AcDbEntity
  8
0
100
AcDbSpline
210
0.0
220
0.0
230
1.0
 70
     8
 71
     3
 72
    18
 73
    14
 74
     0
 42
0.000000001
 43
0.0000000001
 40
0.0
 40
0.0
 40
0.0
 40
0.0
 40
0.0000020208012779
 40
0.0655139347619145
 40
0.1720369745362519
 40
0.2815932955565766
 40
0.3883636309884257
 40
0.4981951201997261
 40
0.6045750080522913
 40
0.7139858622554895
 40
0.8200406522493619
 40
0.9291410132004559
 40
1.0
 40
1.0
 40
1.0
 40
1.0
 10
-254.5831789655713
 20
338.2623261328763
 30
0.0
 10
-254.5831789655858
 20
338.2623062646626
 30
0.0
 10
-254.5831793871002
 20
337.6181830762862
 30
0.0
 10
-254.4756108482288
 20
335.9302686781839
 30
0.0
 10
-254.3661334082462
 20
333.2089964547003
 30
0.0
 10
-254.1820340597332
 20
330.2421824954245
 30
0.0
 10
-253.9949086832494
 20
327.4811967409578
 30
0.0
 10
-253.8096321859011
 20
325.0582263497881
 30
0.0
 10
-253.6390796619926
 20
322.9979162621448
 30
0.0
 10
-253.4967415553692
 20
321.3882244442784
 30
0.0
 10
-253.393521722257
 20
320.2688050604256
 30
0.0
 10
-253.3366034460705
 20
319.6674682253861
 30
0.0
 10
-253.3366704492182
 20
319.6684068292479
 30
0.0
 10
-253.3366968317059
 20
319.6687764044828
 30
0.0
  0
SPLINE
  5
2FFB7
330
16627
100
AcDbEntity
  8
0
100
AcDbSpline
210
0.0
220
0.0
230
1.0
 70
     8
 71
     3
 72
    17
 73
    13
 74
     0
 42
0.000000001
 43
0.0000000001
 40
0.0
 40
0.0
 40
0.0
 40
0.0
 40
0.0542013148656203
 40
0.1584600352553373
 40
0.2619191057245172
 40
0.3683132863532674
 40
0.4728714982731561
 40
0.5803717054865777
 40
0.6865525512276519
 40
0.7957711370691239
 40
0.8965842997581262
 40
1.0
 40
1.0
 40
1.0
 40
1.0
 10
267.2653208093616
 20
307.4563211318082
 30
0.0
 10
267.2629655108358
 20
307.4432427569982
 30
0.0
 10
267.256079687344
 20
307.405007527118
 30
0.0
 10
267.3760995454759
 20
308.0611505357802
 30
0.0
 10
267.6131631751959
 20
309.3779263638053
 30
0.0
 10
267.9563924635549
 20
311.3493112055394
 30
0.0
 10
268.382956384201
 20
313.9092917224907
 30
0.0
 10
268.8626963827337
 20
316.974170101671
 30
0.0
 10
269.3786848719246
 20
320.51020086271
 30
0.0
 10
269.8829345259801
 20
324.3015307698979
 30
0.0
 10
270.3652913601509
 20
328.2713833880726
 30
0.0
 10
270.6472405883141
 20
330.9304244022742
 30
0.0
 10
270.7900116758319
 20
332.2768873091764
 30
0.0
  0
SPLINE
  5
2FFB8
330
16627
100
AcDbEntity
  8
0
100
AcDbSpline
210
0.0
220
0.0
230
1.0
 70
     8
 71
     3
 72
    17
 73
    13
 74
     0
 42
0.000000001
 43
0.0000000001
 40
0.0
 40
0.0
 40
0.0
 40
0.0
 40
0.0918410552716563
 40
0.1938477435901795
 40
0.2985432093747642
 40
0.4053592472525731
 40
0.5152747073179022
 40
0.6220750472432491
 40
0.7320419800904514
 40
0.8405052413200881
 40
0.9523986257504407
 40
1.0
 40
1.0
 40
1.0
 40
1.0
 10
270.7900116758319
 20
382.2768992301053
 30
0.0
 10
270.6637287333033
 20
383.472308506839
 30
0.0
 10
270.3971849377122
 20
385.9954436153812
 30
0.0
 10
269.9398696592871
 20
389.7930009791007
 30
0.0
 10
269.4426934824733
 20
393.5815336283913
 30
0.0
 10
268.9273673589341
 20
397.1527351914838
 30
0.0
 10
268.4345344703943
 20
400.3266649098359
 30
0.0
 10
267.9903289828144
 20
403.0091398216491
 30
0.0
 10
267.6275408868241
 20
405.0957604011736
 30
0.0
 10
267.3748659760131
 20
406.5002896689611
 30
0.0
 10
267.2522011972942
 20
407.1695489355325
 30
0.0
 10
267.2623741023745
 20
407.1137125896375
 30
0.0
 10
267.2654102163288
 20
407.09704817496
 30
0.0
  0
SPLINE
  5
2FFB9
330
16627
100
AcDbEntity
  8
0
100
AcDbSpline
210
0.0
220
0.0
230
1.0
 70
     8
 71
     3
 72
    12
 73
     8
 74
     0
 42
0.000000001
 43
0.0000000001
 40
0.0
 40
0.0
 40
0.0
 40
0.0
 40
0.2228206531632414
 40
0.4511864046205315
 40
0.6849885509593039
 40
0.9252841040035944
 40
1.0
 40
1.0
 40
1.0
 40
1.0
 10
271.6059098558399
 20
332.1893876906461
 30
0.0
 10
271.4758152339237
 20
330.8993555947409
 30
0.0
 10
271.2123884649518
 20
328.2871877596108
 30
0.0
 10
270.7471085427933
 20
324.4280591333545
 30
0.0
 10
270.248564374353
 20
320.7156132555565
 30
0.0
 10
269.8453527185811
 20
317.9741393941249
 30
0.0
 10
269.6323230919625
 20
316.6531705844418
 30
0.0
 10
269.5817957239124
 20
316.3398569937772
 30
0.0
  0
SPLINE
  5
2FFBA
330
16627
100
AcDbEntity
  8
0
100
AcDbSpline
210
0.0
220
0.0
230
1.0
 70
     8
 71
     3
 72
    11
 73
     7
 74
     0
 42
0.000000001
 43
0.0000000001
 40
0.0
 40
0.0
 40
0.0
 40
0.0
 40
0.1579214283096568
 40
0.4455001189001446
 40
0.740419043169914
 40
1.0
 40
1.0
 40
1.0
 40
1.0
 10
270.0407216863605
 20
395.1850003119535
 30
0.0
 10
270.1293913849259
 20
394.5887999748947
 30
0.0
 10
270.3795307211549
 20
392.9069045925453
 30
0.0
 10
270.790616039485
 20
389.7613710919058
 30
0.0
 10
271.2354238628031
 20
386.0557076231698
 30
0.0
 10
271.4877752627071
 20
383.5414238061158
 30
0.0
 10
271.6059098558399
 20
382.3643988486356
 30
0.0
  0
LWPOLYLINE
  5
2FFBB
330
16627
100
AcDbEntity
  8
0
100
AcDbPolyline
 90
       12
 70
   128
 43
0.0
 10
274.6536145524951
 20
319.669253241641
 10
274.6509323434803
 20
319.6410006400174
 10
274.6936986761066
 20
320.0939959403104
 10
274.7816453294727
 20
321.0450476523465
 10
274.9131629781696
 20
322.5218719359464
 10
275.0699827985736
 20
324.3849939223355
 10
275.2501080350849
 20
326.6946143027372
 10
275.4305014924976
 20
329.2404478903836
 10
275.6100902872058
 20
332.1114844199247
 10
275.7678339796039
 20
335.0963062163419
 10
275.9000370817157
 20
338.2622069235868
 10
275.9000370817157
 20
338.2622665282315
  0
SPLINE
  5
2FFBC
330
16627
100
AcDbEntity
  8
0
100
AcDbSpline
210
0.0
220
0.0
230
1.0
 70
     8
 71
     3
 72
    18
 73
    14
 74
     0
 42
0.000000001
 43
0.0000000001
 40
0.0
 40
0.0
 40
0.0
 40
0.0
 40
0.0000020208012779
 40
0.0655139347619145
 40
0.1720369745362519
 40
0.2815932955565766
 40
0.3883636309884257
 40
0.4981951201997261
 40
0.6045750080522913
 40
0.7139858622554895
 40
0.8200406522493619
 40
0.9291410132004559
 40
1.0
 40
1.0
 40
1.0
 40
1.0
 10
275.9000668840381
 20
376.2914604064054
 30
0.0
 10
275.900066884049
 20
376.2914802746227
 30
0.0
 10
275.9000673055634
 20
376.935603465924
 30
0.0
 10
275.792498766692
 20
378.6235178588459
 30
0.0
 10
275.683021326713
 20
381.3447900853234
 30
0.0
 10
275.4989219781965
 20
384.3116040436644
 30
0.0
 10
275.3117966017125
 20
387.0725897983784
 30
0.0
 10
275.1265201043643
 20
389.495560189479
 30
0.0
 10
274.9559675804558
 20
391.5558702771441
 30
0.0
 10
274.8136294738324
 20
393.1655620950032
 30
0.0
 10
274.7104096407202
 20
394.284981478856
 30
0.0
 10
274.6534913645337
 20
394.8863183138992
 30
0.0
 10
274.6535583676851
 20
394.8853797100373
 30
0.0
 10
274.6535847501728
 20
394.8850101347989
 30
0.0
  0
ARC
  5
2FFBD
330
16627
100
AcDbEntity
  8
0
100
AcDbCircle
 10
10.65844395923341
 20
-406.9231086853915
 30
0.0
 40
57.67174370678834
100
AcDbArc
 50
162.4916777431764
 51
17.50829338792871
  0
ARC
  5
2FFBE
330
16627
100
AcDbEntity
  8
0
100
AcDbCircle
 10
10.65844395923341
 20
-406.9231086853915
 30
0.0
 40
62.26858556545545
100
AcDbArc
 50
152.0394248871268
 51
27.96053326143014
  0
ARC
  5
2FFBF
330
16627
100
AcDbEntity
  8
0
100
AcDbCircle
 10
10.65844395923341
 20
-406.9231086853915
 30
0.0
 40
64.87836388498215
100
AcDbArc
 50
147.9667299034721
 51
32.03323186073929
  0
LINE
  5
2FFC0
330
16627
100
AcDbEntity
  8
0
100
AcDbLine
 10
-57.56112834644591
 20
253.7761396285123
 30
0.0
 11
-57.56112834644591
 21
254.8651760932035
 31
0.0
  0
LINE
  5
2FFC1
330
16627
100
AcDbEntity
  8
0
100
AcDbLine
 10
78.87801626491273
 20
253.7761396285123
 30
0.0
 11
78.87801626491273
 21
254.8651760932035
 31
0.0
  0
LINE
  5
2FFC2
330
16627
100
AcDbEntity
  8
0
100
AcDbLine
 10
-14.34155641329562
 20
254.3646162863797
 30
0.0
 11
-14.34155641329562
 21
255.462116610629
 31
0.0
  0
LINE
  5
2FFC3
330
16627
100
AcDbEntity
  8
0
100
AcDbLine
 10
35.65844433176244
 20
254.3646162863797
 30
0.0
 11
35.65844433176244
 21
255.462116610629
 31
0.0
  0
LINE
  5
2FFC4
330
16627
100
AcDbEntity
  8
0
100
AcDbLine
 10
35.65844433176244
 20
316.075331580264
 30
0.0
 11
35.65844433176244
 21
380.7085818167752
 31
0.0
  0
LINE
  5
2FFC5
330
16627
100
AcDbEntity
  8
0
100
AcDbLine
 10
-14.34155641329562
 20
316.075331580264
 30
0.0
 11
-14.34155641329562
 21
380.7085818167752
 31
0.0
  0
LINE
  5
2FFC6
330
16627
100
AcDbEntity
  8
0
100
AcDbLine
 10
35.65844433176244
 20
-438.4669744852954
 30
0.0
 11
35.65844433176244
 21
-199.2373847845965
 31
0.0
  0
LWPOLYLINE
  5
2FFC7
330
16627
100
AcDbEntity
  8
0
100
AcDbPolyline
 90
       16
 70
   128
 43
0.0
 10
35.65844433176244
 20
-362.8417448584014
 10
38.90201361643994
 20
-362.6744904998714
 10
42.1075570003959
 20
-362.1746906522685
 10
45.23749002980912
 20
-361.3482014719421
 10
48.25511673259462
 20
-360.2047161642486
 10
51.12505802678788
 20
-358.7576383236819
 10
53.81367081570352
 20
-357.0239329222613
 10
56.28942796754563
 20
-355.0239325944358
 10
58.52330574559892
 20
-352.7810768667632
 10
60.48911535906518
 20
-350.3216662887508
 10
62.16380471157754
 20
-347.6745346073085
 10
63.5277452485534
 20
-344.8707172159129
 10
64.56494429874147
 20
-341.9430860761577
 10
65.26323878931726
 20
-338.9259660128528
 10
65.61444798278535
 20
-335.8547249320918
 10
65.65844366121019
 20
-334.3100482109958
  0
LINE
  5
2FFC8
330
16627
100
AcDbEntity
  8
0
100
AcDbLine
 10
-14.34155641329562
 20
-438.4669744852954
 30
0.0
 11
-14.34155641329562
 21
-199.2280268553668
 31
0.0
  0
LWPOLYLINE
  5
2FFC9
330
16627
100
AcDbEntity
  8
0
100
AcDbPolyline
 90
       16
 70
   128
 43
0.0
 10
-44.34155574274337
 20
-334.3100482109958
 10
-44.29756006431853
 20
-335.8547249320918
 10
-43.94635087085044
 20
-338.9259660128528
 10
-43.24805638027465
 20
-341.9430860761577
 10
-42.21085733008658
 20
-344.8707172159129
 10
-40.84691679311072
 20
-347.6745346073085
 10
-39.17222744059836
 20
-350.3216662887508
 10
-37.2064178271321
 20
-352.7810768667632
 10
-34.97254004907882
 20
-355.0239325944358
 10
-32.4967828972367
 20
-357.0239329222613
 10
-29.80817010832107
 20
-358.7576383236819
 10
-26.9382288141278
 20
-360.2047161642486
 10
-23.9206021113423
 20
-361.3482014719421
 10
-20.79066908192908
 20
-362.1746906522685
 10
-17.58512569797312
 20
-362.6744904998714
 10
-14.34155641329562
 20
-362.8417448584014
  0
LINE
  5
2FFCA
330
16627
100
AcDbEntity
  8
0
100
AcDbLine
 10
-14.34155641329562
 20
-362.8417448584014
 30
0.0
 11
-1.512744410159939
 21
-362.8417448584014
 31
0.0
  0
LINE
  5
2FFCB
330
16627
100
AcDbEntity
  8
0
100
AcDbLine
 10
1.460227237817889
 20
-362.8417448584014
 30
0.0
 11
35.65844433176244
 21
-362.8417448584014
 31
0.0
  0
LINE
  5
2FFCC
330
16627
100
AcDbEntity
  8
0
100
AcDbLine
 10
35.65844433176244
 20
133.3143776770657
 30
0.0
 11
35.65844433176244
 21
142.6121658202237
 31
0.0
  0
LINE
  5
2FFCD
330
16627
100
AcDbEntity
  8
0
100
AcDbLine
 10
-14.34155641329562
 20
133.3290404196805
 30
0.0
 11
-14.34155641329562
 21
142.6122850295132
 31
0.0
  0
LINE
  5
2FFCE
330
16627
100
AcDbEntity
  8
0
100
AcDbLine
 10
270.7900116758319
 20
332.2768873091764
 30
0.0
 11
65.65844366121019
 21
332.2768873091764
 31
0.0
  0
ATTDEF
  5
2FFCF
102
{ACAD_XDICTIONARY
360
2FFD0
102
}
330
16627
100
AcDbEntity
  8
0
100
AcDbText
 10
-147.8524826369939
 20
-740.5230170625982
 30
0.0
 40
100.0
  1
800G
  7
Annotative
 72
     1
 11
23.02064151034574
 21
-690.5230170625982
 31
0.0
100
AcDbAttributeDefinition
280
     0
  3
Tag Number?
  2
800G
 70
     0
 74
     2
280
     1
1001
AcadAnnotative
1000
AnnotativeData
1002
{
1070
     1
1070
     1
1002
}
1001
AcadAnnoPO
1070
     1
  0
ENDBLK
  5
16629
330
16627
100
AcDbEntity
  8
0
100
AcDbBlockEnd
  0
ENDSEC
  0
SECTION
  2
ENTITIES
  0
INSERT
  5
16784
330
1F
100
AcDbEntity
  8
0
100
AcDbBlockReference
 66
     1
  2
800G - Vertical Bench
 10
6382.685704000468
 20
7154.648796351896
 30
0.0
  0
ATTRIB
  5
16786
102
{ACAD_XDICTIONARY
360
16787
102
}
330
16784
100
AcDbEntity
  8
0
100
AcDbText
 10
6234.833221363475
 20
6414.125779289297
 30
0.0
 40
100.0
  1
800G
  7
Annotative
 72
     1
 11
6405.706345510814
 21
6464.125779289297
 31
0.0
100
AcDbAttribute
280
     0
  2
XXX
 70
     0
 74
     2
280
     1
1001
AcadAnnotative
1000
AnnotativeData
1002
{
1070
     1
1070
     1
1002
}
1001
AcadAnnoPO
1070
     1
  0
SEQEND
  5
16785
330
16784
100
AcDbEntity
  8
0
  0
VIEWPORT
  5
27942
102
{ACAD_XDICTIONARY
360
27943
102
}
330
D2
100
AcDbEntity
 67
     1
  8
0
100
AcDbViewport
 10
132.9126456575008
 20
79.43971249921216
 30
0.0
 40
59.17324646995997
 41
34.90838257121704
 68
     1
 69
     1
 12
132.9126456575008
 22
79.43971249921216
 13
0.0
 23
0.0
 14
10.0
 24
10.0
 15
10.0
 25
10.0
 16
0.0
 26
0.0
 36
1.0
 17
0.0
 27
0.0
 37
0.0
 42
50.0
 43
0.0
 44
0.0
 45
34.90838257121704
 50
0.0
 51
0.0
 72
  1000
 90
   557088
  1

281
     0
 71
     1
 74
     0
110
0.0
120
0.0
130
0.0
111
1.0
121
0.0
131
0.0
112
0.0
122
1.0
132
0.0
 79
     0
146
0.0
170
     0
 61
     5
348
F5
292
     1
282
     1
141
0.0
142
0.0
 63
   250
421
  3355443
  0
VIEWPORT
  5
27946
102
{ACAD_XDICTIONARY
360
27947
102
}
330
D2
100
AcDbEntity
 67
     1
  8
0
100
AcDbViewport
 10
128.5
 20
97.5
 30
0.0
 40
205.6
 41
156.0
 68
     2
 69
     2
 12
24354.21263936498
 22
7931.021756414132
 13
0.0
 23
0.0
 14
10.0
 24
10.0
 15
10.0
 25
10.0
 16
0.0
 26
0.0
 36
1.0
 17
0.0
 27
0.0
 37
0.0
 42
50.0
 43
0.0
 44
0.0
 45
40739.08749714598
 50
0.0
 51
0.0
 72
  1000
 90
   819808
  1

281
     0
 71
     1
 74
     0
110
0.0
120
0.0
130
0.0
111
1.0
121
0.0
131
0.0
112
0.0
122
1.0
132
0.0
 79
     0
146
0.0
170
     0
 61
     5
348
F5
292
     1
282
     1
141
0.0
142
0.0
 63
   250
421
  3355443
  0
ENDSEC
  0
SECTION
  2
OBJECTS
  0
DICTIONARY
  5
C
330
0
100
AcDbDictionary
281
     1
  3
ACAD_CIP_PREVIOUS_PRODUCT_INFO
350
216
  3
ACAD_COLOR
350
6B
  3
ACAD_DETAILVIEWSTYLE
350
21B
  3
ACAD_GROUP
350
D
  3
ACAD_LAST_SAVED_VERSION_INFO
350
11342
  3
ACAD_LAYOUT
350
1A
  3
ACAD_MATERIAL
350
6A
  3
ACAD_MLEADERSTYLE
350
12D
  3
ACAD_MLINESTYLE
350
17
  3
ACAD_PLOTSETTINGS
350
19
  3
ACAD_PLOTSTYLENAME
350
E
  3
ACAD_SCALELIST
350
10C
  3
ACAD_SECTIONVIEWSTYLE
350
219
  3
ACAD_TABLESTYLE
350
7E
  3
ACAD_VISUALSTYLE
350
EF
  3
ACDB_RECOMPOSE_DATA
350
352BB
  3
AcDbVariableDictionary
350
5E
  0
DICTIONARY
  5
1FF
330
2
100
AcDbDictionary
280
     1
281
     1
  3
ACAD_LAYERSTATES
360
200
  0
DICTIONARY
  5
13C
330
10
100
AcDbDictionary
280
     1
281
     1
  0
DICTIONARY
  5
1CE
330
1F
100
AcDbDictionary
280
     1
281
     1
  3
ACAD_SORTENTS
360
10C81
  0
DICTIONARY
  5
2FFD4
330
16627
100
AcDbDictionary
280
     1
281
     1
  0
DICTIONARY
  5
2FFD0
330
2FFCF
100
AcDbDictionary
280
     1
281
     1
  3
AcDbContextDataManager
360
2FFD1
  0
DICTIONARY
  5
16787
330
16786
100
AcDbDictionary
280
     1
281
     1
  3
AcDbContextDataManager
360
16788
  0
DICTIONARY
  5
27943
330
27942
100
AcDbDictionary
280
     1
281
     1
  3
ASDK_XREC_ANNOTATION_SCALE_INFO
360
27944
  0
DICTIONARY
  5
27947
330
27946
100
AcDbDictionary
280
     1
281
     1
  3
ASDK_XREC_ANNOTATION_SCALE_INFO
360
27948
  0
XRECORD
  5
216
102
{ACAD_REACTORS
330
C
102
}
330
C
100
AcDbXrecord
280
     1
300
ACDLT
300
2019
300
ACDLT_F_S
  0
DICTIONARY
  5
6B
102
{ACAD_REACTORS
330
C
102
}
330
C
100
AcDbDictionary
281
     1
  0
DICTIONARY
  5
21B
102
{ACAD_REACTORS
330
C
102
}
330
C
100
AcDbDictionary
281
     1
  3
Metric50
350
21C
  0
DICTIONARY
  5
D
102
{ACAD_REACTORS
330
C
102
}
330
C
100
AcDbDictionary
281
     1
  0
XRECORD
  5
11342
102
{ACAD_REACTORS
330
C
102
}
330
C
100
AcDbXrecord
280
     1
300
{3D74595D-0D62-CC42-A1C3-C6954A981475}
301
{999202B2-484E-9C47-848E-DA00BEB8D0DD}
302
{3D74595D-0D62-CC42-A1C3-C6954A981475}
303

  0
DICTIONARY
  5
1A
102
{ACAD_REACTORS
330
C
102
}
330
C
100
AcDbDictionary
281
     1
  3
Layout1
350
D3
  3
Layout2
350
D7
  3
Model
350
22
  0
DICTIONARY
  5
6A
102
{ACAD_REACTORS
330
C
102
}
330
C
100
AcDbDictionary
281
     1
  3
ByBlock
350
ED
  3
ByLayer
350
EC
  3
Global
350
EE
  0
DICTIONARY
  5
12D
102
{ACAD_REACTORS
330
C
102
}
330
C
100
AcDbDictionary
281
     1
  3
Standard
350
12E
  0
DICTIONARY
  5
17
102
{ACAD_REACTORS
330
C
102
}
330
C
100
AcDbDictionary
281
     1
  3
Standard
350
18
  0
DICTIONARY
  5
19
102
{ACAD_REACTORS
330
C
102
}
330
C
100
AcDbDictionary
281
     1
  0
ACDBDICTIONARYWDFLT
  5
E
102
{ACAD_REACTORS
330
C
102
}
330
C
100
AcDbDictionary
281
     1
  3
Normal
350
F
100
AcDbDictionaryWithDefault
340
F
  0
DICTIONARY
  5
10C
102
{ACAD_REACTORS
330
C
102
}
330
C
100
AcDbDictionary
281
     1
  3
A0
350
10D
  3
A1
350
1BE
  3
A2
350
1BF
  3
A3
350
1C0
  3
A4
350
1C1
  3
A5
350
1C2
  3
A6
350
1C3
  3
A7
350
1C4
  3
A8
350
1C5
  3
A9
350
1C6
  3
B0
350
1C7
  3
B1
350
1C8
  3
B2
350
1C9
  3
B3
350
1CA
  3
B4
350
1CB
  3
B5
350
1CC
  3
B6
350
1CD
  0
DICTIONARY
  5
219
102
{ACAD_REACTORS
330
C
102
}
330
C
100
AcDbDictionary
281
     1
  3
Metric50
350
21A
  0
DICTIONARY
  5
7E
102
{ACAD_REACTORS
330
C
102
}
330
C
100
AcDbDictionary
281
     1
  3
Standard
350
7F
  0
DICTIONARY
  5
EF
102
{ACAD_REACTORS
330
C
102
}
330
C
100
AcDbDictionary
281
     1
  3
2dWireframe
350
F5
  3
Basic
350
F4
  3
Brighten
350
FB
  3
ColorChange
350
FF
  3
Conceptual
350
F8
  3
Dim
350
FA
  3
EdgeColorOff
350
1E6
  3
Facepattern
350
FE
  3
Flat
350
F0
  3
FlatWithEdges
350
F1
  3
Gouraud
350
F2
  3
GouraudWithEdges
350
F3
  3
Hidden
350
F7
  3
JitterOff
350
1E4
  3
Linepattern
350
FD
  3
OverhangOff
350
1E5
  3
Realistic
350
F9
  3
Shaded
350
1F3
  3
Shaded with edges
350
1F2
  3
Shades of Gray
350
1EF
  3
Sketchy
350
1F0
  3
Thicken
350
FC
  3
Wireframe
350
F6
  3
X-Ray
350
1F1
  0
XRECORD
  5
352BB
102
{ACAD_REACTORS
330
C
102
}
330
C
100
AcDbXrecord
280
     1
 90
        1
330
7F
  0
DICTIONARY
  5
5E
102
{ACAD_REACTORS
330
C
102
}
330
C
100
AcDbDictionary
281
     1
  3
CANNOSCALE
350
146
  3
CENTEREXE
350
259
  3
CENTERLTYPEFILE
350
25A
  3
CMLEADERSTYLE
350
145
  3
CTABLESTYLE
350
84
  3
CVIEWDETAILSTYLE
350
227
  3
CVIEWSECTIONSTYLE
350
228
  3
DIMASSOC
350
5F
  3
HIDETEXT
350
63
  3
HPCOLOR
350
1FFCA
  3
HPTRANSPARENCY
350
1FFC9
  3
LAYEREVAL
350
1AE
  3
LAYERNOTIFY
350
1AF
  0
DICTIONARY
  5
200
102
{ACAD_REACTORS
330
1FF
102
}
330
1FF
100
AcDbDictionary
281
     1
  0
SORTENTSTABLE
  5
10C81
102
{ACAD_REACTORS
330
1CE
102
}
330
1CE
100
AcDbSortentsTable
330
1F
331
16784
  5
1FA00
  0
DICTIONARY
  5
2FFD1
102
{ACAD_REACTORS
330
2FFD0
102
}
330
2FFD0
100
AcDbDictionary
281
     1
  3
ACDB_ANNOTATIONSCALES
350
2FFD2
  0
DICTIONARY
  5
16788
102
{ACAD_REACTORS
330
16787
102
}
330
16787
100
AcDbDictionary
281
     1
  3
ACDB_ANNOTATIONSCALES
350
16789
  0
XRECORD
  5
27944
102
{ACAD_REACTORS
330
27943
102
}
330
27943
100
AcDbXrecord
280
     1
 90
        1
340
10D
  0
XRECORD
  5
27948
102
{ACAD_REACTORS
330
27947
102
}
330
27947
100
AcDbXrecord
280
     1
 90
        1
340
10D
  0
ACDBDETAILVIEWSTYLE
  5
21C
102
{ACAD_REACTORS
330
21B
102
}
330
21B
100
AcDbModelDocViewStyle
 70
     0
  3
Metric50
290
     0
300
Metric50
 90
        0
100
AcDbDetailViewStyle
 70
     0
 71
     0
 90
        3
 71
     1
340
11
 62
   256
 40
5.0
340
0
 62
   256
 40
5.0
300

 40
0.0
280
     1
 71
     2
340
16
 90
       25
 62
   256
 71
     3
340
11
 62
   256
 40
5.0
 90
        0
 40
15.0
 90
        1
300
%<\AcVar ViewDetailId>% (%<\AcVar ViewScale \f "%sn">%)
 71
     4
340
16
 90
       25
 62
   256
340
16
 90
       25
 62
   256
280
     0
  0
LAYOUT
  5
D3
102
{ACAD_REACTORS
330
1A
102
}
330
1A
100
AcDbPlotSettings
  1

  2
none_device
  4
ISO_A4_(210.00_x_297.00_MM)
  6

 40
7.5
 41
20.0
 42
7.5
 43
20.0
 44
210.0
 45
297.0
 46
0.0
 47
0.0
 48
0.0
 49
0.0
140
0.0
141
0.0
142
1.0
143
1.0
 70
   688
 72
     1
 73
     1
 74
     5
  7

 75
    16
147
1.0
 76
     0
 77
     2
 78
   300
148
0.0
149
0.0
100
AcDbLayout
  1
Layout1
 70
     1
 71
     1
 10
-20.0
 20
-7.5
 11
277.0
 21
202.5
 12
0.0
 22
0.0
 32
0.0
 14
25.69999999999999
 24
19.5
 34
0.0
 15
231.3
 25
175.5
 35
0.0
146
0.0
 13
0.0
 23
0.0
 33
0.0
 16
1.0
 26
0.0
 36
0.0
 17
0.0
 27
1.0
 37
0.0
 76
     0
330
D2
331
27942
1001
ACAD_PSEXT
1000
None
1000
None
1000
Not applicable
1000
The layout will not be plotted unless a new plotter configuration name is selected.
1070
     0
  0
LAYOUT
  5
D7
102
{ACAD_REACTORS
330
1A
102
}
330
1A
100
AcDbPlotSettings
  1

  2
C:\Documents and Settings\basas\Application Data\Autodesk\AutoCAD 2005\R16.1\enu\plotters\Default Windows System Printer.pc3
  4

  6

 40
0.0
 41
0.0
 42
0.0
 43
0.0
 44
0.0
 45
0.0
 46
0.0
 47
0.0
 48
0.0
 49
0.0
140
0.0
141
0.0
142
1.0
143
1.0
 70
   688
 72
     0
 73
     0
 74
     5
  7

 75
    16
147
1.0
 76
     0
 77
     2
 78
   300
148
0.0
149
0.0
100
AcDbLayout
  1
Layout2
 70
     1
 71
     2
 10
0.0
 20
0.0
 11
12.0
 21
9.0
 12
0.0
 22
0.0
 32
0.0
 14
0.0
 24
0.0
 34
0.0
 15
0.0
 25
0.0
 35
0.0
146
0.0
 13
0.0
 23
0.0
 33
0.0
 16
1.0
 26
0.0
 36
0.0
 17
0.0
 27
1.0
 37
0.0
 76
     0
330
D6
  0
LAYOUT
  5
22
102
{ACAD_XDICTIONARY
360
205
102
}
102
{ACAD_REACTORS
330
1A
102
}
330
1A
100
AcDbPlotSettings
  1

  2
none_device
  4
ISO_A4_(210.00_x_297.00_MM)
  6

 40
7.5
 41
20.0
 42
7.5
 43
20.0
 44
210.0
 45
297.0
 46
11.54999923706054
 47
-13.65000009536743
 48
0.0
 49
0.0
140
0.0
141
0.0
142
1.0
143
8.704084754739808
 70
 11952
 72
     1
 73
     0
 74
     0
  7

 75
     0
147
0.1148885871608098
 76
     0
 77
     2
 78
   300
148
0.0
149
0.0
100
AcDbLayout
  1
Model
 70
     1
 71
     0
 10
0.0
 20
0.0
 11
12.0
 21
9.0
 12
0.0
 22
0.0
 32
0.0
 14
0.0
 24
0.0
 34
0.0
 15
0.0
 25
0.0
 35
0.0
146
0.0
 13
0.0
 23
0.0
 33
0.0
 16
1.0
 26
0.0
 36
0.0
 17
0.0
 27
1.0
 37
0.0
 76
     0
330
1F
331
EA
1001
ACAD_PSEXT
1000
None
1000
None
1000
Not applicable
1000
The layout will not be plotted unless a new plotter configuration name is selected.
1070
     0
  0
MATERIAL
  5
ED
102
{ACAD_XDICTIONARY
360
1F9
102
}
102
{ACAD_REACTORS
330
6A
102
}
330
6A
100
AcDbMaterial
  1
ByBlock
 94
       63
  0
MATERIAL
  5
EC
102
{ACAD_XDICTIONARY
360
1F7
102
}
102
{ACAD_REACTORS
330
6A
102
}
330
6A
100
AcDbMaterial
  1
ByLayer
 94
       63
  0
MATERIAL
  5
EE
102
{ACAD_XDICTIONARY
360
173
102
}
102
{ACAD_REACTORS
330
6A
102
}
330
6A
100
AcDbMaterial
  1
Global
 43
0.0007999999797903
 43
0.0
 43
0.0
 43
0.0
 43
0.0
 43
0.0007999999797903
 43
0.0
 43
0.0
 43
0.0
 43
0.0
 43
1.0
 43
0.0
 43
0.0
 43
0.0
 43
0.0
 43
1.0
 49
0.0007999999797903
 49
0.0
 49
0.0
 49
0.0
 49
0.0
 49
0.0007999999797903
 49
0.0
 49
0.0
 49
0.0
 49
0.0
 49
1.0
 49
0.0
 49
0.0
 49
0.0
 49
0.0
 49
1.0
142
0.0007999999797903
142
0.0
142
0.0
142
0.0
142
0.0
142
0.0007999999797903
142
0.0
142
0.0
142
0.0
142
0.0
142
1.0
142
0.0
142
0.0
142
0.0
142
0.0
142
1.0
144
0.0007999999797903
144
0.0
144
0.0
144
0.0
144
0.0
144
0.0007999999797903
144
0.0
144
0.0
144
0.0
144
0.0
144
1.0
144
0.0
144
0.0
144
0.0
144
0.0
144
1.0
 94
       63
1001
ACAD
1070
    -1
1070
     3
1070
     0
1000

1071
        0
1070
     0
  0
MLEADERSTYLE
  5
12E
102
{ACAD_REACTORS
330
12D
102
}
330
12D
100
AcDbMLeaderStyle
179
     2
170
     2
171
     1
172
     0
 90
        2
 40
0.0
 41
0.0
173
     1
 91
-1056964608
340
14
 92
       -2
290
     1
 42
2.0
291
     1
 43
8.0
  3
Standard
 44
4.0
300

342
11
174
     1
178
     1
175
     1
176
     0
 93
-1056964608
 45
4.0
292
     0
297
     0
 46
4.0
 94
-1056964608
 47
1.0
 49
1.0
140
1.0
293
     1
141
0.0
294
     1
177
     0
142
1.0
295
     0
296
     0
143
3.75
271
     0
272
     9
273
     9
298
     0
  0
MLINESTYLE
  5
18
102
{ACAD_REACTORS
330
17
102
}
330
17
100
AcDbMlineStyle
  2
STANDARD
 70
     0
  3

 62
   256
 51
90.0
 52
90.0
 71
     2
 49
0.5
 62
   256
  6
BYLAYER
 49
-0.5
 62
   256
  6
BYLAYER
  0
ACDBPLACEHOLDER
  5
F
102
{ACAD_REACTORS
330
E
102
}
330
E
  0
SCALE
  5
10D
102
{ACAD_REACTORS
330
10C
102
}
330
10C
100
AcDbScale
 70
     0
300
1:1
140
1.0
141
1.0
290
     1
  0
SCALE
  5
1BE
102
{ACAD_REACTORS
330
10C
102
}
330
10C
100
AcDbScale
 70
     0
300
1:2
140
1.0
141
2.0
290
     0
  0
SCALE
  5
1BF
102
{ACAD_REACTORS
330
10C
102
}
330
10C
100
AcDbScale
 70
     0
300
1:4
140
1.0
141
4.0
290
     0
  0
SCALE
  5
1C0
102
{ACAD_REACTORS
330
10C
102
}
330
10C
100
AcDbScale
 70
     0
300
1:5
140
1.0
141
5.0
290
     0
  0
SCALE
  5
1C1
102
{ACAD_REACTORS
330
10C
102
}
330
10C
100
AcDbScale
 70
     0
300
1:8
140
1.0
141
8.0
290
     0
  0
SCALE
  5
1C2
102
{ACAD_REACTORS
330
10C
102
}
330
10C
100
AcDbScale
 70
     0
300
1:10
140
1.0
141
10.0
290
     0
  0
SCALE
  5
1C3
102
{ACAD_REACTORS
330
10C
102
}
330
10C
100
AcDbScale
 70
     0
300
1:16
140
1.0
141
16.0
290
     0
  0
SCALE
  5
1C4
102
{ACAD_REACTORS
330
10C
102
}
330
10C
100
AcDbScale
 70
     0
300
1:20
140
1.0
141
20.0
290
     0
  0
SCALE
  5
1C5
102
{ACAD_REACTORS
330
10C
102
}
330
10C
100
AcDbScale
 70
     0
300
1:30
140
1.0
141
30.0
290
     0
  0
SCALE
  5
1C6
102
{ACAD_REACTORS
330
10C
102
}
330
10C
100
AcDbScale
 70
     0
300
1:40
140
1.0
141
40.0
290
     0
  0
SCALE
  5
1C7
102
{ACAD_REACTORS
330
10C
102
}
330
10C
100
AcDbScale
 70
     0
300
1:50
140
1.0
141
50.0
290
     0
  0
SCALE
  5
1C8
102
{ACAD_REACTORS
330
10C
102
}
330
10C
100
AcDbScale
 70
     0
300
1:100
140
1.0
141
100.0
290
     0
  0
SCALE
  5
1C9
102
{ACAD_REACTORS
330
10C
102
}
330
10C
100
AcDbScale
 70
     0
300
2:1
140
2.0
141
1.0
290
     0
  0
SCALE
  5
1CA
102
{ACAD_REACTORS
330
10C
102
}
330
10C
100
AcDbScale
 70
     0
300
4:1
140
4.0
141
1.0
290
     0
  0
SCALE
  5
1CB
102
{ACAD_REACTORS
330
10C
102
}
330
10C
100
AcDbScale
 70
     0
300
8:1
140
8.0
141
1.0
290
     0
  0
SCALE
  5
1CC
102
{ACAD_REACTORS
330
10C
102
}
330
10C
100
AcDbScale
 70
     0
300
10:1
140
10.0
141
1.0
290
     0
  0
SCALE
  5
1CD
102
{ACAD_REACTORS
330
10C
102
}
330
10C
100
AcDbScale
 70
     0
300
100:1
140
100.0
141
1.0
290
     0
  0
ACDBSECTIONVIEWSTYLE
  5
21A
102
{ACAD_REACTORS
330
219
102
}
330
219
100
AcDbModelDocViewStyle
 70
     0
  3
Metric50
290
     0
300
Metric50
 90
        0
100
AcDbSectionViewStyle
 70
     0
 71
     0
 90
      102
 71
     1
340
11
 62
   256
 40
5.0
340
0
340
0
 62
   256
 40
5.0
300
I, O, Q, S, X, Z
 40
10.0
 90
        0
 40
2.5
 90
        0
 71
     2
340
16
 90
       25
 62
   256
340
16
 90
       50
 62
   256
 40
5.0
 40
2.5
 40
5.0
 71
     3
340
11
 62
   256
 40
5.0
 90
        0
 40
15.0
 90
        1
300
%<\AcVar ViewSectionStartId>%-%<\AcVar ViewSectionEndId>% (%<\AcVar ViewScale \f "%sn">%)
 71
     4
 62
   256
 62
   257
300
ANSI31
 40
1.0
 90
        0
290
     0
290
     0
 90
        6
 40
0.0
 40
1.570796326794896
 40
0.2617993877991494
 40
1.308996938995747
 40
-0.2617993877991494
 40
1.832595714594046
  0
TABLESTYLE
  5
7F
102
{ACAD_XDICTIONARY
360
162
102
}
102
{ACAD_REACTORS
330
7E
102
}
330
7E
100
AcDbTableStyle
280
     0
  3
Standard
 70
     0
 71
     0
 40
1.5
 41
1.5
280
     0
281
     0
  7
Standard
140
4.5
170
     2
 62
     0
 63
     7
283
     0
 90
      512
 91
        0
  1

274
    -2
284
     1
 64
     0
275
    -2
285
     1
 65
     0
276
    -2
286
     1
 66
     0
277
    -2
287
     1
 67
     0
278
    -2
288
     1
 68
     0
279
    -2
289
     1
 69
     0
  7
Standard
140
6.0
170
     5
 62
     0
 63
     7
283
     0
 90
      512
 91
        0
  1

274
    -2
284
     1
 64
     0
275
    -2
285
     1
 65
     0
276
    -2
286
     1
 66
     0
277
    -2
287
     1
 67
     0
278
    -2
288
     1
 68
     0
279
    -2
289
     1
 69
     0
  7
Standard
140
4.5
170
     5
 62
     0
 63
     7
283
     0
 90
      512
 91
        0
  1

274
    -2
284
     1
 64
     0
275
    -2
285
     1
 65
     0
276
    -2
286
     1
 66
     0
277
    -2
287
     1
 67
     0
278
    -2
288
     1
 68
     0
279
    -2
289
     1
 69
     0
  0
VISUALSTYLE
  5
F5
102
{ACAD_REACTORS
330
EF
102
}
330
EF
100
AcDbVisualStyle
  2
2dWireframe
 70
     4
177
     3
291
     0
 70
    58
 90
        0
176
     1
 90
        2
176
     1
 90
        1
176
     1
 90
        0
176
     1
 40
0.6
176
     1
 40
30.0
176
     1
 62
     7
420
 16777215
176
     1
 90
        1
176
     1
 90
        4
176
     1
 62
     7
176
     1
 62
   257
176
     1
 90
        1
176
     1
 90
        1
176
     1
 40
1.0
176
     1
 90
        0
176
     1
 62
   257
176
     1
 40
1.0
176
     1
 90
        1
176
     1
 90
        6
176
     1
 90
        2
176
     1
 62
     7
176
     1
 90
        5
176
     1
 90
        0
176
     1
 90
        0
176
     1
290
     0
176
     1
 90
        1
176
     1
 40
0.0
176
     1
 90
        0
176
     1
290
     1
176
     1
290
     1
176
     1
290
     0
176
     1
290
     0
176
     1
290
     0
176
     1
290
     0
176
     1
290
     0
176
     1
290
     0
176
     1
290
     0
176
     1
 90
       50
176
     1
 40
0.0
176
     1
 40
1.0
176
     1
 90
        0
176
     1
 62
    18
420
        0
176
     1
 90
       50
176
     1
 90
        3
176
     1
 62
     5
420
      255
176
     1
290
     0
176
     1
 90
       50
176
     1
 90
       50
176
     1
 90
       50
176
     1
290
     0
176
     1
 90
       50
176
     1
 62
   256
176
     0
 40
1.0
176
     0
 90
        2
176
     1
  1
strokes_ogs.tif
176
     1
290
     0
176
     1
 40
1.0
176
     1
 40
1.0
176
     1
  0
VISUALSTYLE
  5
F4
102
{ACAD_REACTORS
330
EF
102
}
330
EF
100
AcDbVisualStyle
  2
Basic
 70
     7
177
     3
291
     1
 70
    58
 90
        1
176
     1
 90
        0
176
     1
 90
        1
176
     1
 90
        0
176
     1
 40
0.6
176
     1
 40
30.0
176
     1
 62
     7
420
 16777215
176
     1
 90
        0
176
     1
 90
        4
176
     1
 62
     7
176
     1
 62
   257
176
     1
 90
        1
176
     1
 90
        1
176
     1
 40
1.0
176
     1
 90
        8
176
     1
 62
     7
176
     1
 40
1.0
176
     1
 90
        1
176
     1
 90
        6
176
     1
 90
        2
176
     1
 62
     7
176
     1
 90
        5
176
     1
 90
        0
176
     1
 90
        0
176
     1
290
     0
176
     1
 90
        1
176
     1
 40
0.0
176
     1
 90
        0
176
     1
290
     0
176
     1
290
     1
176
     1
290
     1
176
     1
290
     0
176
     1
290
     0
176
     1
290
     0
176
     1
290
     0
176
     1
290
     0
176
     1
290
     0
176
     1
 90
       50
176
     1
 40
0.0
176
     1
 40
1.0
176
     1
 90
        0
176
     1
 62
    18
420
        0
176
     1
 90
       50
176
     1
 90
        3
176
     1
 62
     5
420
      255
176
     1
290
     0
176
     1
 90
       50
176
     1
 90
       50
176
     1
 90
       50
176
     1
290
     0
176
     1
 90
       50
176
     1
 62
   256
176
     0
 40
1.0
176
     0
 90
        2
176
     1
  1
strokes_ogs.tif
176
     1
290
     0
176
     1
 40
1.0
176
     1
 40
1.0
176
     1
  0
VISUALSTYLE
  5
FB
102
{ACAD_REACTORS
330
EF
102
}
330
EF
100
AcDbVisualStyle
  2
Brighten
 70
    12
177
     3
291
     1
 70
    58
 90
        2
176
     1
 90
        2
176
     1
 90
        1
176
     1
 90
        0
176
     1
 40
0.6
176
     1
 40
30.0
176
     1
 62
     7
420
 16777215
176
     1
 90
        1
176
     1
 90
        4
176
     1
 62
     7
176
     1
 62
   257
176
     1
 90
        1
176
     1
 90
        1
176
     1
 40
1.0
176
     1
 90
        8
176
     1
 62
     7
176
     1
 40
1.0
176
     1
 90
        1
176
     1
 90
        6
176
     1
 90
        2
176
     1
 62
     7
176
     1
 90
        5
176
     1
 90
        0
176
     1
 90
        0
176
     1
290
     0
176
     1
 90
        1
176
     1
 40
50.0
176
     1
 90
        0
176
     1
290
     0
176
     1
290
     1
176
     1
290
     1
176
     1
290
     0
176
     1
290
     0
176
     1
290
     0
176
     1
290
     0
176
     1
290
     0
176
     1
290
     0
176
     1
 90
       50
176
     1
 40
0.0
176
     1
 40
1.0
176
     1
 90
        0
176
     1
 62
    18
420
        0
176
     1
 90
       50
176
     1
 90
        3
176
     1
 62
     5
420
      255
176
     1
290
     0
176
     1
 90
       50
176
     1
 90
       50
176
     1
 90
       50
176
     1
290
     0
176
     1
 90
       50
176
     1
 62
   256
176
     0
 40
1.0
176
     0
 90
        2
176
     1
  1
strokes_ogs.tif
176
     1
290
     0
176
     1
 40
1.0
176
     1
 40
1.0
176
     1
  0
VISUALSTYLE
  5
FF
102
{ACAD_REACTORS
330
EF
102
}
330
EF
100
AcDbVisualStyle
  2
ColorChange
 70
    16
177
     3
291
     1
 70
    58
 90
        2
176
     1
 90
        2
176
     1
 90
        3
176
     1
 90
        0
176
     1
 40
0.6
176
     1
 40
30.0
176
     1
 62
     8
420
  8421504
176
     1
 90
        1
176
     1
 90
        4
176
     1
 62
     7
176
     1
 62
   257
176
     1
 90
        1
176
     1
 90
        1
176
     1
 40
1.0
176
     1
 90
        8
176
     1
 62
     8
420
  8421504
176
     1
 40
1.0
176
     1
 90
        1
176
     1
 90
        6
176
     1
 90
        2
176
     1
 62
     7
176
     1
 90
        5
176
     1
 90
        0
176
     1
 90
        0
176
     1
290
     0
176
     1
 90
        1
176
     1
 40
0.0
176
     1
 90
        0
176
     1
290
     0
176
     1
290
     1
176
     1
290
     1
176
     1
290
     0
176
     1
290
     0
176
     1
290
     0
176
     1
290
     0
176
     1
290
     0
176
     1
290
     0
176
     1
 90
       50
176
     1
 40
0.0
176
     1
 40
1.0
176
     1
 90
        0
176
     1
 62
    18
420
        0
176
     1
 90
       50
176
     1
 90
        3
176
     1
 62
     5
420
      255
176
     1
290
     0
176
     1
 90
       50
176
     1
 90
       50
176
     1
 90
       50
176
     1
290
     0
176
     1
 90
       50
176
     1
 62
   256
176
     0
 40
1.0
176
     0
 90
        2
176
     1
  1
strokes_ogs.tif
176
     1
290
     0
176
     1
 40
1.0
176
     1
 40
1.0
176
     1
  0
VISUALSTYLE
  5
F8
102
{ACAD_REACTORS
330
EF
102
}
330
EF
100
AcDbVisualStyle
  2
Conceptual
 70
     9
177
     3
291
     0
 70
    58
 90
        3
176
     1
 90
        2
176
     1
 90
        1
176
     1
 90
        0
176
     1
 40
0.6
176
     1
 40
30.0
176
     1
 62
     7
420
 16777215
176
     1
 90
        2
176
     1
 90
        2
176
     1
 62
     7
176
     1
 62
   257
176
     1
 90
        1
176
     1
 90
        1
176
     1
 40
40.0
176
     1
 90
        8
176
     1
 62
     7
176
     1
 40
1.0
176
     1
 90
        1
176
     1
 90
        6
176
     1
 90
        2
176
     1
 62
     7
176
     1
 90
        3
176
     1
 90
        0
176
     1
 90
        0
176
     1
290
     0
176
     1
 90
        1
176
     1
 40
0.0
176
     1
 90
        0
176
     1
290
     0
176
     1
290
     1
176
     1
290
     1
176
     1
290
     0
176
     1
290
     0
176
     1
290
     0
176
     1
290
     0
176
     1
290
     0
176
     1
290
     0
176
     1
 90
       50
176
     1
 40
0.0
176
     1
 40
1.0
176
     1
 90
        0
176
     1
 62
    18
420
        0
176
     1
 90
       50
176
     1
 90
        3
176
     1
 62
     5
420
      255
176
     1
290
     0
176
     1
 90
       50
176
     1
 90
       50
176
     1
 90
       50
176
     1
290
     0
176
     1
 90
       50
176
     1
 62
   256
176
     0
 40
1.0
176
     0
 90
        2
176
     1
  1
strokes_ogs.tif
176
     1
290
     0
176
     1
 40
1.0
176
     1
 40
1.0
176
     1
  0
VISUALSTYLE
  5
FA
102
{ACAD_REACTORS
330
EF
102
}
330
EF
100
AcDbVisualStyle
  2
Dim
 70
    11
177
     3
291
     1
 70
    58
 90
        2
176
     1
 90
        2
176
     1
 90
        1
176
     1
 90
        0
176
     1
 40
0.6
176
     1
 40
30.0
176
     1
 62
     7
420
 16777215
176
     1
 90
        1
176
     1
 90
        4
176
     1
 62
     7
176
     1
 62
   257
176
     1
 90
        1
176
     1
 90
        1
176
     1
 40
1.0
176
     1
 90
        8
176
     1
 62
     7
176
     1
 40
1.0
176
     1
 90
        1
176
     1
 90
        6
176
     1
 90
        2
176
     1
 62
     7
176
     1
 90
        5
176
     1
 90
        0
176
     1
 90
        0
176
     1
290
     0
176
     1
 90
        1
176
     1
 40
-50.0
176
     1
 90
        0
176
     1
290
     0
176
     1
290
     1
176
     1
290
     1
176
     1
290
     0
176
     1
290
     0
176
     1
290
     0
176
     1
290
     0
176
     1
290
     0
176
     1
290
     0
176
     1
 90
       50
176
     1
 40
0.0
176
     1
 40
1.0
176
     1
 90
        0
176
     1
 62
    18
420
        0
176
     1
 90
       50
176
     1
 90
        3
176
     1
 62
     5
420
      255
176
     1
290
     0
176
     1
 90
       50
176
     1
 90
       50
176
     1
 90
       50
176
     1
290
     0
176
     1
 90
       50
176
     1
 62
   256
176
     0
 40
1.0
176
     0
 90
        2
176
     1
  1
strokes_ogs.tif
176
     1
290
     0
176
     1
 40
1.0
176
     1
 40
1.0
176
     1
  0
VISUALSTYLE
  5
1E6
102
{ACAD_REACTORS
330
EF
102
}
330
EF
100
AcDbVisualStyle
  2
EdgeColorOff
 70
    22
177
     3
291
     1
 70
    58
 90
        2
176
     0
 90
        2
176
     0
 90
        0
176
     0
 90
        0
176
     0
 40
0.6
176
     0
 40
30.0
176
     0
 62
     7
420
 16777215
176
     0
 90
        1
176
     0
 90
        4
176
     0
 62
     7
176
     0
 62
   257
176
     0
 90
        1
176
     0
 90
        1
176
     0
 40
1.0
176
     0
 90
        8
176
     2
 62
     7
176
     0
 40
1.0
176
     0
 90
        1
176
     0
 90
        6
176
     0
 90
        2
176
     0
 62
     7
176
     0
 90
        5
176
     0
 90
        0
176
     0
 90
        0
176
     0
290
     0
176
     0
 90
        1
176
     0
 40
0.0
176
     0
 90
        0
176
     0
290
     0
176
     1
290
     1
176
     1
290
     1
176
     1
290
     0
176
     1
290
     0
176
     1
290
     0
176
     1
290
     0
176
     1
290
     0
176
     1
290
     0
176
     1
 90
       50
176
     1
 40
0.0
176
     1
 40
1.0
176
     1
 90
        0
176
     1
 62
    18
420
        0
176
     1
 90
       50
176
     1
 90
        3
176
     1
 62
     5
420
      255
176
     1
290
     0
176
     1
 90
       50
176
     1
 90
       50
176
     1
 90
       50
176
     1
290
     0
176
     1
 90
       50
176
     1
 62
   256
176
     0
 40
1.0
176
     0
 90
        2
176
     1
  1
strokes_ogs.tif
176
     1
290
     0
176
     1
 40
1.0
176
     1
 40
1.0
176
     1
  0
VISUALSTYLE
  5
FE
102
{ACAD_REACTORS
330
EF
102
}
330
EF
100
AcDbVisualStyle
  2
Facepattern
 70
    15
177
     3
291
     1
 70
    58
 90
        2
176
     1
 90
        2
176
     1
 90
        1
176
     1
 90
        0
176
     1
 40
0.6
176
     1
 40
30.0
176
     1
 62
     7
420
 16777215
176
     1
 90
        1
176
     1
 90
        4
176
     1
 62
     7
176
     1
 62
   257
176
     1
 90
        1
176
     1
 90
        1
176
     1
 40
1.0
176
     1
 90
        8
176
     1
 62
     7
176
     1
 40
1.0
176
     1
 90
        1
176
     1
 90
        6
176
     1
 90
        2
176
     1
 62
     7
176
     1
 90
        5
176
     1
 90
        0
176
     1
 90
        0
176
     1
290
     0
176
     1
 90
        1
176
     1
 40
0.0
176
     1
 90
        0
176
     1
290
     0
176
     1
290
     1
176
     1
290
     1
176
     1
290
     0
176
     1
290
     0
176
     1
290
     0
176
     1
290
     0
176
     1
290
     0
176
     1
290
     0
176
     1
 90
       50
176
     1
 40
0.0
176
     1
 40
1.0
176
     1
 90
        0
176
     1
 62
    18
420
        0
176
     1
 90
       50
176
     1
 90
        3
176
     1
 62
     5
420
      255
176
     1
290
     0
176
     1
 90
       50
176
     1
 90
       50
176
     1
 90
       50
176
     1
290
     0
176
     1
 90
       50
176
     1
 62
   256
176
     0
 40
1.0
176
     0
 90
        2
176
     1
  1
strokes_ogs.tif
176
     1
290
     0
176
     1
 40
1.0
176
     1
 40
1.0
176
     1
  0
VISUALSTYLE
  5
F0
102
{ACAD_REACTORS
330
EF
102
}
330
EF
100
AcDbVisualStyle
  2
Flat
 70
     0
177
     3
291
     1
 70
    58
 90
        2
176
     1
 90
        1
176
     1
 90
        1
176
     1
 90
        2
176
     1
 40
0.6
176
     1
 40
30.0
176
     1
 62
     7
420
 16777215
176
     1
 90
        0
176
     1
 90
        0
176
     1
 62
     7
176
     1
 62
   257
176
     1
 90
        1
176
     1
 90
        1
176
     1
 40
1.0
176
     1
 90
        8
176
     1
 62
     7
176
     1
 40
1.0
176
     1
 90
        1
176
     1
 90
        6
176
     1
 90
        2
176
     1
 62
     7
176
     1
 90
        5
176
     1
 90
        0
176
     1
 90
        0
176
     1
290
     0
176
     1
 90
       13
176
     1
 40
0.0
176
     1
 90
        0
176
     1
290
     0
176
     1
290
     1
176
     1
290
     1
176
     1
290
     0
176
     1
290
     0
176
     1
290
     0
176
     1
290
     0
176
     1
290
     0
176
     1
290
     0
176
     1
 90
       50
176
     1
 40
0.0
176
     1
 40
1.0
176
     1
 90
        0
176
     1
 62
    18
420
        0
176
     1
 90
       50
176
     1
 90
        3
176
     1
 62
     5
420
      255
176
     1
290
     0
176
     1
 90
       50
176
     1
 90
       50
176
     1
 90
       50
176
     1
290
     0
176
     1
 90
       50
176
     1
 62
   256
176
     0
 40
1.0
176
     0
 90
        2
176
     1
  1
strokes_ogs.tif
176
     1
290
     0
176
     1
 40
1.0
176
     1
 40
1.0
176
     1
  0
VISUALSTYLE
  5
F1
102
{ACAD_REACTORS
330
EF
102
}
330
EF
100
AcDbVisualStyle
  2
FlatWithEdges
 70
     1
177
     3
291
     1
 70
    58
 90
        2
176
     1
 90
        1
176
     1
 90
        1
176
     1
 90
        2
176
     1
 40
0.6
176
     1
 40
30.0
176
     1
 62
     7
420
 16777215
176
     1
 90
        1
176
     1
 90
        0
176
     1
 62
     7
176
     1
 62
   257
176
     1
 90
        1
176
     1
 90
        1
176
     1
 40
1.0
176
     1
 90
        0
176
     1
 62
   257
176
     1
 40
1.0
176
     1
 90
        1
176
     1
 90
        6
176
     1
 90
        2
176
     1
 62
     7
176
     1
 90
        5
176
     1
 90
        0
176
     1
 90
        0
176
     1
290
     0
176
     1
 90
       13
176
     1
 40
0.0
176
     1
 90
        0
176
     1
290
     0
176
     1
290
     1
176
     1
290
     1
176
     1
290
     0
176
     1
290
     0
176
     1
290
     0
176
     1
290
     0
176
     1
290
     0
176
     1
290
     0
176
     1
 90
       50
176
     1
 40
0.0
176
     1
 40
1.0
176
     1
 90
        0
176
     1
 62
    18
420
        0
176
     1
 90
       50
176
     1
 90
        3
176
     1
 62
     5
420
      255
176
     1
290
     0
176
     1
 90
       50
176
     1
 90
       50
176
     1
 90
       50
176
     1
290
     0
176
     1
 90
       50
176
     1
 62
   256
176
     0
 40
1.0
176
     0
 90
        2
176
     1
  1
strokes_ogs.tif
176
     1
290
     0
176
     1
 40
1.0
176
     1
 40
1.0
176
     1
  0
VISUALSTYLE
  5
F2
102
{ACAD_REACTORS
330
EF
102
}
330
EF
100
AcDbVisualStyle
  2
Gouraud
 70
     2
177
     3
291
     1
 70
    58
 90
        2
176
     1
 90
        2
176
     1
 90
        1
176
     1
 90
        2
176
     1
 40
0.6
176
     1
 40
30.0
176
     1
 62
     7
420
 16777215
176
     1
 90
        0
176
     1
 90
        0
176
     1
 62
     7
176
     1
 62
   257
176
     1
 90
        1
176
     1
 90
        1
176
     1
 40
1.0
176
     1
 90
        0
176
     1
 62
     7
176
     1
 40
1.0
176
     1
 90
        1
176
     1
 90
        6
176
     1
 90
        2
176
     1
 62
     7
176
     1
 90
        5
176
     1
 90
        0
176
     1
 90
        0
176
     1
290
     0
176
     1
 90
       13
176
     1
 40
0.0
176
     1
 90
        0
176
     1
290
     0
176
     1
290
     1
176
     1
290
     1
176
     1
290
     0
176
     1
290
     0
176
     1
290
     0
176
     1
290
     0
176
     1
290
     0
176
     1
290
     0
176
     1
 90
       50
176
     1
 40
0.0
176
     1
 40
1.0
176
     1
 90
        0
176
     1
 62
    18
420
        0
176
     1
 90
       50
176
     1
 90
        3
176
     1
 62
     5
420
      255
176
     1
290
     0
176
     1
 90
       50
176
     1
 90
       50
176
     1
 90
       50
176
     1
290
     0
176
     1
 90
       50
176
     1
 62
   256
176
     0
 40
1.0
176
     0
 90
        2
176
     1
  1
strokes_ogs.tif
176
     1
290
     0
176
     1
 40
1.0
176
     1
 40
1.0
176
     1
  0
VISUALSTYLE
  5
F3
102
{ACAD_REACTORS
330
EF
102
}
330
EF
100
AcDbVisualStyle
  2
GouraudWithEdges
 70
     3
177
     3
291
     1
 70
    58
 90
        2
176
     1
 90
        2
176
     1
 90
        1
176
     1
 90
        2
176
     1
 40
0.6
176
     1
 40
30.0
176
     1
 62
     7
420
 16777215
176
     1
 90
        1
176
     1
 90
        0
176
     1
 62
     7
176
     1
 62
   257
176
     1
 90
        1
176
     1
 90
        1
176
     1
 40
1.0
176
     1
 90
        0
176
     1
 62
   257
176
     1
 40
1.0
176
     1
 90
        1
176
     1
 90
        6
176
     1
 90
        2
176
     1
 62
     7
176
     1
 90
        5
176
     1
 90
        0
176
     1
 90
        0
176
     1
290
     0
176
     1
 90
       13
176
     1
 40
0.0
176
     1
 90
        0
176
     1
290
     0
176
     1
290
     1
176
     1
290
     1
176
     1
290
     0
176
     1
290
     0
176
     1
290
     0
176
     1
290
     0
176
     1
290
     0
176
     1
290
     0
176
     1
 90
       50
176
     1
 40
0.0
176
     1
 40
1.0
176
     1
 90
        0
176
     1
 62
    18
420
        0
176
     1
 90
       50
176
     1
 90
        3
176
     1
 62
     5
420
      255
176
     1
290
     0
176
     1
 90
       50
176
     1
 90
       50
176
     1
 90
       50
176
     1
290
     0
176
     1
 90
       50
176
     1
 62
   256
176
     0
 40
1.0
176
     0
 90
        2
176
     1
  1
strokes_ogs.tif
176
     1
290
     0
176
     1
 40
1.0
176
     1
 40
1.0
176
     1
  0
VISUALSTYLE
  5
F7
102
{ACAD_REACTORS
330
EF
102
}
330
EF
100
AcDbVisualStyle
  2
Hidden
 70
     6
177
     3
291
     0
 70
    58
 90
        1
176
     1
 90
        2
176
     1
 90
        2
176
     1
 90
        0
176
     1
 40
0.6
176
     1
 40
30.0
176
     1
 62
     7
420
 16777215
176
     1
 90
        2
176
     1
 90
        2
176
     1
 62
     7
176
     1
 62
   257
176
     1
 90
        2
176
     1
 90
        1
176
     1
 40
40.0
176
     1
 90
        0
176
     1
 62
   257
176
     1
 40
1.0
176
     1
 90
        1
176
     1
 90
        6
176
     1
 90
        2
176
     1
 62
     7
176
     1
 90
        3
176
     1
 90
        0
176
     1
 90
        0
176
     1
290
     0
176
     1
 90
        1
176
     1
 40
0.0
176
     1
 90
        0
176
     1
290
     0
176
     1
290
     1
176
     1
290
     1
176
     1
290
     0
176
     1
290
     0
176
     1
290
     0
176
     1
290
     0
176
     1
290
     0
176
     1
290
     0
176
     1
 90
       50
176
     1
 40
0.0
176
     1
 40
1.0
176
     1
 90
        0
176
     1
 62
    18
420
        0
176
     1
 90
       50
176
     1
 90
        3
176
     1
 62
     5
420
      255
176
     1
290
     0
176
     1
 90
       50
176
     1
 90
       50
176
     1
 90
       50
176
     1
290
     0
176
     1
 90
       50
176
     1
 62
   256
176
     0
 40
1.0
176
     0
 90
        2
176
     1
  1
strokes_ogs.tif
176
     1
290
     0
176
     1
 40
1.0
176
     1
 40
1.0
176
     1
  0
VISUALSTYLE
  5
1E4
102
{ACAD_REACTORS
330
EF
102
}
330
EF
100
AcDbVisualStyle
  2
JitterOff
 70
    20
177
     3
291
     1
 70
    58
 90
        2
176
     0
 90
        2
176
     0
 90
        0
176
     0
 90
        0
176
     0
 40
0.6
176
     0
 40
30.0
176
     0
 62
     7
420
 16777215
176
     0
 90
        1
176
     0
 90
        4
176
     0
 62
     7
176
     0
 62
   257
176
     0
 90
        1
176
     0
 90
        1
176
     0
 40
1.0
176
     0
 90
       10
176
     2
 62
     7
176
     0
 40
1.0
176
     0
 90
        1
176
     0
 90
        6
176
     0
 90
        2
176
     0
 62
     7
176
     0
 90
        5
176
     0
 90
        0
176
     0
 90
        0
176
     0
290
     0
176
     0
 90
        1
176
     0
 40
0.0
176
     0
 90
        0
176
     0
290
     0
176
     1
290
     1
176
     1
290
     1
176
     1
290
     0
176
     1
290
     0
176
     1
290
     0
176
     1
290
     0
176
     1
290
     0
176
     1
290
     0
176
     1
 90
       50
176
     1
 40
0.0
176
     1
 40
1.0
176
     1
 90
        0
176
     1
 62
    18
420
        0
176
     1
 90
       50
176
     1
 90
        3
176
     1
 62
     5
420
      255
176
     1
290
     0
176
     1
 90
       50
176
     1
 90
       50
176
     1
 90
       50
176
     1
290
     0
176
     1
 90
       50
176
     1
 62
   256
176
     0
 40
1.0
176
     0
 90
        2
176
     1
  1
strokes_ogs.tif
176
     1
290
     0
176
     1
 40
1.0
176
     1
 40
1.0
176
     1
  0
VISUALSTYLE
  5
FD
102
{ACAD_REACTORS
330
EF
102
}
330
EF
100
AcDbVisualStyle
  2
Linepattern
 70
    14
177
     3
291
     1
 70
    58
 90
        2
176
     1
 90
        2
176
     1
 90
        1
176
     1
 90
        0
176
     1
 40
0.6
176
     1
 40
30.0
176
     1
 62
     7
420
 16777215
176
     1
 90
        1
176
     1
 90
        4
176
     1
 62
     7
176
     1
 62
   257
176
     1
 90
        7
176
     1
 90
        7
176
     1
 40
1.0
176
     1
 90
        8
176
     1
 62
     7
176
     1
 40
1.0
176
     1
 90
        1
176
     1
 90
        6
176
     1
 90
        2
176
     1
 62
     7
176
     1
 90
        5
176
     1
 90
        0
176
     1
 90
        0
176
     1
290
     0
176
     1
 90
        1
176
     1
 40
0.0
176
     1
 90
        0
176
     1
290
     0
176
     1
290
     1
176
     1
290
     1
176
     1
290
     0
176
     1
290
     0
176
     1
290
     0
176
     1
290
     0
176
     1
290
     0
176
     1
290
     0
176
     1
 90
       50
176
     1
 40
0.0
176
     1
 40
1.0
176
     1
 90
        0
176
     1
 62
    18
420
        0
176
     1
 90
       50
176
     1
 90
        3
176
     1
 62
     5
420
      255
176
     1
290
     0
176
     1
 90
       50
176
     1
 90
       50
176
     1
 90
       50
176
     1
290
     0
176
     1
 90
       50
176
     1
 62
   256
176
     0
 40
1.0
176
     0
 90
        2
176
     1
  1
strokes_ogs.tif
176
     1
290
     0
176
     1
 40
1.0
176
     1
 40
1.0
176
     1
  0
VISUALSTYLE
  5
1E5
102
{ACAD_REACTORS
330
EF
102
}
330
EF
100
AcDbVisualStyle
  2
OverhangOff
 70
    21
177
     3
291
     1
 70
    58
 90
        2
176
     0
 90
        2
176
     0
 90
        0
176
     0
 90
        0
176
     0
 40
0.6
176
     0
 40
30.0
176
     0
 62
     7
420
 16777215
176
     0
 90
        1
176
     0
 90
        4
176
     0
 62
     7
176
     0
 62
   257
176
     0
 90
        1
176
     0
 90
        1
176
     0
 40
1.0
176
     0
 90
        9
176
     2
 62
     7
176
     0
 40
1.0
176
     0
 90
        1
176
     0
 90
        6
176
     0
 90
        2
176
     0
 62
     7
176
     0
 90
        5
176
     0
 90
        0
176
     0
 90
        0
176
     0
290
     0
176
     0
 90
        1
176
     0
 40
0.0
176
     0
 90
        0
176
     0
290
     0
176
     1
290
     1
176
     1
290
     1
176
     1
290
     0
176
     1
290
     0
176
     1
290
     0
176
     1
290
     0
176
     1
290
     0
176
     1
290
     0
176
     1
 90
       50
176
     1
 40
0.0
176
     1
 40
1.0
176
     1
 90
        0
176
     1
 62
    18
420
        0
176
     1
 90
       50
176
     1
 90
        3
176
     1
 62
     5
420
      255
176
     1
290
     0
176
     1
 90
       50
176
     1
 90
       50
176
     1
 90
       50
176
     1
290
     0
176
     1
 90
       50
176
     1
 62
   256
176
     0
 40
1.0
176
     0
 90
        2
176
     1
  1
strokes_ogs.tif
176
     1
290
     0
176
     1
 40
1.0
176
     1
 40
1.0
176
     1
  0
VISUALSTYLE
  5
F9
102
{ACAD_REACTORS
330
EF
102
}
330
EF
100
AcDbVisualStyle
  2
Realistic
 70
     8
177
     3
291
     0
 70
    58
 90
        2
176
     1
 90
        3
176
     1
 90
        0
176
     1
 90
        2
176
     1
 40
0.6
176
     1
 40
30.0
176
     1
 62
     7
420
 16777215
176
     1
 90
        0
176
     1
 90
        0
176
     1
 62
     7
176
     1
 62
   257
176
     1
 90
        1
176
     1
 90
        1
176
     1
 40
1.0
176
     1
 90
        8
176
     1
 62
   257
176
     1
 40
1.0
176
     1
 90
        1
176
     1
 90
        6
176
     1
 90
        2
176
     1
 62
     7
176
     1
 90
        3
176
     1
 90
        0
176
     1
 90
        0
176
     1
290
     0
176
     1
 90
       13
176
     1
 40
0.0
176
     1
 90
        0
176
     1
290
     0
176
     1
290
     1
176
     1
290
     1
176
     1
290
     0
176
     1
290
     0
176
     1
290
     0
176
     1
290
     0
176
     1
290
     0
176
     1
290
     0
176
     1
 90
       50
176
     1
 40
0.0
176
     1
 40
1.0
176
     1
 90
        0
176
     1
 62
    18
420
        0
176
     1
 90
       50
176
     1
 90
        3
176
     1
 62
     5
420
      255
176
     1
290
     0
176
     1
 90
       50
176
     1
 90
       50
176
     1
 90
       50
176
     1
290
     0
176
     1
 90
       50
176
     1
 62
   256
176
     0
 40
1.0
176
     0
 90
        2
176
     1
  1
strokes_ogs.tif
176
     1
290
     0
176
     1
 40
1.0
176
     1
 40
1.0
176
     1
  0
VISUALSTYLE
  5
1F3
102
{ACAD_REACTORS
330
EF
102
}
330
EF
100
AcDbVisualStyle
  2
Shaded
 70
    27
177
     3
291
     0
 70
    58
 90
        2
176
     1
 90
        2
176
     1
 90
        1
176
     1
 90
        2
176
     1
 40
0.6
176
     1
 40
30.0
176
     1
 62
     7
420
 16777215
176
     1
 90
        0
176
     1
 90
        4
176
     1
 62
     7
176
     1
 62
   257
176
     1
 90
        1
176
     1
 90
        1
176
     1
 40
1.0
176
     1
 90
        8
176
     1
 62
   257
176
     1
 40
1.0
176
     1
 90
        1
176
     1
 90
        6
176
     1
 90
        2
176
     1
 62
     8
420
  7895160
176
     1
 90
        3
176
     1
 90
        0
176
     1
 90
        0
176
     1
290
     0
176
     1
 90
        5
176
     1
 40
0.0
176
     1
 90
        0
176
     1
290
     0
176
     1
290
     1
176
     1
290
     1
176
     1
290
     0
176
     1
290
     0
176
     1
290
     0
176
     1
290
     0
176
     1
290
     0
176
     1
290
     0
176
     1
 90
       50
176
     1
 40
0.0
176
     1
 40
1.0
176
     1
 90
        0
176
     1
 62
    18
420
        0
176
     1
 90
       50
176
     1
 90
        3
176
     1
 62
     5
420
      255
176
     1
290
     0
176
     1
 90
       50
176
     1
 90
       50
176
     1
 90
       50
176
     1
290
     0
176
     1
 90
       50
176
     1
 62
   256
176
     0
 40
1.0
176
     0
 90
        2
176
     1
  1
strokes_ogs.tif
176
     1
290
     0
176
     1
 40
1.0
176
     1
 40
1.0
176
     1
  0
VISUALSTYLE
  5
1F2
102
{ACAD_REACTORS
330
EF
102
}
330
EF
100
AcDbVisualStyle
  2
Shaded with edges
 70
    26
177
     3
291
     0
 70
    58
 90
        2
176
     1
 90
        2
176
     1
 90
        1
176
     1
 90
        2
176
     1
 40
0.6
176
     1
 40
30.0
176
     1
 62
     7
420
 16777215
176
     1
 90
        1
176
     1
 90
        2
176
     1
 62
     7
176
     1
 62
   257
176
     1
 90
        2
176
     1
 90
        1
176
     1
 40
1.0
176
     1
 90
        8
176
     1
 62
   257
176
     1
 40
1.0
176
     1
 90
        1
176
     1
 90
        6
176
     1
 90
        2
176
     1
 62
     7
176
     1
 90
        3
176
     1
 90
        0
176
     1
 90
        0
176
     1
290
     0
176
     1
 90
        5
176
     1
 40
0.0
176
     1
 90
        0
176
     1
290
     0
176
     1
290
     1
176
     1
290
     1
176
     1
290
     0
176
     1
290
     0
176
     1
290
     0
176
     1
290
     0
176
     1
290
     0
176
     1
290
     0
176
     1
 90
       50
176
     1
 40
0.0
176
     1
 40
1.0
176
     1
 90
        0
176
     1
 62
    18
420
        0
176
     1
 90
       50
176
     1
 90
        3
176
     1
 62
     5
420
      255
176
     1
290
     0
176
     1
 90
       50
176
     1
 90
       50
176
     1
 90
       50
176
     1
290
     0
176
     1
 90
       50
176
     1
 62
   256
176
     0
 40
1.0
176
     0
 90
        2
176
     1
  1
strokes_ogs.tif
176
     1
290
     0
176
     1
 40
1.0
176
     1
 40
1.0
176
     1
  0
VISUALSTYLE
  5
1EF
102
{ACAD_REACTORS
330
EF
102
}
330
EF
100
AcDbVisualStyle
  2
Shades of Gray
 70
    23
177
     3
291
     0
 70
    58
 90
        2
176
     1
 90
        2
176
     1
 90
        3
176
     1
 90
        0
176
     1
 40
0.6
176
     1
 40
30.0
176
     1
 62
     7
420
 16777215
176
     1
 90
        2
176
     1
 90
        2
176
     1
 62
     7
176
     1
 62
     7
176
     1
 90
        1
176
     1
 90
        1
176
     1
 40
40.0
176
     1
 90
        8
176
     1
 62
     7
176
     1
 40
1.0
176
     1
 90
        1
176
     1
 90
        6
176
     1
 90
        2
176
     1
 62
     7
176
     1
 90
        3
176
     1
 90
        0
176
     1
 90
        0
176
     1
290
     0
176
     1
 90
        1
176
     1
 40
0.0
176
     1
 90
        0
176
     1
290
     0
176
     1
290
     1
176
     1
290
     1
176
     1
290
     0
176
     1
290
     0
176
     1
290
     0
176
     1
290
     0
176
     1
290
     0
176
     1
290
     0
176
     1
 90
       50
176
     1
 40
0.0
176
     1
 40
1.0
176
     1
 90
        0
176
     1
 62
    18
420
        0
176
     1
 90
       50
176
     1
 90
        3
176
     1
 62
     5
420
      255
176
     1
290
     0
176
     1
 90
       50
176
     1
 90
       50
176
     1
 90
       50
176
     1
290
     0
176
     1
 90
       50
176
     1
 62
   256
176
     0
 40
1.0
176
     0
 90
        2
176
     1
  1
strokes_ogs.tif
176
     1
290
     0
176
     1
 40
1.0
176
     1
 40
1.0
176
     1
  0
VISUALSTYLE
  5
1F0
102
{ACAD_REACTORS
330
EF
102
}
330
EF
100
AcDbVisualStyle
  2
Sketchy
 70
    24
177
     3
291
     0
 70
    58
 90
        1
176
     1
 90
        2
176
     1
 90
        2
176
     1
 90
        0
176
     1
 40
0.6
176
     1
 40
30.0
176
     1
 62
     7
420
 16777215
176
     1
 90
        2
176
     1
 90
        2
176
     1
 62
     7
176
     1
 62
     7
176
     1
 90
        1
176
     1
 90
        1
176
     1
 40
40.0
176
     1
 90
       11
176
     1
 62
     7
176
     1
 40
1.0
176
     1
 90
        1
176
     1
 90
        6
176
     1
 90
        2
176
     1
 62
     7
176
     1
 90
        6
176
     1
 90
        0
176
     1
 90
        0
176
     1
290
     0
176
     1
 90
        1
176
     1
 40
0.0
176
     1
 90
        0
176
     1
290
     0
176
     1
290
     1
176
     1
290
     1
176
     1
290
     0
176
     1
290
     0
176
     1
290
     0
176
     1
290
     0
176
     1
290
     0
176
     1
290
     0
176
     1
 90
       50
176
     1
 40
0.0
176
     1
 40
1.0
176
     1
 90
        0
176
     1
 62
    18
420
        0
176
     1
 90
       50
176
     1
 90
        3
176
     1
 62
     5
420
      255
176
     1
290
     0
176
     1
 90
       50
176
     1
 90
       50
176
     1
 90
       50
176
     1
290
     0
176
     1
 90
       50
176
     1
 62
   256
176
     0
 40
1.0
176
     0
 90
        2
176
     1
  1
strokes_ogs.tif
176
     1
290
     0
176
     1
 40
1.0
176
     1
 40
1.0
176
     1
  0
VISUALSTYLE
  5
FC
102
{ACAD_REACTORS
330
EF
102
}
330
EF
100
AcDbVisualStyle
  2
Thicken
 70
    13
177
     3
291
     1
 70
    58
 90
        2
176
     1
 90
        2
176
     1
 90
        1
176
     1
 90
        0
176
     1
 40
0.6
176
     1
 40
30.0
176
     1
 62
     7
420
 16777215
176
     1
 90
        1
176
     1
 90
        4
176
     1
 62
     7
176
     1
 62
   257
176
     1
 90
        1
176
     1
 90
        1
176
     1
 40
1.0
176
     1
 90
       12
176
     1
 62
     7
176
     1
 40
1.0
176
     1
 90
        1
176
     1
 90
        6
176
     1
 90
        2
176
     1
 62
     7
176
     1
 90
        5
176
     1
 90
        0
176
     1
 90
        0
176
     1
290
     0
176
     1
 90
        1
176
     1
 40
0.0
176
     1
 90
        0
176
     1
290
     0
176
     1
290
     1
176
     1
290
     1
176
     1
290
     0
176
     1
290
     0
176
     1
290
     0
176
     1
290
     0
176
     1
290
     0
176
     1
290
     0
176
     1
 90
       50
176
     1
 40
0.0
176
     1
 40
1.0
176
     1
 90
        0
176
     1
 62
    18
420
        0
176
     1
 90
       50
176
     1
 90
        3
176
     1
 62
     5
420
      255
176
     1
290
     0
176
     1
 90
       50
176
     1
 90
       50
176
     1
 90
       50
176
     1
290
     0
176
     1
 90
       50
176
     1
 62
   256
176
     0
 40
1.0
176
     0
 90
        2
176
     1
  1
strokes_ogs.tif
176
     1
290
     0
176
     1
 40
1.0
176
     1
 40
1.0
176
     1
  0
VISUALSTYLE
  5
F6
102
{ACAD_REACTORS
330
EF
102
}
330
EF
100
AcDbVisualStyle
  2
Wireframe
 70
     5
177
     3
291
     0
 70
    58
 90
        0
176
     1
 90
        2
176
     1
 90
        0
176
     1
 90
        0
176
     1
 40
0.6
176
     1
 40
30.0
176
     1
 62
     7
420
 16777215
176
     1
 90
        1
176
     1
 90
        4
176
     1
 62
     7
176
     1
 62
   257
176
     1
 90
        1
176
     1
 90
        1
176
     1
 40
1.0
176
     1
 90
        0
176
     1
 62
   257
176
     1
 40
1.0
176
     1
 90
        1
176
     1
 90
        6
176
     1
 90
        2
176
     1
 62
     7
176
     1
 90
        3
176
     1
 90
        0
176
     1
 90
        0
176
     1
290
     0
176
     1
 90
        1
176
     1
 40
0.0
176
     1
 90
        0
176
     1
290
     0
176
     1
290
     1
176
     1
290
     1
176
     1
290
     0
176
     1
290
     0
176
     1
290
     0
176
     1
290
     0
176
     1
290
     0
176
     1
290
     0
176
     1
 90
       50
176
     1
 40
0.0
176
     1
 40
1.0
176
     1
 90
        0
176
     1
 62
    18
420
        0
176
     1
 90
       50
176
     1
 90
        3
176
     1
 62
     5
420
      255
176
     1
290
     0
176
     1
 90
       50
176
     1
 90
       50
176
     1
 90
       50
176
     1
290
     0
176
     1
 90
       50
176
     1
 62
   256
176
     0
 40
1.0
176
     0
 90
        2
176
     1
  1
strokes_ogs.tif
176
     1
290
     0
176
     1
 40
1.0
176
     1
 40
1.0
176
     1
  0
VISUALSTYLE
  5
1F1
102
{ACAD_REACTORS
330
EF
102
}
330
EF
100
AcDbVisualStyle
  2
X-Ray
 70
    25
177
     3
291
     0
 70
    58
 90
        2
176
     1
 90
        2
176
     1
 90
        1
176
     1
 90
        1
176
     1
 40
0.5
176
     1
 40
30.0
176
     1
 62
     7
420
 16777215
176
     1
 90
        1
176
     1
 90
        0
176
     1
 62
     7
176
     1
 62
   257
176
     1
 90
        1
176
     1
 90
        1
176
     1
 40
1.0
176
     1
 90
        8
176
     1
 62
     7
176
     1
 40
1.0
176
     1
 90
        1
176
     1
 90
        6
176
     1
 90
        2
176
     1
 62
     7
176
     1
 90
        3
176
     1
 90
        0
176
     1
 90
        0
176
     1
290
     0
176
     1
 90
       13
176
     1
 40
0.0
176
     1
 90
        0
176
     1
290
     0
176
     1
290
     1
176
     1
290
     1
176
     1
290
     0
176
     1
290
     0
176
     1
290
     0
176
     1
290
     0
176
     1
290
     0
176
     1
290
     0
176
     1
 90
       50
176
     1
 40
0.0
176
     1
 40
1.0
176
     1
 90
        0
176
     1
 62
    18
420
        0
176
     1
 90
       50
176
     1
 90
        3
176
     1
 62
     5
420
      255
176
     1
290
     0
176
     1
 90
       50
176
     1
 90
       50
176
     1
 90
       50
176
     1
290
     0
176
     1
 90
       50
176
     1
 62
   256
176
     0
 40
1.0
176
     0
 90
        2
176
     1
  1
strokes_ogs.tif
176
     1
290
     0
176
     1
 40
1.0
176
     1
 40
1.0
176
     1
  0
DICTIONARYVAR
  5
146
102
{ACAD_REACTORS
330
5E
102
}
330
5E
100
DictionaryVariables
280
     0
  1
1:1
  0
DICTIONARYVAR
  5
259
102
{ACAD_REACTORS
330
5E
102
}
330
5E
100
DictionaryVariables
280
     0
  1
3.500000
  0
DICTIONARYVAR
  5
25A
102
{ACAD_REACTORS
330
5E
102
}
330
5E
100
DictionaryVariables
280
     0
  1
acadiso.lin
  0
DICTIONARYVAR
  5
145
102
{ACAD_REACTORS
330
5E
102
}
330
5E
100
DictionaryVariables
280
     0
  1
STANDARD
  0
DICTIONARYVAR
  5
84
102
{ACAD_REACTORS
330
5E
102
}
330
5E
100
DictionaryVariables
280
     0
  1
STANDARD
  0
DICTIONARYVAR
  5
227
102
{ACAD_REACTORS
330
5E
102
}
330
5E
100
DictionaryVariables
280
     0
  1
Metric50
  0
DICTIONARYVAR
  5
228
102
{ACAD_REACTORS
330
5E
102
}
330
5E
100
DictionaryVariables
280
     0
  1
Metric50
  0
DICTIONARYVAR
  5
5F
102
{ACAD_REACTORS
330
5E
102
}
330
5E
100
DictionaryVariables
280
     0
  1
2
  0
DICTIONARYVAR
  5
63
102
{ACAD_REACTORS
330
5E
102
}
330
5E
100
DictionaryVariables
280
     0
  1
1
  0
DICTIONARYVAR
  5
1FFCA
102
{ACAD_REACTORS
330
5E
102
}
330
5E
100
DictionaryVariables
280
     0
  1
BYLAYER
  0
DICTIONARYVAR
  5
1FFC9
102
{ACAD_REACTORS
330
5E
102
}
330
5E
100
DictionaryVariables
280
     0
  1
ByLayer
  0
DICTIONARYVAR
  5
1AE
102
{ACAD_REACTORS
330
5E
102
}
330
5E
100
DictionaryVariables
280
     0
  1
0
  0
DICTIONARYVAR
  5
1AF
102
{ACAD_REACTORS
330
5E
102
}
330
5E
100
DictionaryVariables
280
     0
  1
0
  0
DICTIONARY
  5
2FFD2
102
{ACAD_REACTORS
330
2FFD1
102
}
330
2FFD1
100
AcDbDictionary
281
     1
  3
*A1
350
2FFD3
  0
DICTIONARY
  5
16789
102
{ACAD_REACTORS
330
16788
102
}
330
16788
100
AcDbDictionary
281
     1
  3
*A1
350
1678A
  0
DICTIONARY
  5
205
330
22
100
AcDbDictionary
280
     1
281
     1
  0
DICTIONARY
  5
1F9
330
ED
100
AcDbDictionary
280
     1
281
     1
  3
FBXASSET
360
1FA
  0
DICTIONARY
  5
1F7
330
EC
100
AcDbDictionary
280
     1
281
     1
  3
FBXASSET
360
1F8
  0
DICTIONARY
  5
173
330
EE
100
AcDbDictionary
280
     1
281
     1
  3
BUMPTILE
360
175
  3
DIFFUSETILE
360
174
  3
FBXASSET
360
1FB
  3
OPACITYTILE
360
176
  3
REFLECTIONTILE
360
177
  0
DICTIONARY
  5
162
330
7F
100
AcDbDictionary
280
     1
281
     1
  3
ACAD_ROUNDTRIP_2008_TABLESTYLE_CELLSTYLEMAP
360
352BA
  0
ACDB_MTEXTATTRIBUTEOBJECTCONTEXTDATA_CLASS
  5
2FFD3
102
{ACAD_REACTORS
330
2FFD2
102
}
330
2FFD2
100
AcDbObjectContextData
 70
     4
290
     1
100
AcDbAnnotScaleObjectContextData
340
10D
 70
     1
 50
0.0
 10
-147.8524826369939
 20
-740.5230170625982
 11
23.02064151034574
 21
-690.5230170625982
290
     0
  0
ACDB_MTEXTATTRIBUTEOBJECTCONTEXTDATA_CLASS
  5
1678A
102
{ACAD_REACTORS
330
16789
102
}
330
16789
100
AcDbObjectContextData
 70
     4
290
     1
100
AcDbAnnotScaleObjectContextData
340
10D
 70
     1
 50
0.0
 10
6234.833221363475
 20
6414.125779289297
 11
6405.706345510814
 21
6464.125779289297
290
     0
  0
XRECORD
  5
1FA
102
{ACAD_REACTORS
330
1F9
102
}
330
1F9
100
AcDbXrecord
280
     1
 70
     1
 90
429727718
  1
D62C5603-E3A1-4AEA-B7FB-FE5D8D0755AF
310
504B03040A0000080000CC70623B3DEE336E79000000790000001B0000006175746F6465736B2D64657369676E2D7061636B6167652E786D6C3C3F786D6C2076657273696F6E3D22312E302220656E636F64696E673D227574662D3822203F3E3C666F726D6174733E3C666F726D61743E687474703A2F2F736368656D612E
310
6175746F6465736B2E636F6D2F64657369676E2D7061636B6167652F323030393C2F666F726D61743E3C2F666F726D6174733E504B0304140006080800CC70623BD486FD9CA0000000F4000000130000005B436F6E74656E745F54797065735D2E786D6C7D8EC10E82300C865F65E91D8A1E8C310C0EEA1BF002731658846E
310
D98AC1B77784ABF1D8FE5FBFBF75BBCE937A534CCEB38643598122B6FEE978D0B0485F9C41B54DDD7D022595594E1A469170414C76A4D9A4D207E29CF43ECE46F218070CC6BECC4078ACAA135ACF422C856C0E68EA1BF5669944DDD7BCDE7B1F8E415D77AECB980613C2E4AC91FC167A2B244592486606FC29C8FD7F045B9A
310
EF7053A7E60B504B0304140006080800CC70623B853B8169EB0000007C01000008000000636F72652E786D6C8D90416EC3201045AF62CDB6C206821CC7C244919D9CA01740401C94182C03558F5F9C3852BBEB6A467FFE9B197D7EFC9E1EC5975982F5AE035262288C535E5B377690E21535501C055FBC8FBF6C503839990E
310
5619041F179FE64D52DE45E362569DD7661365082642A11EB9E920A89B99642953CC8E702F67A9EE7234257977194EC9EAE275C4EABCCF5EAD5940D4AC6F0E35A568B8F43562CD7046CD199FD07E60174276A7BE677B5EADB0E0D14EEFFB6A31321A0D82627C4084204C3F096B71DD52F6819B16635EADF63F509AF53FA164
310
5DDCD1EDDD17164090FCC8732078B56691CB33A85CD7DCC40F504B0304140006080800CC70623B55019EA25F0000007C00000007000000636E782E786D6C4DCB3B0E80201045D1AD90E915ED2CF8AC45050C11660C8261F98AB1B07AC9C97D42D718D865D3E909258CFD00CCE24AC6E326A164D74DC0B4128928FF32603847
310
2BA13128B1252AC747C6BAB984FC68F0B87FE8960A5C09FE86CFB69FBA01504B0304140006080800CC70623BDBABAAF470010000D40300000C0000006662782F636F72652E786D6CC553D16E823014FD95A6AF4B694182CC941A83FA05FB810A9511A125A5257EFE2E82712ECEB8A7F100CD39F7F69E734AF9FADC366850B6
310
AF8DCE7018308C942E4C59EB2AC3DE1D498AD15A706B8CFB56869196ADCAF00863C12B6B7C374385D14E6907A836A59A41D9F7CA615434B0C8705F7CAA5606D23BA8E84F41278B93AC54100640439DE0BDB320004D43C63716C7C399D30917DCFBBA9CD9BA8469F5B156168B24CED3F7248AC8769F27244EB73B92EED8862C
310
B7F13E0C179B3C8F979C8ECD82BBBABDAA2BAC924E9558448CBD9330242CFA08E3154B5651FCC6D215639C8EE5774DBE2B5F6CF2B5768B68963BB5F5588420E442FC700B1139D4CB01F450C1E918227C2E09DF070D8140C84E1E9AAB8F1340832A9CB13130A5F1376A908D57309505ECF2A0DF179C4E9D30F5B239B87E3823
310
7A79C6F31DE1A8A5AEC08474B03C7837EAE4938639B44E5932B833D2C6B6B279CDC613877FA26EE21F4A2A4C63EC7F29A2F301D1F9F7A0E37D145F504B0304140006080800CC70623B9C113CC27E0000009D0000000B0000006662782F636E782E786D6C4DCCDF0A83201C86E15B91DFB94BFB330DD428C8FB886521330DA7
310
6397BF1A1DECE883878F57749FCDA1B7892F1BBC047A23808C7F84D9FA55424E0BE6803A256208E9EF06C84F9B91703228B1C690F78B66B34CD9A5439DF5CF0BFBF65E35BCA1B8D6A5C6F540381E886698B5741C695F9503EBA150A2F8958E3DC3EA0B504B0304140006080800CC70623B7DF2F77C2A010000120200003100
310
00006662782F41393633353835312D344632462D344230382D423046372D3739314545314133324237412F636F72652E786D6C8D51DB8EC22014FC15C2939B0D2DB4B45643319AE817EC0F6041255A68B86CFCFC856D4D76DF7CE190393373060EDB3DC707F856CE6B6B7A480A0C81328395DA5C7B18C3057510EC3873D686
310
3F34088C18550F330C39BB3A1BA7051AAC09CA84841A2BD5020AEF55806078A44B0FFD7053A328440C89E1EFC52486BBB8AA8214A99D789CF9E05200300FC927E4FB4D5B375D43103D5527440FB843077C5AA3F5861C8F645F5787F59E95B390B318B55CE45AA638FAA2957BD7248B390B7A7CC51F9C124149C82B8C378810
310
84AB2F42B7B8DD56F413775B8C5999E9FF4471926F8AA236A1AE96B8B3CC434E5839373893369E1FAF30EA395917409EB7F26AF8801C171837A4A6AC9C89E9F9C9B1A58BA30FD6A5EF5DDDCF894B9AD9B6A59C957943A9FCAE2FD5BC4DFE03504B0304140006080800CC70623BAD7543B64E01000033030000300000006662
310
782F41393633353835312D344632462D344230382D423046372D3739314545314133324237412F636E782E786D6CD593CD6EC32010845F0571AD6CE3D48AD20813A9873E410FBD12D82434182C7EAAE6EDBB2424CD25871E7B41D6EC30B3FA84F9E67BB2E40B4234DE8DB46F1925E094D7C6ED479AD3AE5951B2113C789FEE
310
6C943839C1488B4C05DF079FE72A69D8C96C13AAD6B8631503449F83828872B949AC57D26200B826A308D316B4064D6E46FCDA41C05550DC9E483A00797BFD207EFB092A45DE9514C1BBD22178396BD39D891265658C238DEA00936C654E5E433CB65A26D9F6EDB5EBC14EBF49A45CB856E66048291F6939A9A81BB5C89177
310
38143CA680F4AA299D66A042CEB3354A2684DC9D8D178FE0D9B8B41CAAD720F880EE7EF93C0C18769E099ECC04D5A102C8049A8A05632F4DDF376CF1DE0F6BB65C2F8627B65A33C6BB62177CEBBDAD973006829F89F22E814B54F4BC2BE347F8AA8F681390B50FA73F804400B5F542E796F19FF974E7F78DB802FE05E20750
310
4B0304140006080800CC70623BE75B7789680500003C100000340000006662782F41393633353835312D344632462D344230382D423046372D3739314545314133324237412F6F626A656374732E786D6CAD575B8F9B3818FD2B887D06C22499CB8AA1CA655245D5B455A356FB305264C061D8018C6C3393D95FBFC7600890
310
A4CD5EF210B0B1BFEBF98E3F7B1FF6596ABC522E1296DF9BAE3D320D9A872C4AF2F8DE2CE5CEBA358D0FBEC719939D65A691938CDE9B6ADAF4BD98B3B2D05311DD91329583D9D5FC0F438434A7A611A644887B5384CF34233629258BA878B12322891DEFF6B66BD70BFB62634E8AE781D082709A4B588AF91C528CDA28B73F
310
1C998EEF39EABBEFA97FBD6A7C7E9553F9D3D79FE442923C3C523610337627CB87ABE99D359D4CC6D6E4FACAB5E6ABF9D2726FC6A3C5F56271377BB88362213924694B38DD99FE47C48627A1E7D49F5A8BB5E1A74C0A599ED3B0F21F1E56366B89112D681E218F0915D0D6F17AD41FBA2A369DCF6335D62ABBD39779D5DDD1
310
11D4D8DE3CBB96B2E04FB8202E41051754A1AA8E8F76B4C6DFE810B580B1547F4B84911149794252234D024EF8BBE963A95AE27B3D310A9D5C215C7960FAEE415ED75694C6AFB17BCACA5D99A60A9AA65F217B0BFC53292ACB92BF283FAD0D3621576592CB5BED907C2FA8E9DF794E35E97BEA31BED21FEB401ABB94C44839
310
DCACBF0E1C5DA8DA5B2F4DFFD32AD86F543D9E565E7056502E157C00AD2671CD534549AB752FCA9CDA00677A313F04E51B22FF19E57B300579E3C97EB29F682D92935CEC18CF901B7B54FD8C51F362B56FC72FE0B3C1EAE335EDCCBF5AEC39ADB17DC238973F804BA5E6F6BFE7AF1FB32E523BE9F3BD571418E3631DCA4D48
310
5250CF639223210A9446CA30052EDF057BD35F8329C1ECD84552BF0DC8D18BE7BCE23BFE6BD960AB4A7DE79923A103BEBD80F911CBAA2C60DB19B01CF164A5583B772EE6D3FFA56666CBCDA74DC97724A48F9A58967497E489C4D979006FD7A05E227A1EBDD0F737C623387A9C844D3709995625106D157315F8B8392CD4E0
310
A0B9A720C4BE9829CEF37EA1E13111214D53925356365ADA634861B52519DD27A00AEB808EAF0628E6F435519D446F45CF2C9CF5214F0A15B2F6D06B79DA3EE3CBF7F56780D2F4E7EF73A0F5E5B02A38D07DC852C6B7C1FBB6664213E0C39E3EBA7FF4E1AD23EA2829407C85E586727488B751B2DB9502BC7B228A3FD68B6E
310
A65A22397E690AA8D158D7E404EC8CDA235CC3B7D1898680131CEC2CDF2638C65196279577750F15884AEE19F94199155B92B13297978469D4F8D358DF0AEF7631E28DC8F0D9F437D5D39A83B2231A1D52D543813A824EF8D44BCFF2FA6A31BD1E8DAD87F1CCB526B3879935BF59CDADD5C37479BB1CDD4CA7B3556B516589
310
EF352754B706114D9C885EC9131DE6EFEB43D99AFE2391C2F958179413D7CFEF6B1B6DB1E7600F00DE6E5C67454A339A4BA2E0FBA85ED26F045D454F463DBFCE484C2F90F2E5E3666003662ED8F755951A7D1BECD5B30B550B2785C8E7320B7292A4838DDA71BBC863ED7613CAF659337A3354231D4FF4A182A54904C2898C
310
98B28C4AD0CE056CCF332A80986E571EE9DBC305BB5FEB7E509220A58D25CF042D712A806AC0AD0C657FDEF80D2D9CEAA2EE4D1C76F60BFE74219A06527D6F82DF6412526107381E55E353090704D085B52408A8913C4ED159D79BDA71BB4BC506F4831350EB6F975CD22D69BF7AC49B91A2C0A9DDA3D5CA36AD20FC478E37
310
E61844E2352865EBCB61A275A65283CAAA9DD27703B4102F5AF51EF5F573B75CBB5AD38BC845F7A49F82A0966A49C2E3EA5EA0ECD326CD965F1DB402C6FA8B51A4658C5C5E2EC9E214602E55810345408596591009A82E7E7FFACA19EEA299B14A0081A705CB3296EBC14CDF658DCD336EA6D1136881AAEB87B81AB9EE53D5
310
F5EB8BC8362082DA24122F98680A4E7930C01A0079749CEA14382A0783E5EBA5A10F8C098456A03D6A4AEB6BB881E2513747552A5DB22C7EDAF83BD5528081A365F7FF06504B0304140006080000CC70623B000000000000000000000000350000006662782F41393633353835312D344632462D344230382D423046372D37
310
39314545314133324237412F76657274696365732E62696E504B0304140006080800CC70623BF270F1330600000004000000360000006662782F41393633353835312D344632462D344230382D423046372D3739314545314133324237412F747269616E676C65732E62696E636660600000504B0304140006080000CC7062
310
3B000000000000000000000000370000006662782F41393633353835312D344632462D344230382D423046372D3739314545314133324237412F617474726962757465732E62696E504B0304140006080800CC70623B08DA0BD19000000041010000360000006662782F41393633353835312D344632462D344230382D4230
310
46372D3739314545314133324237412F6469726563746F72792E786D6C858F410AC3201045AF22B36F53E9A60B35CBEEBAE80D244E44489C6234F4F835464A48035D0DF398FF9F8AF63D0E6CC63039F212F8F9020C7D47C6792B21C5FE7403D62A1188E2E60C98D7234A5830286103A55745067B9D86B8A3CF9C7F90C11DE6
310
07FB144396D7B6A82D282E9A152AD114D5EF2CB866EEE831B8EEA07A7BB5A8D7D61A2BAAEB7FD5F70921FF497D00504B0304140006080800CC70623BEDD1DC58FD000000A00100003B0000006662782F41393633353835312D344632462D344230382D423046372D3739314545314133324237412F7265736F75726365732F
310
636F72652E786D6C8D504B6E833010BD0A9A6D65B00922041947112427E8052C33A156828DFCA97AFC9A40A576D7CDCCE87D344F8F9FBFE667F689CE6B6B3A6039850C8DB2A336530731DC4903D95970676DF82583CCC8193B5861107C72362E3BA4AC096842428D1D7107A5F7182053CF7474E0D507CE32973124857FE48B
310
540F3961CEF244279DE03EB81420DB9EAC1384436FA353E879B1B182C7A8C75DA3C7F453DF353A1075D537A7BA6464B8F535A99AE14A9A2BBD90E350DD183B5CFABE3AF262350B1EF4FC9351399401471025A527C218A1E53BAB5A5AB765F5469B96525EACF23FA6B88CFF34456DC2A1DCE36E360F82A5202F42F062ED2BAD
310
579969AFDD8A6F504B010214000A0000080000CC70623B3DEE336E79000000790000001B00000000000000000000000000000000006175746F6465736B2D64657369676E2D7061636B6167652E786D6C504B01021400140006080800CC70623BD486FD9CA0000000F40000001300000000000000000000000000B20000005B
310
436F6E74656E745F54797065735D2E786D6C504B01021400140006080800CC70623B853B8169EB0000007C010000080000000000000000000000000083010000636F72652E786D6C504B01021400140006080800CC70623B55019EA25F0000007C000000070000000000000000000000000094020000636E782E786D6C504B
310
01021400140006080800CC70623BDBABAAF470010000D40300000C00000000000000000000000000180300006662782F636F72652E786D6C504B01021400140006080800CC70623B9C113CC27E0000009D0000000B00000000000000000000000000B20400006662782F636E782E786D6C504B01021400140006080800CC70
310
623B7DF2F77C2A010000120200003100000000000000000000000000590500006662782F41393633353835312D344632462D344230382D423046372D3739314545314133324237412F636F72652E786D6C504B01021400140006080800CC70623BAD7543B64E010000330300003000000000000000000000000000D2060000
310
6662782F41393633353835312D344632462D344230382D423046372D3739314545314133324237412F636E782E786D6C504B01021400140006080800CC70623BE75B7789680500003C10000034000000000000000000000000006E0800006662782F41393633353835312D344632462D344230382D423046372D3739314545
310
314133324237412F6F626A656374732E786D6C504B01021400140006080000CC70623B0000000000000000000000003500000000000000000000000000280E00006662782F41393633353835312D344632462D344230382D423046372D3739314545314133324237412F76657274696365732E62696E504B01021400140006
310
080800CC70623BF270F133060000000400000036000000000000000000000000007B0E00006662782F41393633353835312D344632462D344230382D423046372D3739314545314133324237412F747269616E676C65732E62696E504B01021400140006080000CC70623B0000000000000000000000003700000000000000
310
000000000000D50E00006662782F41393633353835312D344632462D344230382D423046372D3739314545314133324237412F617474726962757465732E62696E504B01021400140006080800CC70623B08DA0BD1900000004101000036000000000000000000000000002A0F00006662782F41393633353835312D344632
310
462D344230382D423046372D3739314545314133324237412F6469726563746F72792E786D6C504B01021400140006080800CC70623BEDD1DC58FD000000A00100003B000000000000000000000000000E1000006662782F41393633353835312D344632462D344230382D423046372D3739314545314133324237412F7265
310
736F75726365732F636F72652E786D6C504B0506000000000E000E0080040000641100000000
  0
XRECORD
  5
1F8
102
{ACAD_REACTORS
330
1F7
102
}
330
1F7
100
AcDbXrecord
280
     1
 70
     1
 90
429727718
  1
30362254-06B7-45E0-A893-8CFA70E3D6BC
310
504B03040A0000080000CC70623B3DEE336E79000000790000001B0000006175746F6465736B2D64657369676E2D7061636B6167652E786D6C3C3F786D6C2076657273696F6E3D22312E302220656E636F64696E673D227574662D3822203F3E3C666F726D6174733E3C666F726D61743E687474703A2F2F736368656D612E
310
6175746F6465736B2E636F6D2F64657369676E2D7061636B6167652F323030393C2F666F726D61743E3C2F666F726D6174733E504B0304140006080800CC70623BD486FD9CA0000000F4000000130000005B436F6E74656E745F54797065735D2E786D6C7D8EC10E82300C865F65E91D8A1E8C310C0EEA1BF002731658846E
310
D98AC1B77784ABF1D8FE5FBFBF75BBCE937A534CCEB38643598122B6FEE978D0B0485F9C41B54DDD7D022595594E1A469170414C76A4D9A4D207E29CF43ECE46F218070CC6BECC4078ACAA135ACF422C856C0E68EA1BF5669944DDD7BCDE7B1F8E415D77AECB980613C2E4AC91FC167A2B244592486606FC29C8FD7F045B9A
310
EF7053A7E60B504B0304140006080800CC70623B1EC5D7A3EB0000007C01000008000000636F72652E786D6C8D90416EC3201045AF82665B6103C6756C6122AB4D4ED00B204C5C94182C03558F5F9C3852BBEB6A467FFE9B197D71FC9E6FE8CBACC17AD7032D0820E3B41FAD9B7A48F1820F808E52ACDEC75F36404ECDA687
310
4D0629A6D5A76597B477D1B89855E747B38B2A041301E95B6E7A08FAD3CCAA50296647B8168BD2573599823EBB0CA76447F43862C7BCCF5EAC59410E4DDD9C7973C2755553CCCFA4C603E3040F1565ED3B1FDE4E432BCA0D9622DAF9795FAF464533826484B498524CD807E51D79ED187F21878E10516EF63F505AC67F42C9
310
BA58B1FDDD071640D2FCC87D2045B96591CB3DA85CB7DCE40F504B0304140006080800CC70623B55019EA25F0000007C00000007000000636E782E786D6C4DCB3B0E80201045D1AD90E915ED2CF8AC45050C11660C8261F98AB1B07AC9C97D42D718D865D3E909258CFD00CCE24AC6E326A164D74DC0B4128928FF32603847
310
2BA13128B1252AC747C6BAB984FC68F0B87FE8960A5C09FE86CFB69FBA01504B0304140006080800CC70623B8C9102E971010000D40300000C0000006662782F636F72652E786D6CC5535B6E833010BC8AE5DF0A6C08340F1947A84D4ED00B38C6A128602363A31CBFCB234A53A551FA553EC09AD9F5CE8C31DB9E9B1AF5CA
310
7695D1198E428A91D2D214952E33ECDD315861B4E5CC1AE3BE9561A445A3323CC098B3D21ADFCE9034DA29ED00D5A6503328BA4E398C640D8B0C77F253352214DE4145770A5B214FA2546114020D759C75CE8200340D19DE981F0F6746269C33EFAB6266AB02A655C74A59CCF365BADC27CB5D902ED22848F6340DF238A141
310
BE88E2F57B92BFEDF23523433367AE6A2EEAA455C2A902F398D2751045018D3FA264435F3771F242571B4A1919CA6F9A7C5B3CD9E42BED16F12C776AEB308F40C848FC700B1139D4891EF410CEC810227CC6846F8386402064270EF5C5C709A05E49676C024C61FC95EA45ED154CA5211D1FF4FB8291A913A68E9B83EBBB33
310
E2A7673CDE118E5AE8124C0807CB8377834E366998436B950D7A7746DAD846D4CFD978E0F04FD455FC5D49D2D4C6FE9722321F10997F0F32DC47FE05504B0304140006080800CC70623BFFEA85907E0000009D0000000B0000006662782F636E782E786D6C4DCCD10A83201886E15B91FFDC95D95A811AB6F23E625948A6C3
310
E9D8E5AF46073BFAE0E1E365ED67B3E8ADC3CB78C7815C7240DA3DFC64DCC221C519D7805AC182F7F1EF06C88D9BE6703008B6049F9E274D7A1E938DBB5AE3D6131B2589BA0D3D965551E0B2EA732C9B9A624AAEB41E3A557677029960D9AFB4EF11165F504B0304140006080800CC70623B4FEEA4082C0100001202000031
310
0000006662782F39464131463745442D413632322D343644302D413938332D3331353338454246344243312F636F72652E786D6C8D515B6EC32010BC0AE2AB55850DD871ED0813254D72825EC00192A2C460F1A872FC42ED48ED5F7E00CDCECCCEB26C731F6FE05B39AFADE921293004CA082BB5B9F43086336A21D870E6AC
310
0D7F68109861543DCC30E4ECE26C9C164858139409093556AA051CBC570102714B8F1E7AF1A5C6A11862480C7F2DA6415C878B2A4891CA89C7990F2E050073937C42DE1DB7E4F87ED8A36D4329AA9B3D46DBAEAD504556557BD81DEBDD0761E52CE42C462D17B996298E3E6BE59E35C962CE821E1FF18553435012728A7187
310
0841987E927A8D9B35ADDF70BBC6989599FE4F1427F9A4286A132ABAC49D651EF234CD5CE04CDA78BA3DC2A8FB645D00B9DF8B57E215725C60BCA2A463E54C4CE327C7A65E1C7DB02E7DEFCBF594B864C5CA6CDBD49C957943E9FA5D5FBAF336F90F504B0304140006080800CC70623BAD7543B64E01000033030000300000
310
006662782F39464131463745442D413632322D343644302D413938332D3331353338454246344243312F636E782E786D6CD593CD6EC32010845F0571AD6CE3D48AD20813A9873E410FBD12D82434182C7EAAE6EDBB2424CD25871E7B41D6EC30B3FA84F9E67BB2E40B4234DE8DB46F1925E094D7C6ED479AD3AE5951B2113C
310
789FEE6C943839C1488B4C05DF079FE72A69D8C96C13AAD6B8631503449F83828872B949AC57D26200B826A308D316B4064D6E46FCDA41C05550DC9E483A00797BFD207EFB092A45DE9514C1BBD22178396BD39D891265658C238DEA00936C654E5E433CB65A26D9F6EDB5EBC14EBF49A45CB856E66048291F6939A9A81BB5
310
C8917738143CA680F4AA299D66A042CEB3354A2684DC9D8D178FE0D9B8B41CAAD720F880EE7EF93C0C18769E099ECC04D5A102C8049A8A05632F4DDF376CF1DE0F6BB65C2F8627B65A33C6BB62177CEBBDAD973006829F89F22E814B54F4BC2BE347F8AA8F681390B50FA73F804400B5F542E796F19FF974E7F78DB802FE05
310
E207504B0304140006080800CC70623B16AB87BA640500003C100000340000006662782F39464131463745442D413632322D343644302D413938332D3331353338454246344243312F6F626A656374732E786D6CAD575B6FA33818FD2B887DE6924B3BED8A326A92B68A663B534DD4D13E548A0C38942D60649B369D5FBFC7
310
600890A493BDE42160637FD7F31D7FF63E6FB3D478A55C242CBF3247B66B1A340F5994E4F19559CA8D75611A9F7D8F33263BCB4C232719BD32D5B4E97B316765A1A722BA21652A07B3B7B33F0D11D29C9A46981221AE4C113ED38CD8A4942CA2E2C58E882476BCD9DA23BB5ED8171B73523C0F841684D35CC252CCE79062D4
310
468DFA43D7747CCF51DF7D4FFDEB5593E3AB9CCA9FBEFE241792E4E19EB28198C968BAB8199F5D5A67D3E9C49A9E8F47D6EC76B6B0469F26EEFC7C3EBFBCBEB98462213924694B38DD98FE1D62C393D073EA4FADC5DAF04326852CCF6958F90F0F2B9BB5C48816348F90C7840A68EB78EDF68723159BCEE7891A6B95DDE9D3
310
BCEAEEE8086A6C6F9E5D4B59F0175C10A7A0820BAA5055C7473B5AE3CFDD452D602CD5DF12616444529E90D448938013FE6EFA58AA96F85E4F8C42275708571E98FE6827AF6B2B4AE3D7D83D64E5A64C53054DD3AF90BD06FEA9149565C94FCA0F6B834DC85599E4F2423B24DF0B6AFA979E534DFA9E7A4CC6FA631D486393
310
921829879BF5D781A373557BCB85E97FB90DB62B558F8795179C15944B051F40AB495CF35451D26A4727654E6D8033BD98EF82F21D91FF8AF2DD9982BCF1643BDD4EB516C9492E368C67C88DED563FC36D5EACF66DFF057C3658BDBFA69DF9578B3DA735B64F18C7F20770A9D45CFCF7FCF563D6456A277DBEF78A02637CA2
310
43B90A490AEAB94F72244481D24819A6C0E59B606BFA4B3025981DBB48EAB701D97BF19C577CC77F2D1B6C55A9EF3C732474C0B727303F625995056C3B02963D9EAC146BE78EC5FCEC7FA999EBC5EACBAAE41B12D27B4D2C0BBA49F244E2ECDC81B76B502F113D8F5EE8FB1BE3111CDD4FC2AA9B844CAB1288B68AB90A7CDC
310
1C166AB0D3DC5310625FCC14E779BFD0709F8890A629C9292B1B2DED31A4B0DA928CEE135085754027E3018A397D4D5427D15BD1330B677DC8934285AC3DF45A9EB68FF8F2B8FC0A509AFEECFD0FF2DE25CC6047F7214B195F07EFEB9A094D800F7BFAE8FED187B78EA8A3A400F115961BCAD1215E47C966530AF0EE8128FE
310
58CEBB996A8964FFA529A046635D9353B0336A8F700DDF46271A024E70B0B37C9DE01847591E54DED53D54202AB947E4076556AC49C6CA5C9E1226B7F1A7B1BE15DEED62C41B91E1B3E9AFAAA735036547343A925075041DF0A9979E893B391F8FCFA6967B3EFB644DCF6E5CEBFAE272625DCC6FAF3FB93793C5F90CE1EF57
310
407342756B10D1C489E8953CD1617E5CEECAD6F4EF8914CE5D5D504E5C3F1F9736DA62CFC11E00BCDDB8CC8A9466349744C1F75EBDA4DF09BA8A9E8C7A7E9991989E20E5DBDD6A6003664ED8F7A04A8DBE0DF6EAD9B9AA858342E47399053949D2C146EDB85DE4B176BB0965FBAC19BD19AA918E27FA50C1D22402E144464C
310
59462568E704B6E71915404CB72B8FF4EDE184DDAF753F284990D2C6926782963815403548A70C657FDEF80D2D9CEAA2AE4C1C76F60BFE74219A06527D6582DF6412526107381E55E353090704D085B52408D0933C4ED159D79BDA71BB4BC506F4831350EB6F979CD22D69BF7AC49B91A2C0A9DDA3D5CA36AD20FC478E37E6
310
1844E2352865EBCB6EA275A652E3836BE04EFB400BF1A2556F515F1FBB35B2AB35BD889C744FFA1004B5544B121E57F70215746DD2F5E2C1412B602CBF19455AC6C8E5E9922C4E01E65215385004546899059180EAFCF7A707CE7017CD8CDB0410789AB32C63B91E5CEBBBACB17AC6CD347A022D5075FD106377347AAABA7E
310
7D11590744509B44E205134DC1290F06580320F78E537D3D73540E06CB970B431F185308AD40BBD794D6D77003C5A36E8EAA54BA64597CD8F83BD552A080A365F7FF06504B0304140006080000CC70623B000000000000000000000000350000006662782F39464131463745442D413632322D343644302D413938332D3331
310
353338454246344243312F76657274696365732E62696E504B0304140006080800CC70623BF270F1330600000004000000360000006662782F39464131463745442D413632322D343644302D413938332D3331353338454246344243312F747269616E676C65732E62696E636660600000504B0304140006080000CC70623B
310
000000000000000000000000370000006662782F39464131463745442D413632322D343644302D413938332D3331353338454246344243312F617474726962757465732E62696E504B0304140006080800CC70623B08DA0BD19000000041010000360000006662782F39464131463745442D413632322D343644302D413938
310
332D3331353338454246344243312F6469726563746F72792E786D6C858F410AC3201045AF22B36F53E9A60B35CBEEBAE80D244E44489C6234F4F835464A48035D0DF398FF9F8AF63D0E6CC63039F212F8F9020C7D47C6792B21C5FE7403D62A1188E2E60C98D7234A5830286103A55745067B9D86B8A3CF9C7F90C11DE607
310
FB144396D7B6A82D282E9A152AD114D5EF2CB866EEE831B8EEA07A7BB5A8D7D61A2BAAEB7FD5F70921FF497D00504B0304140006080800CC70623B0D6EF93BFE000000A00100003B0000006662782F39464131463745442D413632322D343644302D413938332D3331353338454246344243312F7265736F75726365732F63
310
6F72652E786D6C8D50596E833010BD0A9ADFCA60B334011947A8694ED00B586642AC041B79A97AFC9A40A5F6AF3F33A3B7689E1E3F7DCD8FEC139DD7D6F4C0720A191A65476DA61E62B892236427C19DB5E1970C322367EC618541F0C9D9B8EC90B226A009093576C41D94DE63804C3DD2D18357379C652E63480A7FCF17A9
310
EE72C29CE5894E3AC17D702940B63D59270887DE46A7D0F36263058F518FBB468FE9A7BE6A7420864373B8D4873369AA8691FA421B3294352543C5CAF65C0F6FEF43CB8BD52C78D0F34F46E550061C419494B6843142CB0F5677F4B52BEB177AEC28E5C52AFF638ACBF84F53D42654E51E77B379102C05791282176B5F693D
310
CB4C7BED567C03504B010214000A0000080000CC70623B3DEE336E79000000790000001B00000000000000000000000000000000006175746F6465736B2D64657369676E2D7061636B6167652E786D6C504B01021400140006080800CC70623BD486FD9CA0000000F40000001300000000000000000000000000B20000005B
310
436F6E74656E745F54797065735D2E786D6C504B01021400140006080800CC70623B1EC5D7A3EB0000007C010000080000000000000000000000000083010000636F72652E786D6C504B01021400140006080800CC70623B55019EA25F0000007C000000070000000000000000000000000094020000636E782E786D6C504B
310
01021400140006080800CC70623B8C9102E971010000D40300000C00000000000000000000000000180300006662782F636F72652E786D6C504B01021400140006080800CC70623BFFEA85907E0000009D0000000B00000000000000000000000000B30400006662782F636E782E786D6C504B01021400140006080800CC70
310
623B4FEEA4082C0100001202000031000000000000000000000000005A0500006662782F39464131463745442D413632322D343644302D413938332D3331353338454246344243312F636F72652E786D6C504B01021400140006080800CC70623BAD7543B64E010000330300003000000000000000000000000000D5060000
310
6662782F39464131463745442D413632322D343644302D413938332D3331353338454246344243312F636E782E786D6C504B01021400140006080800CC70623B16AB87BA640500003C1000003400000000000000000000000000710800006662782F39464131463745442D413632322D343644302D413938332D3331353338
310
454246344243312F6F626A656374732E786D6C504B01021400140006080000CC70623B0000000000000000000000003500000000000000000000000000270E00006662782F39464131463745442D413632322D343644302D413938332D3331353338454246344243312F76657274696365732E62696E504B01021400140006
310
080800CC70623BF270F133060000000400000036000000000000000000000000007A0E00006662782F39464131463745442D413632322D343644302D413938332D3331353338454246344243312F747269616E676C65732E62696E504B01021400140006080000CC70623B0000000000000000000000003700000000000000
310
000000000000D40E00006662782F39464131463745442D413632322D343644302D413938332D3331353338454246344243312F617474726962757465732E62696E504B01021400140006080800CC70623B08DA0BD190000000410100003600000000000000000000000000290F00006662782F39464131463745442D413632
310
322D343644302D413938332D3331353338454246344243312F6469726563746F72792E786D6C504B01021400140006080800CC70623B0D6EF93BFE000000A00100003B000000000000000000000000000D1000006662782F39464131463745442D413632322D343644302D413938332D3331353338454246344243312F7265
310
736F75726365732F636F72652E786D6C504B0506000000000E000E0080040000641100000000
  0
XRECORD
  5
175
102
{ACAD_REACTORS
330
173
102
}
330
173
100
AcDbXrecord
280
     1
270
     1
271
     1
  0
XRECORD
  5
174
102
{ACAD_REACTORS
330
173
102
}
330
173
100
AcDbXrecord
280
     1
270
     1
271
     1
  0
XRECORD
  5
1FB
102
{ACAD_REACTORS
330
173
102
}
330
173
100
AcDbXrecord
280
     1
 70
     0
 90
1673772943
  1
ECE7A1D2-D628-4531-984C-D00F80459256
310
504B03040A0000080000CC70623B3DEE336E79000000790000001B0000006175746F6465736B2D64657369676E2D7061636B6167652E786D6C3C3F786D6C2076657273696F6E3D22312E302220656E636F64696E673D227574662D3822203F3E3C666F726D6174733E3C666F726D61743E687474703A2F2F736368656D612E
310
6175746F6465736B2E636F6D2F64657369676E2D7061636B6167652F323030393C2F666F726D61743E3C2F666F726D6174733E504B0304140006080800CC70623BD486FD9CA0000000F4000000130000005B436F6E74656E745F54797065735D2E786D6C7D8EC10E82300C865F65E91D8A1E8C310C0EEA1BF002731658846E
310
D98AC1B77784ABF1D8FE5FBFBF75BBCE937A534CCEB38643598122B6FEE978D0B0485F9C41B54DDD7D022595594E1A469170414C76A4D9A4D207E29CF43ECE46F218070CC6BECC4078ACAA135ACF422C856C0E68EA1BF5669944DDD7BCDE7B1F8E415D77AECB980613C2E4AC91FC167A2B244592486606FC29C8FD7F045B9A
310
EF7053A7E60B504B0304140006080800CC70623BD9DDAED0EC0000007C01000008000000636F72652E786D6C8D90416EC3201045AF82665B61836D9CD8C2444DD39CA01740405C94182C03558F5F9C3852BBEB6A467FFE9B197D7EF89E6EE8CB2CC17A37002D0820E394D7D68D03A478C17B4007C117EFE32F1B20272733C0
310
2A83E0E3E2D3BC49CABB685CCCAAF3DA6CA20CC14440EA969B0182FA34932C648AD911AEC52CD5558EA6A0CF2EC329598D1E47ACCEFBECC59A050463A7EA5833865FEBDD0E37353BE3EE8DBDE3F6786A48D375FBF6CC78B9C282473B3DEFABC5C86834888A900E538A49F5419B9EB47DD5BC907D4F082F57FB1F28CDFA9F50
310
B22ED6D5F6EE030B20687EE43E10BC5CB3C8E51E54AE6B6EE207504B0304140006080800CC70623B55019EA25F0000007C00000007000000636E782E786D6C4DCB3B0E80201045D1AD90E915ED2CF8AC45050C11660C8261F98AB1B07AC9C97D42D718D865D3E909258CFD00CCE24AC6E326A164D74DC0B4128928FF326038
310
472BA13128B1252AC747C6BAB984FC68F0B87FE8960A5C09FE86CFB69FBA01504B0304140006080800CC70623BA24EB22D72010000D40300000C0000006662782F636F72652E786D6CC5535B6E833010BC8AE5DF0A6C5E49888CA3A6694ED00B38E05014B091B1518EDFE511A5A9D228FD2A1F60CDEC7A67C6986DCE4D8D7A
310
69BA4AAB0C073EC548AA5C17952A33ECECD15B61B4E1CC686DBF9561A44423333CC098B3D268D7CE50AE9595CA02AA74216750749DB418E5352C32DCE59FB211BE70162ABA93DF8AFC244AE9073ED050C759670D0840D390E18DF9F1706664C23973AE2A66B62A605A75ACA4C13C4976E1364A12EF355A2EBD384AF65EFA96
310
BC7B8BED2EA6719AAE16FB8491A199335B351775B991C2CA02F390D2D40B028F861F41BCA68B7518BFD0D59A524686F29B26D7164F36B94AD9289CE54E6D1DE6010819891F6E21228B3AD1831EC219194284CF98F06DD01008846CC5A1BEF83801D4CBDC6A1303536877A57A513B0953A94FC707FDBE6064EA84A9E3E6E0FA
310
EE8CF0E9198F7784A316AA0413C2C2F2E0ECA0934D1AE6D05A69BCDE9E91D2A611F573361E38FC1375157F5752AE6B6DFE4B11990F88CCBF0719EE23FF02504B0304140006080800CC70623B408A7D3B7C0000009D0000000B0000006662782F636E782E786D6C4DCCD10A83201886E15B91FFDC552A92A0064DBC8F581632
310
D3703A76F9ABD1C18E3E78F878E5F0D9027ABBFCF2292AE86E2D20171F69F6715550CB827B40839639A5F2770314A7CD293819B45C73AAFB45B35BA61ACAA1C1C7E7855C58C15BC331339661262CC762340413D68D77DA5B42298546CBE6573AF60CEB2F504B0304140006080800CC70623B449FB9BD290100001202000031
310
0000006662782F36394639363044362D344446342D343946362D394244322D3234314243333846323333332F636F72652E786D6C8D515B6EC32010BC0AE22B55850D98B871848994463E412FE002495162B07854397EA176A4F62F3F2C9A9D991D587EB84F37F0AD7D30CEF6905418026DA553C65E7A98E219ED203808EE9D
310
8B7F6810D871D23D2C3014FCE25D9A57483A1BB58D19B54EE9151C43D0110279CB971E06F9A5A7B11A53CC8C70ADE6515EC78BAE4895DB992778883E0700CB907242D17643D7E2538BD869608875438BBAE38922CAC8F1BDD90DB4691A5E2F42C153326A951B95E398B3D1FE599322163C9AE9115F7A3D46ADA0A018778810
310
84E907617BDCEE297BC5BB3DC6BC2EF47FA234AB2745C9D8D8D035EE220B50105E2F0DC1954B9FB747187D9F9D8FA0CCDB042D5FA0C015C65B42DF78BD10F3F3B363CB56C7109DCFDFBBB97E662ED92EB62D13BC2E1BCAE5777DB9966D8A1F504B0304140006080800CC70623BAD7543B64E01000033030000300000006662
310
782F36394639363044362D344446342D343946362D394244322D3234314243333846323333332F636E782E786D6CD593CD6EC32010845F0571AD6CE3D48AD20813A9873E410FBD12D82434182C7EAAE6EDBB2424CD25871E7B41D6EC30B3FA84F9E67BB2E40B4234DE8DB46F1925E094D7C6ED479AD3AE5951B2113C789FEE
310
6C943839C1488B4C05DF079FE72A69D8C96C13AAD6B8631503449F83828872B949AC57D26200B826A308D316B4064D6E46FCDA41C05550DC9E483A00797BFD207EFB092A45DE9514C1BBD22178396BD39D891265658C238DEA00936C654E5E433CB65A26D9F6EDB5EBC14EBF49A45CB856E66048291F6939A9A81BB5C89177
310
38143CA680F4AA299D66A042CEB3354A2684DC9D8D178FE0D9B8B41CAAD720F880EE7EF93C0C18769E099ECC04D5A102C8049A8A05632F4DDF376CF1DE0F6BB65C2F8627B65A33C6BB62177CEBBDAD973006829F89F22E814B54F4BC2BE347F8AA8F681390B50FA73F804400B5F542E796F19FF974E7F78DB802FE05E20750
310
4B0304140006080800CC70623B8D05915C650500003B100000340000006662782F36394639363044362D344446342D343946362D394244322D3234314243333846323333332F6F626A656374732E786D6CAD575B6FA33814FE2B887D06429276DA1565D4266D158D3A339A6846FB502932E050B66023DB74D2FDF5FB190C01
310
9276B2973C046C8ECFF53B17071F77456EBD502133CEAE6CDF9DD81665314F32965ED995DA3A17B6F5310C04E7AA47665B8C14F4CAD6DB7618A48257A5D94AE89654B91AEDDEDDFC61C998326A5B714EA4BCB265FC440BE2924AF184CA6737218AB8E976E7FA6E4338649B0A523E8D98964450A6A029F619B8588D52FE7039
310
B1BD30F0F4F730D0FF866AF6369557DB33949F31A9088B0F848DD8CCFCF9F2767A76E99CCDE733677E3EF59D9BBB9BA5E37F984D16E78BC5E5F5ED25044B25C0C96822E8D60EEFE11B91C581D77CEA34368A1F5329E68CD1B8B61F16D63A1B8E092D294B10C78C4A48EB593D192E7DED9BDEE7995E1B91FDEDD3ACEA9FE831
310
6A756F9F7D4D79F4274C90A7A04248AA51D5F8C718DAE06FB2F75AC4796EBE65D22A88A22223B995679120E2D50E41AA49C260C046A35368846B0BECD0DFF3EBEB8AD4F835768F69B9ADF25C43D30E6B646F807FAA64AD59F61715C7A54127C4AACA98BA3006A9D792DAE165E0D59B61A01FB3A9F9D838D2DAE62445C86166
310
F37564E842E7DE6A69879FEEA2DD5AE7E371E1A5E025154AC307D06A03D73EB5978C58FFA4C8E9033066E0F3BD53BEC1F39F91BE7B55103791EDE6BBB991A2046172CB4581D8B893FA674DDA17A77B3B7C413D1B511FD2743BFF8A38F03A658705E3ADF8015C3A3417FF3D7E439FF591DA0B5F18BC20C1B8981957AE6392A3
310
F43C640C01D1A0B4728E2DD4F26DB4B3C3152A252A3B4E913CEC1C72F012782FF88EFF8637AA552DBEF76408E8A8DE9E50F9E1CB3A2DA0DB1B6039A893B56063DC5B3E3FFB5F72E67AB9FEB4AEC496C4F4C1149625DD662C53E89D7BF0F6151A046260D1337DFDC94502430F83B0EE07A130A224BCAD7DAE1D9FB6CD422FF6
310
920702629C4BB9AE79C12F243C6432A6794E18E5552BA56B431AAB5D91317302B2B071E86C3A42B1A02F999E24061403B5D0EB639195DA655DD3EBEAB4FB862DDF579F014AD0E73C22F99E28DA57FB98E75C6CA2D74D53086D600F4786E0FE3144B771A8A7B900F03594DB8A633CBC49B2EDB69228BB479CF863B5E807AAAB
310
23872F6DFEB4129B949CA33823F58830E86D65621E10047D9DB34D862E8EAC3C2ABC2F7B2C40D67CDFE01F5545B92105AF983AC54D93D69E56FB8E797F88913F898A9FEC705D3F9D1B54EC8426FB500D40A03BD0119B06E1B95DDC7EB8F6975367793EBD70E66733DFB9BC982F9CE564727731999F5D4ECFCE3B8D6A4DC2A0
310
6D50FD148437D110834A64C6CDDF57FBACB5C307A2A477DFE4939736CFEF2B175371E0E10CF0DD1D5C15654E0BCA14D1E87DD02FF93782A162C0A3D95F1524A52770F972BF1EE9809D13CE7DD599467F8ECE9ADD85CE85A34CD45355448C64F9E8A031DC2D596ACC6E5DD93D9B82DE2EF5CAF81363A8E47996A0DE24564A79
310
4115AACE09C55E14540231FDA13C319787134EBF34E3A022514E5B4D9E0826E25C02D5805B15ABE1BEF51B26383D445DD9E875EE33FE4C22DA16427D65A3BCA92CA6D28DD01DF5DC53330704308475351050232CCD31583787BA75774AFB06E5070DD0C8EF484E19968C5D83BA5B90B244D31E54D55A372320FE4786B7EA58
310
44E135AA5467CB7EA333A61683CC6A8C3257034C10CF46F40EF9F5BE59BE5BD30C3C72D235E95D10345C1D45445A5F0BB47E46A5EBE5570F9380B5FA629579952296A773720405982B9DE04011506178964401AA8BDF1FBF0A8EAB6861DD6580C0E38217056766716DAEB2D6FA0917D3E4116581EADB879C4E7CFFB11EFACD
310
3D641311495D92C8676CB409A72D18610D803CE8A626049E8EC1887CB5B44CC39883690DDA8399B4B9855B481E7D71D4A9D22F96E5BB73BF5793020C02137BF837504B0304140006080000CC70623B000000000000000000000000350000006662782F36394639363044362D344446342D343946362D394244322D32343142
310
43333846323333332F76657274696365732E62696E504B0304140006080800CC70623BF270F1330600000004000000360000006662782F36394639363044362D344446342D343946362D394244322D3234314243333846323333332F747269616E676C65732E62696E636660600000504B0304140006080000CC70623B0000
310
00000000000000000000370000006662782F36394639363044362D344446342D343946362D394244322D3234314243333846323333332F617474726962757465732E62696E504B0304140006080800CC70623B08DA0BD19000000041010000360000006662782F36394639363044362D344446342D343946362D394244322D
310
3234314243333846323333332F6469726563746F72792E786D6C858F410AC3201045AF22B36F53E9A60B35CBEEBAE80D244E44489C6234F4F835464A48035D0DF398FF9F8AF63D0E6CC63039F212F8F9020C7D47C6792B21C5FE7403D62A1188E2E60C98D7234A5830286103A55745067B9D86B8A3CF9C7F90C11DE607FB14
310
4396D7B6A82D282E9A152AD114D5EF2CB866EEE831B8EEA07A7BB5A8D7D61A2BAAEB7FD5F70921FF497D00504B0304140006080800CC70623BCA768048FE000000A00100003B0000006662782F36394639363044362D344446342D343946362D394244322D3234314243333846323333332F7265736F75726365732F636F72
310
652E786D6C8D50596E833010BD0A9ADFCA60D600328E9AA639412F609909B1126CE4A5EAF16B0295DABFFECC8CDEA2797AECF8353F924FB44E193D409E5248504B332A3D0D10FC95B4901C39B3C6F85F3248B49871801506CE266BC2B243D2688FDA47549B11775038871E12F988C7004EDE7016A9083E2ADC3D5D84BC8B09
310
D33C8D74D471E6BC8D0192EDC93A815B742658898E651BCB59086ADC356A8C3FD555A1055ED7E7E254D615792D0F075295F585746FF53B694EE78A565DD736979A65AB9933AFE69F8CD2A2F038022F28ED489E135A7CE4554F9BBEA85E68DB53CAB255FEC71496F19FA6A0B42F8B3DEE6673C0F318E4497096AD7DC5F52C33
310
EEB55BFE0D504B010214000A0000080000CC70623B3DEE336E79000000790000001B00000000000000000000000000000000006175746F6465736B2D64657369676E2D7061636B6167652E786D6C504B01021400140006080800CC70623BD486FD9CA0000000F40000001300000000000000000000000000B20000005B436F
310
6E74656E745F54797065735D2E786D6C504B01021400140006080800CC70623BD9DDAED0EC0000007C010000080000000000000000000000000083010000636F72652E786D6C504B01021400140006080800CC70623B55019EA25F0000007C000000070000000000000000000000000095020000636E782E786D6C504B0102
310
1400140006080800CC70623BA24EB22D72010000D40300000C00000000000000000000000000190300006662782F636F72652E786D6C504B01021400140006080800CC70623B408A7D3B7C0000009D0000000B00000000000000000000000000B50400006662782F636E782E786D6C504B01021400140006080800CC70623B
310
449FB9BD290100001202000031000000000000000000000000005A0500006662782F36394639363044362D344446342D343946362D394244322D3234314243333846323333332F636F72652E786D6C504B01021400140006080800CC70623BAD7543B64E010000330300003000000000000000000000000000D20600006662
310
782F36394639363044362D344446342D343946362D394244322D3234314243333846323333332F636E782E786D6C504B01021400140006080800CC70623B8D05915C650500003B10000034000000000000000000000000006E0800006662782F36394639363044362D344446342D343946362D394244322D32343142433338
310
46323333332F6F626A656374732E786D6C504B01021400140006080000CC70623B0000000000000000000000003500000000000000000000000000250E00006662782F36394639363044362D344446342D343946362D394244322D3234314243333846323333332F76657274696365732E62696E504B010214001400060808
310
00CC70623BF270F13306000000040000003600000000000000000000000000780E00006662782F36394639363044362D344446342D343946362D394244322D3234314243333846323333332F747269616E676C65732E62696E504B01021400140006080000CC70623B00000000000000000000000037000000000000000000
310
00000000D20E00006662782F36394639363044362D344446342D343946362D394244322D3234314243333846323333332F617474726962757465732E62696E504B01021400140006080800CC70623B08DA0BD190000000410100003600000000000000000000000000270F00006662782F36394639363044362D344446342D
310
343946362D394244322D3234314243333846323333332F6469726563746F72792E786D6C504B01021400140006080800CC70623BCA768048FE000000A00100003B000000000000000000000000000B1000006662782F36394639363044362D344446342D343946362D394244322D3234314243333846323333332F7265736F
310
75726365732F636F72652E786D6C504B0506000000000E000E0080040000621100000000
  0
XRECORD
  5
176
102
{ACAD_REACTORS
330
173
102
}
330
173
100
AcDbXrecord
280
     1
270
     1
271
     1
  0
XRECORD
  5
177
102
{ACAD_REACTORS
330
173
102
}
330
173
100
AcDbXrecord
280
     1
270
     1
271
     1
  0
CELLSTYLEMAP
  5
352BA
102
{ACAD_REACTORS
330
162
102
}
330
162
100
AcDbCellStyleMap
 90
        3
300
CELLSTYLE
  1
TABLEFORMAT_BEGIN
 90
        5
170
     1
 91
        0
 92
    32768
 62
   257
 93
        1
300
CONTENTFORMAT
  1
CONTENTFORMAT_BEGIN
 90
        0
 91
        0
 92
      512
 93
        0
300

 40
0.0
140
1.0
 94
        5
 62
     0
340
11
144
6.0
309
CONTENTFORMAT_END
171
     1
301
MARGIN
  1
CELLMARGIN_BEGIN
 40
1.5
 40
1.5
 40
1.5
 40
1.5
 40
4.5
 40
4.5
309
CELLMARGIN_END
 94
        6
 95
        1
302
GRIDFORMAT
  1
GRIDFORMAT_BEGIN
 90
        0
 91
        1
 62
     0
 92
       -2
340
14
 93
        0
 40
1.125
309
GRIDFORMAT_END
 95
        2
302
GRIDFORMAT
  1
GRIDFORMAT_BEGIN
 90
        0
 91
        1
 62
     0
 92
       -2
340
14
 93
        0
 40
1.125
309
GRIDFORMAT_END
 95
        4
302
GRIDFORMAT
  1
GRIDFORMAT_BEGIN
 90
        0
 91
        1
 62
     0
 92
       -2
340
14
 93
        0
 40
1.125
309
GRIDFORMAT_END
 95
        8
302
GRIDFORMAT
  1
GRIDFORMAT_BEGIN
 90
        0
 91
        1
 62
     0
 92
       -2
340
14
 93
        0
 40
1.125
309
GRIDFORMAT_END
 95
       16
302
GRIDFORMAT
  1
GRIDFORMAT_BEGIN
 90
        0
 91
        1
 62
     0
 92
       -2
340
14
 93
        0
 40
1.125
309
GRIDFORMAT_END
 95
       32
302
GRIDFORMAT
  1
GRIDFORMAT_BEGIN
 90
        0
 91
        1
 62
     0
 92
       -2
340
14
 93
        0
 40
1.125
309
GRIDFORMAT_END
309
TABLEFORMAT_END
  1
CELLSTYLE_BEGIN
 90
        1
 91
        1
300
_TITLE
309
CELLSTYLE_END
300
CELLSTYLE
  1
TABLEFORMAT_BEGIN
 90
        5
170
     1
 91
        0
 92
        0
 62
   257
 93
        1
300
CONTENTFORMAT
  1
CONTENTFORMAT_BEGIN
 90
        0
 91
        0
 92
      512
 93
        0
300

 40
0.0
140
1.0
 94
        5
 62
     0
340
11
144
4.5
309
CONTENTFORMAT_END
171
     1
301
MARGIN
  1
CELLMARGIN_BEGIN
 40
1.5
 40
1.5
 40
1.5
 40
1.5
 40
4.5
 40
4.5
309
CELLMARGIN_END
 94
        6
 95
        1
302
GRIDFORMAT
  1
GRIDFORMAT_BEGIN
 90
        0
 91
        1
 62
     0
 92
       -2
340
14
 93
        0
 40
1.125
309
GRIDFORMAT_END
 95
        2
302
GRIDFORMAT
  1
GRIDFORMAT_BEGIN
 90
        0
 91
        1
 62
     0
 92
       -2
340
14
 93
        0
 40
1.125
309
GRIDFORMAT_END
 95
        4
302
GRIDFORMAT
  1
GRIDFORMAT_BEGIN
 90
        0
 91
        1
 62
     0
 92
       -2
340
14
 93
        0
 40
1.125
309
GRIDFORMAT_END
 95
        8
302
GRIDFORMAT
  1
GRIDFORMAT_BEGIN
 90
        0
 91
        1
 62
     0
 92
       -2
340
14
 93
        0
 40
1.125
309
GRIDFORMAT_END
 95
       16
302
GRIDFORMAT
  1
GRIDFORMAT_BEGIN
 90
        0
 91
        1
 62
     0
 92
       -2
340
14
 93
        0
 40
1.125
309
GRIDFORMAT_END
 95
       32
302
GRIDFORMAT
  1
GRIDFORMAT_BEGIN
 90
        0
 91
        1
 62
     0
 92
       -2
340
14
 93
        0
 40
1.125
309
GRIDFORMAT_END
309
TABLEFORMAT_END
  1
CELLSTYLE_BEGIN
 90
        2
 91
        1
300
_HEADER
309
CELLSTYLE_END
300
CELLSTYLE
  1
TABLEFORMAT_BEGIN
 90
        5
170
     1
 91
        0
 92
        0
 62
   257
 93
        1
300
CONTENTFORMAT
  1
CONTENTFORMAT_BEGIN
 90
        0
 91
        0
 92
      512
 93
        0
300

 40
0.0
140
1.0
 94
        2
 62
     0
340
11
144
4.5
309
CONTENTFORMAT_END
171
     1
301
MARGIN
  1
CELLMARGIN_BEGIN
 40
1.5
 40
1.5
 40
1.5
 40
1.5
 40
4.5
 40
4.5
309
CELLMARGIN_END
 94
        6
 95
        1
302
GRIDFORMAT
  1
GRIDFORMAT_BEGIN
 90
        0
 91
        1
 62
     0
 92
       -2
340
14
 93
        0
 40
1.125
309
GRIDFORMAT_END
 95
        2
302
GRIDFORMAT
  1
GRIDFORMAT_BEGIN
 90
        0
 91
        1
 62
     0
 92
       -2
340
14
 93
        0
 40
1.125
309
GRIDFORMAT_END
 95
        4
302
GRIDFORMAT
  1
GRIDFORMAT_BEGIN
 90
        0
 91
        1
 62
     0
 92
       -2
340
14
 93
        0
 40
1.125
309
GRIDFORMAT_END
 95
        8
302
GRIDFORMAT
  1
GRIDFORMAT_BEGIN
 90
        0
 91
        1
 62
     0
 92
       -2
340
14
 93
        0
 40
1.125
309
GRIDFORMAT_END
 95
       16
302
GRIDFORMAT
  1
GRIDFORMAT_BEGIN
 90
        0
 91
        1
 62
     0
 92
       -2
340
14
 93
        0
 40
1.125
309
GRIDFORMAT_END
 95
       32
302
GRIDFORMAT
  1
GRIDFORMAT_BEGIN
 90
        0
 91
        1
 62
     0
 92
       -2
340
14
 93
        0
 40
1.125
309
GRIDFORMAT_END
309
TABLEFORMAT_END
  1
CELLSTYLE_BEGIN
 90
        3
 91
        2
300
_DATA
309
CELLSTYLE_END
  0
ENDSEC
  0
SECTION
  2
ACDSDATA
 70
     2
 71
     8
  0
ACDSSCHEMA
 90
        0
  1
AcDb_Thumbnail_Schema
  2
AcDbDs::ID
280
    10
 91
        8
  2
Thumbnail_Data
280
    15
 91
        0
101
ACDSRECORD
 95
        0
 90
        1
  2
AcDbDs::TreatedAsObjectData
280
     1
291
     1
101
ACDSRECORD
 95
        0
 90
        2
  2
AcDbDs::Legacy
280
     1
291
     1
101
ACDSRECORD
  1
AcDbDs::ID
 90
        3
  2
AcDs:Indexable
280
     1
291
     1
101
ACDSRECORD
  1
AcDbDs::ID
 90
        4
  2
AcDbDs::HandleAttribute
280
     7
282
     1
  0
ACDSSCHEMA
 90
        1
  1
AcDbDs::TreatedAsObjectDataSchema
  2
AcDbDs::TreatedAsObjectData
280
     1
 91
        0
  0
ACDSSCHEMA
 90
        2
  1
AcDbDs::LegacySchema
  2
AcDbDs::Legacy
280
     1
 91
        0
  0
ACDSSCHEMA
 90
        3
  1
AcDbDs::IndexedPropertySchema
  2
AcDs:Indexable
280
     1
 91
        0
  0
ACDSSCHEMA
 90
        4
  1
AcDbDs::HandleAttributeSchema
  2
AcDbDs::HandleAttribute
280
     7
 91
        1
284
     1
  0
ACDSSCHEMA
 90
        5
  1
AcDb3DSolid_ASM_Data
  2
AcDbDs::ID
280
    10
 91
        8
  2
ASM_Data
280
    15
 91
        0
101
ACDSRECORD
 95
        5
 90
        1
  2
AcDbDs::TreatedAsObjectData
280
     1
291
     1
101
ACDSRECORD
 95
        5
 90
        2
  2
AcDbDs::Legacy
280
     1
291
     1
101
ACDSRECORD
  1
AcDbDs::ID
 90
        3
  2
AcDs:Indexable
280
     1
291
     1
101
ACDSRECORD
  1
AcDbDs::ID
 90
        4
  2
AcDbDs::HandleAttribute
280
     7
282
     1
  0
ACDSRECORD
 90
        0
  2
AcDbDs::ID
280
    10
320
D3
  2
Thumbnail_Data
280
    15
 94
     1675
310
89504E470D0A1A0A0000000D4948445200000100000000B5080300000087DCD12600000300504C5445FFFFFFFFFFFFFFFFFF0000000000000000000000000000000000000000000000000000330000660000990000CC0000FF0033000033330033660033990033CC0033FF0066000066330066660066990066CC0066FF0099
310
000099330099660099990099CC0099FF00CC0000CC3300CC6600CC9900CCCC00CCFF00FF0000FF3300FF6600FF9900FFCC00FFFF3300003300333300663300993300CC3300FF3333003333333333663333993333CC3333FF3366003366333366663366993366CC3366FF3399003399333399663399993399CC3399FF33CC00
310
33CC3333CC6633CC9933CCCC33CCFF33FF0033FF3333FF6633FF9933FFCC33FFFF6600006600336600666600996600CC6600FF6633006633336633666633996633CC6633FF6666006666336666666666996666CC6666FF6699006699336699666699996699CC6699FF66CC0066CC3366CC6666CC9966CCCC66CCFF66FF0066
310
FF3366FF6666FF9966FFCC66FFFF9900009900339900669900999900CC9900FF9933009933339933669933999933CC9933FF9966009966339966669966999966CC9966FF9999009999339999669999999999CC9999FF99CC0099CC3399CC6699CC9999CCCC99CCFF99FF0099FF3399FF6699FF9999FFCC99FFFFCC0000CC00
310
33CC0066CC0099CC00CCCC00FFCC3300CC3333CC3366CC3399CC33CCCC33FFCC6600CC6633CC6666CC6699CC66CCCC66FFCC9900CC9933CC9966CC9999CC99CCCC99FFCCCC00CCCC33CCCC66CCCC99CCCCCCCCCCFFCCFF00CCFF33CCFF66CCFF99CCFFCCCCFFFFFF0000FF0033FF0066FF0099FF00CCFF00FFFF3300FF3333
310
FF3366FF3399FF33CCFF33FFFF6600FF6633FF6666FF6699FF66CCFF66FFFF9900FF9933FF9966FF9999FF99CCFF99FFFFCC00FFCC33FFCC66FFCC99FFCCCCFFCCFFFFFF00FFFF33FFFF66FFFF99FFFFCCFFFFFF0000000D0D0D1A1A1A2828283535354343435050505D5D5D6B6B6B787878868686939393A1A1A1AEAEAEBB
310
BBBBC9C9C9D6D6D6E4E4E4F1F1F1FFFFFF000000000000000000000000000000000000000000000000000000000000AD4AB4E40000033F4944415478DAED9CDB72AB300C00F5FF9FA9E7F3D23F386D32F8221B708BE518BCCC34439286C062AD642544FE2DBE080064E10500000000004A00FABD3CF476F511D00640570F01
310
0010028B0310001002481000840012040021800401609A04775ABA8780DE3CDA2F4B1000EB007870080800902000902000902000902000902000902000902000902000902000902000902000902000902000902000902000902000902000902000C8024810008400122CB7A82AAA6B03D8FD1AFE1A2170ABE3F790E04F08C8
310
DA009AAE4A797808CC4820DF99DFEDDBDD01680CCC6D6FF27B9DD3E07BC3DB8ACE72F2DB01742984668AFD1A80EB97CDEDBDD7CFCBC328786F2D3E16FF343C9752F3192FAFDA2C3FE40E23A0390B345DBFE86A8CCD014995EA1702B30208EFE12DC1D308B16F9CEC9C38A58C08A0CD01BD01E4D4EDDDED6478573CD601EA18
310
021270EBAC9383F72E8D91A0CC09C02D0DDE0380EF5C404C253CEF7CC84D827A9336D9A02CF0C938F77380EE579DAF2413A25F35AD82C79D5BCD129DE607ADB11EEF2C4129E6C2E166980CD3AA578B07BC0164ACB779F1D8D68039D5B57990E78FA8A829BCC2EFB50ECB86B61D5303703402E4BA03543706F96C7758FC4B36
310
02249D0FFB03B0D13E3C0B1400C2C90855897F087C320BEE86406C0E463DF5CF02DE7DAD739DAA98FE828656551C017E59E0E8A974742469325F93644DCBE36ECB276AFBE036395C1E01279F0D26FEDF2A015B11D4006CFA887B1A57420EFFFA6AB1D761E6756C8818E59AA697EC77C35A478074AC280602386F07CAC14379
310
3DD98F804B08C4CE5FDEF352538D1A09649AD0D7304F271315261F0670BEC5789C520C61D9FDBC2605607FFCFF17129C0040D280AD8C926ADB3409A46F00F11F5300B38740E5A8544E01C83980E4D5EFD1719F86C89F6AD90A00CD9F7B3480838FD8070098E16B72FB497F1A00E20AA0ADDBB12480015D61BE290A80C50170
310
BD0012040012040012040012040012040012040012040012040012040012040012040012040012040012040012040012040012040012040012240B204100100248B07CEDCD96EE001EB15C0981672E00580C8002000902000902000902000902000902E00080F9859767DDAEED0001000000008002C0E2CBF200FE037899C1
310
77CC5D0C0F0000000049454E44AE426082608244AE426082
  0
ACDSRECORD
 90
        0
  2
AcDbDs::ID
280
    10
320
22
  2
Thumbnail_Data
280
    15
 94
     1874
310
89504E470D0A1A0A0000000D4948445200000100000000970803000000CDB8751B00000300504C5445212830FFFFFF2128300000000000000000000000000000000000000000000000000000330000660000990000CC0000FF0033000033330033660033990033CC0033FF0066000066330066660066990066CC0066FF0099
310
000099330099660099990099CC0099FF00CC0000CC3300CC6600CC9900CCCC00CCFF00FF0000FF3300FF6600FF9900FFCC00FFFF3300003300333300663300993300CC3300FF3333003333333333663333993333CC3333FF3366003366333366663366993366CC3366FF3399003399333399663399993399CC3399FF33CC00
310
33CC3333CC6633CC9933CCCC33CCFF33FF0033FF3333FF6633FF9933FFCC33FFFF6600006600336600666600996600CC6600FF6633006633336633666633996633CC6633FF6666006666336666666666996666CC6666FF6699006699336699666699996699CC6699FF66CC0066CC3366CC6666CC9966CCCC66CCFF66FF0066
310
FF3366FF6666FF9966FFCC66FFFF9900009900339900669900999900CC9900FF9933009933339933669933999933CC9933FF9966009966339966669966999966CC9966FF9999009999339999669999999999CC9999FF99CC0099CC3399CC6699CC9999CCCC99CCFF99FF0099FF3399FF6699FF9999FFCC99FFFFCC0000CC00
310
33CC0066CC0099CC00CCCC00FFCC3300CC3333CC3366CC3399CC33CCCC33FFCC6600CC6633CC6666CC6699CC66CCCC66FFCC9900CC9933CC9966CC9999CC99CCCC99FFCCCC00CCCC33CCCC66CCCC99CCCCCCCCCCFFCCFF00CCFF33CCFF66CCFF99CCFFCCCCFFFFFF0000FF0033FF0066FF0099FF00CCFF00FFFF3300FF3333
310
FF3366FF3399FF33CCFF33FFFF6600FF6633FF6666FF6699FF66CCFF66FFFF9900FF9933FF9966FF9999FF99CCFF99FFFFCC00FFCC33FFCC66FFCC99FFCCCCFFCCFFFFFF00FFFF33FFFF66FFFF99FFFFCCFFFFFF0000000D0D0D1A1A1A2828283535354343435050505D5D5D6B6B6B787878868686939393A1A1A1AEAEAEBB
310
BBBBC9C9C9D6D6D6E4E4E4F1F1F1FFFFFF0000000000000000000000000000000000000000000000000000000000002E4550F10000015E4944415478DAEDD9DB4EC330100540FFFFDFF661DF29B96E9CA44508A4263B83C06054814FEC8D9DB6060000000000000000000000000000F715CF8FD2E3FF6606507C09FC86006E
310
94C09B54DABD03D80F5E0D281D401340C56D41D1619F85516F27D4D2F21F4A40540AE2A00414AB85914218B601D5EE863980483FD65B0205D7FF5A046BDE00FE7EEF3FAF9DBEBDD62E60FA9C9BB528A44AF9B3F612D5246F01964B1607BD7D00F38B37ED34A3E2F19802F8FC85150727C2F6EA41C01AC4FE147936033EF9C9
310
CA7891C701B5F14BDB0EB79B01EDDDD4DF2534FE91E7A4481527A6AECF5920F39D60BB76D7193EF72FFFFDD00C4388B47D3CA901570B60DFDB62FFDB6954735FBF04D20CB850005DCDEA7AA33F4577012C831B8796A6C64100D7DF70AE4B60C92AD6FEE52D97936A7AC393E436981C40BA53E6EFEE7EBCD89E2BA3D033977D
310
11A4EA11CBF50700000000000000000000000000807FF005B0A190B8D9977B340000000049454E44AE4260829C00A15D6F670EB78021256E762ACEB1251AB8A89ADC6082C8F3F19AE09AC4CCCC63BE2F40B086500905A71D0F9AE0EDF364B3D5755B21A64E63C0C9020CE5919AFFE26DD75BDDD8DE71482A69F8D817408F8F
310
011301E635C33B07A7023863EB7B0949725F80CF4E28F4B8FBCC0430B1A55BB3B7BBBD2C70A516BB25B924540C028877BCBCBA505B335D65D0E877206F0A50A4F332358D2641566FDF9C4FB3C09D36382E47094E6F870100000000000000000000000000000000002EC00FA354142E8825828D0000000049454E44AE426082
310
EEEA80606A56EF04AF53E0E418B0B3E0D44BAEFA1BF4AF738026626F0E681E56DF2E06B432AE4C80B2AA2F73802780B802C8F5027488018900E514B84C80B3778251010672809F0B489E48877281DB3960CB062B07E89A281FC806EFE700717E2C14FDB980DCDD01CDFE9DBB831DD401DB895FD1B1F2EF74D445F4B0D78674
310
8039C6EF15B9AB03BA2FB9236D852F5870C6DA0AF79E66B603AE3E1AEEAC40E500955FF93330039E08996D7BBF4860C5FDFB7A1A8933A30A601D237E24D00200000000000000000000000000000000000000C017F20F9864B448AE790F7A0000000049454E44AE4260824E44AE4260829298DBEF11C0D60890674712400248
310
0009200124800490001240024800092001248004900012400248000920013E5400FFF67B01FBFA9B21D3DDA06E871B6BC204B832B8DBECF4E719983030DF2152FE2EFCDF0C3337BAAD47E6037B846C5F8FD0F95DE12E31F77A97984D7489ED6D14F4EABA10018EFF8AE0A06FC1FDFF4603784B1E41BB5374827377A7682592
310
A316D019EDD5B1739CF766C41EDFB16D9CDBC440BCE6D39C77C7C5EE4B8A7F00E7C3A7E171CEDBA3E2F498BB39054110044110044110044110044110044110044110044110044110FE30FE01E4A7F11F03AE71B00000000049454E44AE426082
  0
ENDSEC
  0
EOF
