  0
SECTION
  2
HEADER
  9
$ACADVER
  1
AC1032
  9
$ACADMAINTVER
 90
       77
  9
$DWGCODEPAGE
  3
ANSI_1252
  9
$TITLE
  1
867H
  9
$SUBJECT
  1
Full Rack
  9
$AUTHOR
  1
Pulse Fitness
  9
$LASTSAVEDBY
  1
Darren.Clowes
  9
$REQUIREDVERSIONS
160
                 0
  9
$INSBASE
 10
0.0
 20
0.0
 30
0.0
  9
$EXTMIN
 10
24725.48644159648
 20
3108.559836494409
 30
-0.0338494472175626
  9
$EXTMAX
 10
27016.10783983821
 20
5653.097750213561
 30
0.0225697417513402
  9
$LIMMIN
 10
0.0
 20
0.0
  9
$LIMMAX
 10
420.0
 20
297.0
  9
$ORTHOMODE
 70
     1
  9
$REGENMODE
 70
     1
  9
$FILLMODE
 70
     1
  9
$QTEXTMODE
 70
     0
  9
$MIRRTEXT
 70
     0
  9
$LTSCALE
 40
1.0
  9
$ATTMODE
 70
     1
  9
$TEXTSIZE
 40
2.5
  9
$TRACEWID
 40
1.0
  9
$TEXTSTYLE
  7
Standard
  9
$CLAYER
  8
0
  9
$CELTYPE
  6
ByLayer
  9
$CECOLOR
 62
   256
  9
$CELTSCALE
 40
1.0
  9
$DISPSILH
 70
     0
  9
$DIMSCALE
 40
1.0
  9
$DIMASZ
 40
2.5
  9
$DIMEXO
 40
0.625
  9
$DIMDLI
 40
3.75
  9
$DIMRND
 40
0.0
  9
$DIMDLE
 40
0.0
  9
$DIMEXE
 40
1.25
  9
$DIMTP
 40
0.0
  9
$DIMTM
 40
0.0
  9
$DIMTXT
 40
2.5
  9
$DIMCEN
 40
2.5
  9
$DIMTSZ
 40
0.0
  9
$DIMTOL
 70
     0
  9
$DIMLIM
 70
     0
  9
$DIMTIH
 70
     0
  9
$DIMTOH
 70
     0
  9
$DIMSE1
 70
     0
  9
$DIMSE2
 70
     0
  9
$DIMTAD
 70
     1
  9
$DIMZIN
 70
     8
  9
$DIMBLK
  1

  9
$DIMASO
 70
     1
  9
$DIMSHO
 70
     1
  9
$DIMPOST
  1

  9
$DIMAPOST
  1

  9
$DIMALT
 70
     0
  9
$DIMALTD
 70
     3
  9
$DIMALTF
 40
0.03937007874016
  9
$DIMLFAC
 40
1.0
  9
$DIMTOFL
 70
     1
  9
$DIMTVP
 40
0.0
  9
$DIMTIX
 70
     0
  9
$DIMSOXD
 70
     0
  9
$DIMSAH
 70
     0
  9
$DIMBLK1
  1

  9
$DIMBLK2
  1

  9
$DIMSTYLE
  2
ISO-25
  9
$DIMCLRD
 70
     0
  9
$DIMCLRE
 70
     0
  9
$DIMCLRT
 70
     0
  9
$DIMTFAC
 40
1.0
  9
$DIMGAP
 40
0.625
  9
$DIMJUST
 70
     0
  9
$DIMSD1
 70
     0
  9
$DIMSD2
 70
     0
  9
$DIMTOLJ
 70
     0
  9
$DIMTZIN
 70
     8
  9
$DIMALTZ
 70
     0
  9
$DIMALTTZ
 70
     0
  9
$DIMUPT
 70
     0
  9
$DIMDEC
 70
     2
  9
$DIMTDEC
 70
     2
  9
$DIMALTU
 70
     2
  9
$DIMALTTD
 70
     3
  9
$DIMTXSTY
  7
Standard
  9
$DIMAUNIT
 70
     0
  9
$DIMADEC
 70
     0
  9
$DIMALTRND
 40
0.0
  9
$DIMAZIN
 70
     0
  9
$DIMDSEP
 70
    44
  9
$DIMATFIT
 70
     3
  9
$DIMFRAC
 70
     0
  9
$DIMLDRBLK
  1

  9
$DIMLUNIT
 70
     2
  9
$DIMLWD
 70
    -2
  9
$DIMLWE
 70
    -2
  9
$DIMTMOVE
 70
     0
  9
$DIMFXL
 40
1.0
  9
$DIMFXLON
 70
     0
  9
$DIMJOGANG
 40
0.7853981633974483
  9
$DIMTFILL
 70
     0
  9
$DIMTFILLCLR
 70
     0
  9
$DIMARCSYM
 70
     0
  9
$DIMLTYPE
  6

  9
$DIMLTEX1
  6

  9
$DIMLTEX2
  6

  9
$DIMTXTDIRECTION
 70
     0
  9
$LUNITS
 70
     2
  9
$LUPREC
 70
     4
  9
$SKETCHINC
 40
1.0
  9
$FILLETRAD
 40
0.0
  9
$AUNITS
 70
     0
  9
$AUPREC
 70
     0
  9
$MENU
  1
.
  9
$ELEVATION
 40
0.0
  9
$PELEVATION
 40
0.0
  9
$THICKNESS
 40
0.0
  9
$LIMCHECK
 70
     0
  9
$CHAMFERA
 40
0.0
  9
$CHAMFERB
 40
0.0
  9
$CHAMFERC
 40
0.0
  9
$CHAMFERD
 40
0.0
  9
$SKPOLY
 70
     0
  9
$TDCREATE
 40
2460608.599803241
  9
$TDUCREATE
 40
2460608.558136574
  9
$TDUPDATE
 40
2460706.398622686
  9
$TDUUPDATE
 40
2460706.398622686
  9
$TDINDWG
 40
5.1467939815
  9
$TDUSRTIMER
 40
5.1467939815
  9
$USRTIMER
 70
     1
  9
$ANGBASE
 50
0.0
  9
$ANGDIR
 70
     0
  9
$PDMODE
 70
     0
  9
$PDSIZE
 40
0.0
  9
$PLINEWID
 40
0.0
  9
$SPLFRAME
 70
     0
  9
$SPLINETYPE
 70
     6
  9
$SPLINESEGS
 70
     8
  9
$HANDSEED
  5
352BC
  9
$SURFTAB1
 70
     6
  9
$SURFTAB2
 70
     6
  9
$SURFTYPE
 70
     6
  9
$SURFU
 70
     6
  9
$SURFV
 70
     6
  9
$UCSBASE
  2

  9
$UCSNAME
  2

  9
$UCSORG
 10
0.0
 20
0.0
 30
0.0
  9
$UCSXDIR
 10
1.0
 20
0.0
 30
0.0
  9
$UCSYDIR
 10
0.0
 20
1.0
 30
0.0
  9
$UCSORTHOREF
  2

  9
$UCSORTHOVIEW
 70
     0
  9
$UCSORGTOP
 10
0.0
 20
0.0
 30
0.0
  9
$UCSORGBOTTOM
 10
0.0
 20
0.0
 30
0.0
  9
$UCSORGLEFT
 10
0.0
 20
0.0
 30
0.0
  9
$UCSORGRIGHT
 10
0.0
 20
0.0
 30
0.0
  9
$UCSORGFRONT
 10
0.0
 20
0.0
 30
0.0
  9
$UCSORGBACK
 10
0.0
 20
0.0
 30
0.0
  9
$PUCSBASE
  2

  9
$PUCSNAME
  2

  9
$PUCSORG
 10
0.0
 20
0.0
 30
0.0
  9
$PUCSXDIR
 10
1.0
 20
0.0
 30
0.0
  9
$PUCSYDIR
 10
0.0
 20
1.0
 30
0.0
  9
$PUCSORTHOREF
  2

  9
$PUCSORTHOVIEW
 70
     0
  9
$PUCSORGTOP
 10
0.0
 20
0.0
 30
0.0
  9
$PUCSORGBOTTOM
 10
0.0
 20
0.0
 30
0.0
  9
$PUCSORGLEFT
 10
0.0
 20
0.0
 30
0.0
  9
$PUCSORGRIGHT
 10
0.0
 20
0.0
 30
0.0
  9
$PUCSORGFRONT
 10
0.0
 20
0.0
 30
0.0
  9
$PUCSORGBACK
 10
0.0
 20
0.0
 30
0.0
  9
$USERI1
 70
     0
  9
$USERI2
 70
     0
  9
$USERI3
 70
     0
  9
$USERI4
 70
     0
  9
$USERI5
 70
     0
  9
$USERR1
 40
0.0
  9
$USERR2
 40
0.0
  9
$USERR3
 40
0.0
  9
$USERR4
 40
0.0
  9
$USERR5
 40
0.0
  9
$WORLDVIEW
 70
     1
  9
$SHADEDGE
 70
     3
  9
$SHADEDIF
 70
    70
  9
$TILEMODE
 70
     1
  9
$MAXACTVP
 70
    64
  9
$PINSBASE
 10
0.0
 20
0.0
 30
0.0
  9
$PLIMCHECK
 70
     0
  9
$PEXTMIN
 10
25.69999999999999
 20
19.5
 30
0.0
  9
$PEXTMAX
 10
231.3
 20
175.5
 30
0.0
  9
$PLIMMIN
 10
-20.0
 20
-7.5
  9
$PLIMMAX
 10
277.0
 20
202.5
  9
$UNITMODE
 70
     0
  9
$VISRETAIN
 70
     1
  9
$PLINEGEN
 70
     0
  9
$PSLTSCALE
 70
     1
  9
$TREEDEPTH
 70
  3020
  9
$CMLSTYLE
  2
Standard
  9
$CMLJUST
 70
     0
  9
$CMLSCALE
 40
20.0
  9
$PROXYGRAPHICS
 70
     1
  9
$MEASUREMENT
 70
     1
  9
$CELWEIGHT
370
    -1
  9
$ENDCAPS
280
     0
  9
$JOINSTYLE
280
     0
  9
$LWDISPLAY
290
     0
  9
$INSUNITS
 70
     4
  9
$HYPERLINKBASE
  1

  9
$STYLESHEET
  1

  9
$XEDIT
290
     1
  9
$CEPSNTYPE
380
     0
  9
$PSTYLEMODE
290
     1
  9
$FINGERPRINTGUID
  2
{54537EB9-599D-7646-99BF-BB5F0EA5D2E8}
  9
$VERSIONGUID
  2
{08284CA1-BEED-864C-9165-A898767AF280}
  9
$EXTNAMES
290
     1
  9
$PSVPSCALE
 40
0.0
  9
$OLESTARTUP
290
     0
  9
$SORTENTS
280
   127
  9
$INDEXCTL
280
     0
  9
$HIDETEXT
280
     1
  9
$XCLIPFRAME
280
     2
  9
$HALOGAP
280
     0
  9
$OBSCOLOR
 70
   257
  9
$OBSLTYPE
280
     0
  9
$INTERSECTIONDISPLAY
280
     0
  9
$INTERSECTIONCOLOR
 70
   257
  9
$DIMASSOC
280
     2
  9
$PROJECTNAME
  1

  9
$CAMERADISPLAY
290
     0
  9
$LENSLENGTH
 40
50.0
  9
$CAMERAHEIGHT
 40
0.0
  9
$STEPSPERSEC
 40
2.0
  9
$STEPSIZE
 40
6.0
  9
$3DDWFPREC
 40
2.0
  9
$PSOLWIDTH
 40
5.0
  9
$PSOLHEIGHT
 40
80.0
  9
$LOFTANG1
 40
1.570796326794896
  9
$LOFTANG2
 40
1.570796326794896
  9
$LOFTMAG1
 40
0.0
  9
$LOFTMAG2
 40
0.0
  9
$LOFTPARAM
 70
     7
  9
$LOFTNORMALS
280
     1
  9
$LATITUDE
 40
37.795
  9
$LONGITUDE
 40
-122.394
  9
$NORTHDIRECTION
 40
0.0
  9
$TIMEZONE
 70
 -8000
  9
$LIGHTGLYPHDISPLAY
280
     1
  9
$TILEMODELIGHTSYNCH
280
     1
  9
$CMATERIAL
347
EC
  9
$SOLIDHIST
280
     0
  9
$SHOWHIST
280
     1
  9
$DWFFRAME
280
     2
  9
$DGNFRAME
280
     0
  9
$REALWORLDSCALE
290
     1
  9
$INTERFERECOLOR
 62
     1
  9
$INTERFEREOBJVS
345
F9
  9
$INTERFEREVPVS
346
F6
  9
$CSHADOW
280
     0
  9
$SHADOWPLANELOCATION
 40
0.0
  0
ENDSEC
  0
SECTION
  2
CLASSES
  0
CLASS
  1
ACDBDICTIONARYWDFLT
  2
AcDbDictionaryWithDefault
  3
ObjectDBX Classes
 90
        0
 91
        1
280
     0
281
     0
  0
CLASS
  1
DICTIONARYVAR
  2
AcDbDictionaryVar
  3
ObjectDBX Classes
 90
        0
 91
       13
280
     0
281
     0
  0
CLASS
  1
TABLESTYLE
  2
AcDbTableStyle
  3
ObjectDBX Classes
 90
     4095
 91
        1
280
     0
281
     0
  0
CLASS
  1
MATERIAL
  2
AcDbMaterial
  3
ObjectDBX Classes
 90
     1153
 91
        3
280
     0
281
     0
  0
CLASS
  1
VISUALSTYLE
  2
AcDbVisualStyle
  3
ObjectDBX Classes
 90
     4095
 91
       24
280
     0
281
     0
  0
CLASS
  1
SCALE
  2
AcDbScale
  3
ObjectDBX Classes
 90
     1153
 91
       17
280
     0
281
     0
  0
CLASS
  1
MLEADERSTYLE
  2
AcDbMLeaderStyle
  3
ACDB_MLEADERSTYLE_CLASS
 90
     4095
 91
        2
280
     0
281
     0
  0
CLASS
  1
CELLSTYLEMAP
  2
AcDbCellStyleMap
  3
ObjectDBX Classes
 90
     1152
 91
        1
280
     0
281
     0
  0
CLASS
  1
EXACXREFPANELOBJECT
  2
ExAcXREFPanelObject
  3
EXAC_ESW
 90
     1025
 91
        0
280
     0
281
     0
  0
CLASS
  1
NPOCOLLECTION
  2
AcDbImpNonPersistentObjectsCollection
  3
ObjectDBX Classes
 90
     1153
 91
        0
280
     0
281
     0
  0
CLASS
  1
LAYER_INDEX
  2
AcDbLayerIndex
  3
ObjectDBX Classes
 90
        0
 91
        0
280
     0
281
     0
  0
CLASS
  1
SPATIAL_INDEX
  2
AcDbSpatialIndex
  3
ObjectDBX Classes
 90
        0
 91
        0
280
     0
281
     0
  0
CLASS
  1
IDBUFFER
  2
AcDbIdBuffer
  3
ObjectDBX Classes
 90
        0
 91
        0
280
     0
281
     0
  0
CLASS
  1
ACDBSECTIONVIEWSTYLE
  2
AcDbSectionViewStyle
  3
ObjectDBX Classes
 90
     1025
 91
        1
280
     0
281
     0
  0
CLASS
  1
ACDBDETAILVIEWSTYLE
  2
AcDbDetailViewStyle
  3
ObjectDBX Classes
 90
     1025
 91
        1
280
     0
281
     0
  0
CLASS
  1
SORTENTSTABLE
  2
AcDbSortentsTable
  3
ObjectDBX Classes
 90
        0
 91
        1
280
     0
281
     0
  0
CLASS
  1
ACDB_MTEXTATTRIBUTEOBJECTCONTEXTDATA_CLASS
  2
AcDbMTextAttributeObjectContextData
  3
ObjectDBX Classes
 90
     1153
 91
       82
280
     0
281
     0
  0
CLASS
  1
ACAD_EVALUATION_GRAPH
  2
AcDbEvalGraph
  3
ObjectDBX Classes
 90
     1153
 91
        0
280
     0
281
     0
  0
CLASS
  1
ACAECUSTOBJ
  2
AcAeEditorObj
  3
AcAeEditorObj
 90
     1024
 91
        0
280
     0
281
     0
  0
CLASS
  1
ACDB_DYNAMICBLOCKPURGEPREVENTER_VERSION
  2
AcDbDynamicBlockPurgePreventer
  3
ObjectDBX Classes
 90
     1153
 91
        0
280
     0
281
     0
  0
ENDSEC
  0
SECTION
  2
TABLES
  0
TABLE
  2
VPORT
  5
8
330
0
100
AcDbSymbolTable
 70
     1
  0
VPORT
  5
EA
330
8
100
AcDbSymbolTableRecord
100
AcDbViewportTableRecord
  2
*Active
 70
     0
 10
0.0
 20
0.0
 11
1.0
 21
1.0
 12
25870.79714071735
 22
4380.828793353985
 13
0.0
 23
0.0
 14
10.0
 24
10.0
 15
10.0
 25
10.0
 16
0.0
 26
0.0
 36
1.0
 17
0.0
 27
0.0
 37
0.0
 40
2560.625613911265
 41
1.964135021097046
 42
50.0
 43
0.0
 44
0.0
 50
0.0
 51
0.0
 71
     0
 72
  1000
 73
     1
 74
     3
 75
     0
 76
     1
 77
     0
 78
     0
281
     0
 65
     1
110
0.0
120
0.0
130
0.0
111
1.0
121
0.0
131
0.0
112
0.0
122
1.0
132
0.0
 79
     0
146
0.0
348
F5
 60
     3
 61
     5
292
     1
282
     1
141
0.0
142
0.0
 63
   250
421
  3355443
1001
ACAD_NAV_VCDISPLAY
1070
     3
  0
ENDTAB
  0
TABLE
  2
LTYPE
  5
5
330
0
100
AcDbSymbolTable
 70
     1
  0
LTYPE
  5
14
330
5
100
AcDbSymbolTableRecord
100
AcDbLinetypeTableRecord
  2
ByBlock
 70
     0
  3

 72
    65
 73
     0
 40
0.0
  0
LTYPE
  5
15
330
5
100
AcDbSymbolTableRecord
100
AcDbLinetypeTableRecord
  2
ByLayer
 70
     0
  3

 72
    65
 73
     0
 40
0.0
  0
LTYPE
  5
16
330
5
100
AcDbSymbolTableRecord
100
AcDbLinetypeTableRecord
  2
Continuous
 70
     0
  3
Solid line
 72
    65
 73
     0
 40
0.0
  0
ENDTAB
  0
TABLE
  2
LAYER
  5
2
102
{ACAD_XDICTIONARY
360
1FF
102
}
330
0
100
AcDbSymbolTable
 70
     1
  0
LAYER
  5
10
102
{ACAD_XDICTIONARY
360
13C
102
}
330
2
100
AcDbSymbolTableRecord
100
AcDbLayerTableRecord
  2
0
 70
     0
 62
     7
  6
Continuous
370
    -3
390
F
347
EE
348
0
  0
ENDTAB
  0
TABLE
  2
STYLE
  5
3
330
0
100
AcDbSymbolTable
 70
     2
  0
STYLE
  5
11
330
3
100
AcDbSymbolTableRecord
100
AcDbTextStyleTableRecord
  2
Standard
 70
     0
 40
0.0
 41
1.0
 50
0.0
 71
     0
 42
2.5
  3
arial.ttf
  4

1001
ACAD
1000
Arial
1071
       34
  0
STYLE
  5
132
330
3
100
AcDbSymbolTableRecord
100
AcDbTextStyleTableRecord
  2
Annotative
 70
     0
 40
0.0
 41
1.0
 50
0.0
 71
     0
 42
2.5
  3
arial.ttf
  4

1001
AcadAnnotative
1000
AnnotativeData
1002
{
1070
     1
1070
     1
1002
}
1001
ACAD
1000
Arial
1071
       34
  0
ENDTAB
  0
TABLE
  2
VIEW
  5
6
330
0
100
AcDbSymbolTable
 70
     0
  0
ENDTAB
  0
TABLE
  2
UCS
  5
7
330
0
100
AcDbSymbolTable
 70
     0
  0
ENDTAB
  0
TABLE
  2
APPID
  5
9
330
0
100
AcDbSymbolTable
 70
    14
  0
APPID
  5
12
330
9
100
AcDbSymbolTableRecord
100
AcDbRegAppTableRecord
  2
ACAD
 70
     0
  0
APPID
  5
9E
330
9
100
AcDbSymbolTableRecord
100
AcDbRegAppTableRecord
  2
ACAD_PSEXT
 70
     0
  0
APPID
  5
133
330
9
100
AcDbSymbolTableRecord
100
AcDbRegAppTableRecord
  2
AcadAnnoPO
 70
     0
  0
APPID
  5
134
330
9
100
AcDbSymbolTableRecord
100
AcDbRegAppTableRecord
  2
AcadAnnotative
 70
     0
  0
APPID
  5
135
330
9
100
AcDbSymbolTableRecord
100
AcDbRegAppTableRecord
  2
ACAD_DSTYLE_DIMJAG
 70
     0
  0
APPID
  5
136
330
9
100
AcDbSymbolTableRecord
100
AcDbRegAppTableRecord
  2
ACAD_DSTYLE_DIMTALN
 70
     0
  0
APPID
  5
165
330
9
100
AcDbSymbolTableRecord
100
AcDbRegAppTableRecord
  2
ACAD_MLEADERVER
 70
     0
  0
APPID
  5
217
330
9
100
AcDbSymbolTableRecord
100
AcDbRegAppTableRecord
  2
ACAD_NAV_VCDISPLAY
 70
     0
  0
APPID
  5
10CD0
330
9
100
AcDbSymbolTableRecord
100
AcDbRegAppTableRecord
  2
ACAD_EXEMPT_FROM_CAD_STANDARDS
 70
     0
  0
APPID
  5
20098
330
9
100
AcDbSymbolTableRecord
100
AcDbRegAppTableRecord
  2
GradientColor1ACI
 70
     0
  0
APPID
  5
20099
330
9
100
AcDbSymbolTableRecord
100
AcDbRegAppTableRecord
  2
GradientColor2ACI
 70
     0
  0
APPID
  5
245F8
330
9
100
AcDbSymbolTableRecord
100
AcDbRegAppTableRecord
  2
ACAUTHENVIRON
 70
     0
  0
APPID
  5
27F21
330
9
100
AcDbSymbolTableRecord
100
AcDbRegAppTableRecord
  2
AcDbDynamicBlockTrueName
 70
     0
  0
APPID
  5
27F22
330
9
100
AcDbSymbolTableRecord
100
AcDbRegAppTableRecord
  2
AcDbDynamicBlockGUID
 70
     0
  0
ENDTAB
  0
TABLE
  2
DIMSTYLE
  5
A
330
0
100
AcDbSymbolTable
 70
     3
100
AcDbDimStyleTable
 71
     1
340
27
  0
DIMSTYLE
105
1B0
330
A
100
AcDbSymbolTableRecord
100
AcDbDimStyleTableRecord
  2
Standard
 70
     0
340
11
  0
DIMSTYLE
105
27
330
A
100
AcDbSymbolTableRecord
100
AcDbDimStyleTableRecord
  2
ISO-25
 70
     0
 41
2.5
 42
0.625
 43
3.75
 44
1.25
 73
     0
 74
     0
 77
     1
 78
     8
140
2.5
141
2.5
143
0.03937007874016
147
0.625
171
     3
172
     1
271
     2
272
     2
274
     3
278
    44
283
     0
284
     8
340
11
  0
ENDTAB
  0
TABLE
  2
BLOCK_RECORD
  5
1
330
0
100
AcDbSymbolTable
 70
    44
  0
BLOCK_RECORD
  5
1F
102
{ACAD_XDICTIONARY
360
1CE
102
}
330
1
100
AcDbSymbolTableRecord
100
AcDbBlockTableRecord
  2
*Model_Space
340
22
 70
     0
280
     1
281
     0
  0
BLOCK_RECORD
  5
D2
330
1
100
AcDbSymbolTableRecord
100
AcDbBlockTableRecord
  2
*Paper_Space
340
D3
 70
     0
280
     1
281
     0
  0
BLOCK_RECORD
  5
D6
330
1
100
AcDbSymbolTableRecord
100
AcDbBlockTableRecord
  2
*Paper_Space0
340
D7
 70
     0
280
     1
281
     0
  0
BLOCK_RECORD
  5
2678E
102
{ACAD_XDICTIONARY
360
341DB
102
}
330
1
100
AcDbSymbolTableRecord
100
AcDbBlockTableRecord
  2
867H - Full Rack
340
0
310
28000000200000002000000001002000000000000010000001000000010000000000000000000000302821FF302821FF302821FF302821FF302821FF302821FF302821FF302821FF302821FF302821FF302821FF302821FF302821FF302821FF302821FF302821FF302821FF302821FF302821FF302821FF302821FF302821
310
FF302821FF302821FF302821FF302821FF302821FF302821FF302821FF302821FF302821FF302821FF302821FF302821FF302821FF302821FF302821FF302821FF302821FF302821FF302821FF302821FF302821FF302821FF302821FF302821FFFFFFFFFFFFFFFFFFFFFFFFFFFFFFFFFF302821FF302821FF302821FF3028
310
21FF302821FF302821FF302821FF302821FF302821FF302821FF302821FF302821FF302821FF302821FF302821FF302821FF302821FF302821FF302821FF302821FF302821FF302821FF302821FF302821FF302821FF302821FF302821FF302821FF302821FFFFFFFFFFFFFFFFFFFFFFFFFF302821FF302821FF302821FF30
310
2821FF302821FF302821FF302821FF302821FF302821FF302821FF302821FF302821FF302821FF302821FF302821FF302821FF302821FF302821FF302821FF302821FF302821FF302821FF302821FF302821FF302821FF302821FF302821FF302821FFFFFFFFFFFFFFFFFFFFFFFFFFFFFFFFFF302821FF302821FF302821FF
310
302821FF302821FF302821FF302821FF302821FF302821FF302821FF302821FF302821FF302821FF302821FF302821FF302821FF302821FF302821FF302821FF302821FF302821FF302821FF302821FF302821FF302821FF302821FF302821FF302821FF302821FF302821FF302821FF302821FF302821FF302821FF302821
310
FF302821FF302821FF302821FF302821FF302821FF302821FF302821FF302821FF302821FF302821FF302821FF302821FF302821FF302821FF302821FF302821FF302821FF302821FF302821FF302821FF302821FF302821FF302821FF302821FF302821FF302821FF302821FF302821FF302821FF302821FF302821FF3028
310
21FF302821FF302821FF302821FF302821FF302821FF302821FF302821FF302821FF302821FF302821FF302821FF302821FF302821FF302821FF302821FF302821FF302821FF302821FF302821FFFFFFFFFFFFFFFFFFFFFFFFFFFFFFFFFFFFFFFFFFFFFFFFFFFFFFFFFFFFFFFFFFFFFFFFFFFFFFFFFFFFFFFFFFFFFFFFFFFF
310
FFFFFFFFFFFFFFFFFFFFFFFFFFFFFF302821FF302821FF302821FF302821FF302821FF302821FF302821FF302821FF302821FF302821FF302821FF302821FF302821FF302821FF302821FF302821FFFFFFFFFFFFFFFFFFFFFFFFFF302821FF302821FF302821FFFFFFFFFF302821FF302821FFFFFFFFFF302821FF302821FF
310
302821FFFFFFFFFFFFFFFFFFFFFFFFFF302821FF302821FF302821FF302821FF302821FF302821FF302821FF302821FF302821FF302821FF302821FF302821FF302821FF302821FF302821FF302821FFFFFFFFFFFFFFFFFFFFFFFFFFFFFFFFFFFFFFFFFFFFFFFFFFFFFFFFFFFFFFFFFFFFFFFFFFFFFFFFFFFFFFFFFFFFFFFF
310
FFFFFFFFFFFFFFFFFFFFFFFFFFFFFFFFFF302821FF302821FF302821FF302821FF302821FF302821FF302821FF302821FF302821FF302821FF302821FF302821FF302821FF302821FF302821FF302821FFFFFFFFFFFFFFFFFFFFFFFFFFFFFFFFFFFFFFFFFFFFFFFFFFFFFFFFFFFFFFFFFFFFFFFFFFFFFFFFFFFFFFFFFFFFFF
310
FFFFFFFFFFFFFFFFFFFFFFFFFFFFFFFFFFFF302821FF302821FF302821FF302821FF302821FF302821FF302821FF302821FF302821FF302821FF302821FF302821FF302821FF302821FF302821FF302821FFFFFFFFFFFFFFFFFFFFFFFFFF302821FFFFFFFFFFFFFFFFFFFFFFFFFFFFFFFFFFFFFFFFFFFFFFFFFFFFFFFFFFFF
310
FFFFFF302821FFFFFFFFFFFFFFFFFFFFFFFFFF302821FF302821FF302821FF302821FF302821FF302821FF302821FF302821FF302821FF302821FF302821FF302821FF302821FF302821FF302821FFFFFFFFFFFFFFFFFFFFFFFFFFFFFFFFFF302821FFFFFFFFFFFFFFFFFFFFFFFFFFFFFFFFFFFFFFFFFFFFFFFFFFFFFFFFFF
310
FFFFFFFF302821FFFFFFFFFFFFFFFFFFFFFFFFFFFFFFFFFF302821FF302821FF302821FF302821FF302821FF302821FF302821FF302821FF302821FF302821FF302821FF302821FF302821FF302821FFFFFFFFFFFFFFFFFFFFFFFFFFFFFFFFFF302821FF302821FF302821FF302821FF302821FF302821FF302821FF302821
310
FF302821FF302821FFFFFFFFFFFFFFFFFFFFFFFFFFFFFFFFFF302821FF302821FF302821FF302821FF302821FF302821FF302821FF302821FF302821FF302821FF302821FF302821FF302821FFFFFFFFFFFFFFFFFFFFFFFFFFFFFFFFFFFFFFFFFF302821FF302821FF302821FF302821FF302821FF302821FF302821FF3028
310
21FF302821FF302821FFFFFFFFFFFFFFFFFFFFFFFFFFFFFFFFFFFFFFFFFF302821FF302821FF302821FF302821FF302821FF302821FF302821FF302821FF302821FF302821FF302821FFFFFFFFFFFFFFFFFFFFFFFFFFFFFFFFFFFFFFFFFFFFFFFFFF302821FF302821FF302821FF302821FF302821FF302821FF302821FF30
310
2821FF302821FF302821FFFFFFFFFFFFFFFFFFFFFFFFFFFFFFFFFFFFFFFFFFFFFFFFFF302821FF302821FF302821FF302821FF302821FF302821FF302821FF302821FFFFFFFFFFFFFFFFFFFFFFFFFFFFFFFFFFFFFFFFFFFFFFFFFFFFFFFFFFFFFFFFFFFFFFFFFFFFFFFFFFFFFFFFFFFFFFFFFFFFFFFFFFFFFFFFFFFFFFFFFF
310
FFFFFFFFFFFFFFFFFFFFFFFFFFFFFFFFFFFFFFFFFFFFFFFFFFFFFFFFFFFFFFFFFFFFFFFFFFFFFFFFFFFFFFFF302821FF302821FF302821FF302821FF302821FF302821FF302821FFFFFFFFFFFFFFFFFFFFFFFFFFFFFFFFFFFFFFFFFFFFFFFFFFFFFFFFFF302821FF302821FF302821FF302821FF302821FF302821FF302821
310
FF302821FF302821FF302821FFFFFFFFFFFFFFFFFFFFFFFFFFFFFFFFFFFFFFFFFFFFFFFFFFFFFFFFFF302821FF302821FF302821FF302821FF302821FF302821FF302821FF302821FF302821FFFFFFFFFFFFFFFFFFFFFFFFFFFFFFFFFFFFFFFFFFFFFFFFFF302821FF302821FF302821FF302821FF302821FF302821FF3028
310
21FF302821FF302821FF302821FFFFFFFFFFFFFFFFFFFFFFFFFFFFFFFFFFFFFFFFFFFFFFFFFF302821FF302821FF302821FF302821FF302821FF302821FF302821FF302821FF302821FF302821FF302821FFFFFFFFFFFFFFFFFFFFFFFFFFFFFFFFFFFFFFFFFF302821FF302821FF302821FF302821FF302821FF302821FF30
310
2821FF302821FF302821FF302821FFFFFFFFFFFFFFFFFFFFFFFFFFFFFFFFFFFFFFFFFF302821FF302821FF302821FF302821FF302821FF302821FF302821FF302821FF302821FF302821FF302821FF302821FF302821FF302821FFFFFFFFFFFFFFFFFFFFFFFFFF302821FF302821FF302821FF302821FF302821FF302821FF
310
302821FF302821FF302821FF302821FFFFFFFFFFFFFFFFFFFFFFFFFF302821FF302821FF302821FF302821FF302821FF302821FF302821FF302821FF302821FF302821FF302821FF302821FF302821FF302821FF302821FF302821FFFFFFFFFFFFFFFFFFFFFFFFFFFFFFFFFFFFFFFFFFFFFFFFFFFFFFFFFFFFFFFFFFFFFFFF
310
FFFFFFFFFFFFFFFFFFFFFFFFFFFFFFFFFFFFFFFFFFFFFFFFFFFFFFFFFF302821FF302821FF302821FF302821FF302821FF302821FF302821FF302821FF302821FF302821FF302821FF302821FF302821FF302821FF302821FF302821FFFFFFFFFFFFFFFFFFFFFFFFFFFFFFFFFFFFFFFFFFFFFFFFFFFFFFFFFFFFFFFFFFFFFF
310
FFFFFFFFFFFFFFFFFFFFFFFFFFFFFFFFFFFFFFFFFFFFFFFFFFFFFFFFFFFF302821FF302821FF302821FF302821FF302821FF302821FF302821FF302821FF302821FF302821FF302821FF302821FF302821FF302821FF302821FF302821FFFFFFFFFFFFFFFFFFFFFFFFFF302821FF302821FF302821FF302821FF302821FF30
310
2821FF302821FF302821FF302821FF302821FFFFFFFFFFFFFFFFFFFFFFFFFF302821FF302821FF302821FF302821FF302821FF302821FF302821FF302821FF302821FF302821FF302821FF302821FF302821FF302821FF302821FF302821FFFFFFFFFFFFFFFFFFFFFFFFFF302821FF302821FF302821FF302821FF302821FF
310
302821FF302821FF302821FF302821FF302821FFFFFFFFFFFFFFFFFFFFFFFFFF302821FF302821FF302821FF302821FF302821FF302821FF302821FF302821FF302821FF302821FF302821FF302821FF302821FF302821FF302821FF302821FFFFFFFFFFFFFFFFFFFFFFFFFF302821FF302821FF302821FF302821FF302821
310
FF302821FF302821FF302821FF302821FF302821FFFFFFFFFFFFFFFFFFFFFFFFFF302821FF302821FF302821FF302821FF302821FF302821FF302821FF302821FF302821FF302821FF302821FF302821FF302821FF302821FF302821FF302821FFFFFFFFFFFFFFFFFFFFFFFFFF302821FF302821FF302821FF302821FF3028
310
21FF302821FF302821FF302821FF302821FF302821FFFFFFFFFFFFFFFFFFFFFFFFFF302821FF302821FF302821FF302821FF302821FF302821FF302821FF302821FF302821FF302821FF302821FF302821FF302821FF302821FFFFFFFFFFFFFFFFFFFFFFFFFFFFFFFFFFFFFFFFFFFFFFFFFF302821FF302821FF302821FF30
310
2821FF302821FF302821FF302821FF302821FFFFFFFFFFFFFFFFFFFFFFFFFFFFFFFFFFFFFFFFFFFFFFFFFF302821FF302821FF302821FF302821FF302821FF302821FF302821FF302821FF302821FF302821FF302821FF302821FFFFFFFFFFFFFFFFFFFFFFFFFFFFFFFFFFFFFFFFFFFFFFFFFF302821FF302821FF302821FF
310
302821FF302821FF302821FF302821FF302821FFFFFFFFFFFFFFFFFFFFFFFFFFFFFFFFFFFFFFFFFFFFFFFFFF302821FF302821FF302821FF302821FF302821FF302821FF302821FF302821FF302821FF302821FF302821FF302821FF302821FF302821FFFFFFFFFFFFFFFFFFFFFFFFFFFFFFFFFFFFFFFFFF302821FF302821
310
FF302821FF302821FF302821FF302821FFFFFFFFFFFFFFFFFFFFFFFFFFFFFFFFFFFFFFFFFF302821FF302821FF302821FF302821FF302821FF302821FF302821FF302821FF302821FF302821FF302821FF302821FF302821FF302821FF302821FF302821FFFFFFFFFFFFFFFFFFFFFFFFFF302821FFFFFFFFFFFFFFFFFFFFFF
310
FFFFFFFFFFFFFFFFFFFFFFFFFFFFFFFFFFFFFFFFFFFFFFFFFFFFFFFFFFFFFFFFFFFFFFFFFFFF302821FF302821FF302821FF302821FF302821FF302821FF302821FF302821FF302821FF302821FF302821FF302821FF302821FF302821FF302821FF302821FFFFFFFFFFFFFFFFFFFFFFFFFF302821FFFFFFFFFFFFFFFFFFFF
310
FFFFFFFFFFFFFFFFFFFFFFFFFFFFFFFFFFFFFFFFFFFFFF302821FFFFFFFFFFFFFFFFFFFFFFFFFF302821FF302821FF302821FF302821FF302821FF302821FF302821FF302821FF302821FF302821FF302821FF302821FF302821FF302821FF302821FF302821FF302821FF302821FF302821FF302821FF302821FF302821FF
310
302821FF302821FF302821FF302821FF302821FF302821FF302821FF302821FF302821FF302821FF302821FF302821FF302821FF302821FF302821FF302821FF302821FF302821FF
102
{BLKREFS
331
26BF7
102
}
 70
     4
280
     1
281
     0
1001
AcDbDynamicBlockGUID
1000
{E818ADBB-7806-8143-94C3-56F2312C92BD}
  0
ENDTAB
  0
ENDSEC
  0
SECTION
  2
BLOCKS
  0
BLOCK
  5
20
330
1F
100
AcDbEntity
  8
0
100
AcDbBlockBegin
  2
*Model_Space
 70
     0
 10
0.0
 20
0.0
 30
0.0
  3
*Model_Space
  1

  0
ENDBLK
  5
21
330
1F
100
AcDbEntity
  8
0
100
AcDbBlockEnd
  0
BLOCK
  5
D4
330
D2
100
AcDbEntity
 67
     1
  8
0
100
AcDbBlockBegin
  2
*Paper_Space
 70
     0
 10
0.0
 20
0.0
 30
0.0
  3
*Paper_Space
  1

  0
ENDBLK
  5
D5
330
D2
100
AcDbEntity
 67
     1
  8
0
100
AcDbBlockEnd
  0
BLOCK
  5
D8
330
D6
100
AcDbEntity
 67
     1
  8
0
100
AcDbBlockBegin
  2
*Paper_Space0
 70
     0
 10
0.0
 20
0.0
 30
0.0
  3
*Paper_Space0
  1

  0
ENDBLK
  5
D9
330
D6
100
AcDbEntity
 67
     1
  8
0
100
AcDbBlockEnd
  0
BLOCK
  5
2678F
330
2678E
100
AcDbEntity
  8
0
100
AcDbBlockBegin
  2
867H - Full Rack
 70
     2
 10
0.0
 20
0.0
 30
0.0
  3
867H - Full Rack
  1

  0
LINE
  5
33D75
330
2678E
100
AcDbEntity
  8
0
100
AcDbLine
 10
-617.1197358473801
 20
-443.3036023346358
 30
0.0
 11
-765.1197377547214
 21
-443.3036023346358
 31
0.0
  0
LINE
  5
33D76
330
2678E
100
AcDbEntity
  8
0
100
AcDbLine
 10
-765.1197377547214
 20
-468.3035784927779
 30
0.0
 11
-617.1197358473801
 21
-468.3035784927779
 31
0.0
  0
LINE
  5
33D77
330
2678E
100
AcDbEntity
  8
0
100
AcDbLine
 10
-765.1197377547214
 20
-443.3036023346358
 30
0.0
 11
-767.1197716101596
 21
-445.3035765854292
 31
0.0
  0
LINE
  5
33D78
330
2678E
100
AcDbEntity
  8
0
100
AcDbLine
 10
-767.1197716101596
 20
-466.3036042419844
 30
0.0
 11
-765.1197377547214
 21
-468.3035784927779
 31
0.0
  0
LINE
  5
33D79
330
2678E
100
AcDbEntity
  8
0
100
AcDbLine
 10
578.8802441254593
 20
-218.3035784927779
 30
0.0
 11
719.6052541390454
 21
-218.3035784927779
 31
0.0
  0
LINE
  5
33D7A
330
2678E
100
AcDbEntity
  8
0
100
AcDbLine
 10
719.6052541390454
 20
-193.3036023346358
 30
0.0
 11
578.8802441254593
 21
-193.3036023346358
 31
0.0
  0
LINE
  5
33D7B
330
2678E
100
AcDbEntity
  8
0
100
AcDbLine
 10
-617.1197358473801
 20
-193.3036023346358
 30
0.0
 11
-757.8447458609589
 21
-193.3036023346358
 31
0.0
  0
LINE
  5
33D7C
330
2678E
100
AcDbEntity
  8
0
100
AcDbLine
 10
-757.8447458609589
 20
-218.3035784927706
 30
0.0
 11
-617.1197358473801
 21
-218.3035784927779
 31
0.0
  0
LINE
  5
33D7D
330
2678E
100
AcDbEntity
  8
0
100
AcDbLine
 10
578.8802441254593
 20
31.69642150722211
 30
0.0
 11
719.6052541390454
 21
31.69642150722211
 31
0.0
  0
LINE
  5
33D7E
330
2678E
100
AcDbEntity
  8
0
100
AcDbLine
 10
719.6052541390454
 20
56.6963976653642
 30
0.0
 11
578.8802441254593
 21
56.6963976653642
 31
0.0
  0
LINE
  5
33D7F
330
2678E
100
AcDbEntity
  8
0
100
AcDbLine
 10
-617.1197358473801
 20
56.6963976653642
 30
0.0
 11
-757.8447458609589
 21
56.6963976653642
 31
0.0
  0
LINE
  5
33D80
330
2678E
100
AcDbEntity
  8
0
100
AcDbLine
 10
-757.8447458609589
 20
31.69642150722939
 30
0.0
 11
-617.1197358473801
 21
31.69642150722211
 31
0.0
  0
LINE
  5
33D81
330
2678E
100
AcDbEntity
  8
0
100
AcDbLine
 10
578.8802441254593
 20
-468.3035784927779
 30
0.0
 11
726.8802460328079
 21
-468.3035784927779
 31
0.0
  0
LINE
  5
33D82
330
2678E
100
AcDbEntity
  8
0
100
AcDbLine
 10
726.8802460328079
 20
-443.3036023346358
 30
0.0
 11
578.8802441254593
 21
-443.3036023346358
 31
0.0
  0
LINE
  5
33D83
330
2678E
100
AcDbEntity
  8
0
100
AcDbLine
 10
726.8802460328079
 20
-468.3035784927779
 30
0.0
 11
728.8802798882461
 21
-466.3036042419844
 31
0.0
  0
LINE
  5
33D84
330
2678E
100
AcDbEntity
  8
0
100
AcDbLine
 10
728.8802798882461
 20
-445.3035765854292
 30
0.0
 11
726.8802460328079
 21
-443.3036023346358
 31
0.0
  0
ARC
  5
33D85
330
2678E
100
AcDbEntity
  8
0
100
AcDbCircle
 10
560.8802541390396
 20
-804.0535990083954
 30
0.0
 40
2.000000000000455
100
AcDbArc
 50
270.0
 51
0.0
  0
ARC
  5
33D86
330
2678E
100
AcDbEntity
  8
0
100
AcDbCircle
 10
546.8802541390468
 20
-804.0535990083954
 30
0.0
 40
1.999999999999887
100
AcDbArc
 50
180.0
 51
270.0
  0
LINE
  5
33D87
330
2678E
100
AcDbEntity
  8
0
100
AcDbLine
 10
562.8802713051773
 20
-804.0535622803144
 30
0.0
 11
562.8802713051773
 21
-801.0535412994794
 31
0.0
  0
LINE
  5
33D88
330
2678E
100
AcDbEntity
  8
0
100
AcDbLine
 10
544.8802646294571
 20
-801.0535412994794
 30
0.0
 11
544.8802646294571
 21
-804.0535622803144
 31
0.0
  0
LINE
  5
33D89
330
2678E
100
AcDbEntity
  8
0
100
AcDbLine
 10
-583.1197563513779
 20
-804.0535622803144
 30
0.0
 11
-583.1197563513779
 21
-801.0535412994794
 31
0.0
  0
LINE
  5
33D8A
330
2678E
100
AcDbEntity
  8
0
100
AcDbLine
 10
-601.1197630270981
 20
-801.0535412994794
 30
0.0
 11
-601.1197630270981
 21
-804.0535622803144
 31
0.0
  0
ARC
  5
33D8B
330
2678E
100
AcDbEntity
  8
0
100
AcDbCircle
 10
-585.1197458609603
 20
-804.0535990083954
 30
0.0
 40
2.000000000000455
100
AcDbArc
 50
270.0
 51
0.0
  0
ARC
  5
33D8C
330
2678E
100
AcDbEntity
  8
0
100
AcDbCircle
 10
-599.1197458609604
 20
-804.0535990083954
 30
0.0
 40
2.000000000000455
100
AcDbArc
 50
180.0
 51
270.0
  0
ARC
  5
33D8D
330
2678E
100
AcDbEntity
  8
0
100
AcDbCircle
 10
-640.1197458609458
 20
909.9464009915973
 30
0.0
 40
2.000000000000455
100
AcDbArc
 50
90.0
 51
180.0
  0
ARC
  5
33D8E
330
2678E
100
AcDbEntity
  8
0
100
AcDbCircle
 10
-640.1197458609458
 20
837.9464009915974
 30
0.0
 40
2.000000000001592
100
AcDbArc
 50
180.0
 51
270.0
  0
LINE
  5
33D8F
330
2678E
100
AcDbEntity
  8
0
100
AcDbLine
 10
-619.1197697028183
 20
911.9463986190458
 30
0.0
 11
-640.1197377547287
 21
911.9463986190458
 31
0.0
  0
LINE
  5
33D90
330
2678E
100
AcDbEntity
  8
0
100
AcDbLine
 10
-640.1197377547287
 20
835.9463936122484
 30
0.0
 11
-619.1197697028183
 21
835.9463936122484
 31
0.0
  0
ARC
  5
33D91
330
2678E
100
AcDbEntity
  8
0
100
AcDbCircle
 10
-619.1197458609458
 20
909.9464009915973
 30
0.0
 40
2.000000000000455
100
AcDbArc
 50
0.0
 51
90.0
  0
ARC
  5
33D92
330
2678E
100
AcDbEntity
  8
0
100
AcDbCircle
 10
-619.1197458609458
 20
837.9464009915974
 30
0.0
 40
2.000000000000455
100
AcDbArc
 50
270.0
 51
0.0
  0
ARC
  5
33D93
330
2678E
100
AcDbEntity
  8
0
100
AcDbCircle
 10
-544.1197458609458
 20
837.9464009916263
 30
0.0
 40
2.000000000000455
100
AcDbArc
 50
270.0
 51
0.0
  0
ARC
  5
33D94
330
2678E
100
AcDbEntity
  8
0
100
AcDbCircle
 10
-544.1197458609458
 20
909.9464009916191
 30
0.0
 40
2.000000000000455
100
AcDbArc
 50
0.0
 51
90.0
  0
LINE
  5
33D95
330
2678E
100
AcDbEntity
  8
0
100
AcDbLine
 10
-565.1197496756577
 20
835.9463936122484
 30
0.0
 11
-544.1197220190952
 21
835.9463936122484
 31
0.0
  0
LINE
  5
33D96
330
2678E
100
AcDbEntity
  8
0
100
AcDbLine
 10
-544.1197220190952
 20
911.9463986190458
 30
0.0
 11
-565.1197496756577
 21
911.9463986190458
 31
0.0
  0
ARC
  5
33D97
330
2678E
100
AcDbEntity
  8
0
100
AcDbCircle
 10
-565.1197458609458
 20
837.9464009916263
 30
0.0
 40
1.999999999999887
100
AcDbArc
 50
180.0
 51
270.0
  0
ARC
  5
33D98
330
2678E
100
AcDbEntity
  8
0
100
AcDbCircle
 10
-565.1197458609458
 20
909.9464009916191
 30
0.0
 40
1.999999999999887
100
AcDbArc
 50
90.0
 51
180.0
  0
LINE
  5
33D99
330
2678E
100
AcDbEntity
  8
0
100
AcDbLine
 10
526.8802579537369
 20
911.9463986190458
 30
0.0
 11
505.8802302971817
 21
911.9463986190458
 31
0.0
  0
LINE
  5
33D9A
330
2678E
100
AcDbEntity
  8
0
100
AcDbLine
 10
505.8802302971817
 20
835.9463936122484
 30
0.0
 11
526.8802579537369
 21
835.9463936122484
 31
0.0
  0
ARC
  5
33D9B
330
2678E
100
AcDbEntity
  8
0
100
AcDbCircle
 10
526.8802541390323
 20
909.9464009916191
 30
0.0
 40
1.999999999999318
100
AcDbArc
 50
0.0
 51
90.0
  0
ARC
  5
33D9C
330
2678E
100
AcDbEntity
  8
0
100
AcDbCircle
 10
526.8802541390323
 20
837.9464009916263
 30
0.0
 40
1.999999999999318
100
AcDbArc
 50
270.0
 51
0.0
  0
ARC
  5
33D9D
330
2678E
100
AcDbEntity
  8
0
100
AcDbCircle
 10
505.8802541390323
 20
909.9464009916191
 30
0.0
 40
2.000000000001592
100
AcDbArc
 50
90.0
 51
180.0
  0
ARC
  5
33D9E
330
2678E
100
AcDbEntity
  8
0
100
AcDbCircle
 10
505.8802541390323
 20
837.9464009916191
 30
0.0
 40
2.000000000001592
100
AcDbArc
 50
180.0
 51
270.0
  0
LINE
  5
33D9F
330
2678E
100
AcDbEntity
  8
0
100
AcDbLine
 10
580.8802779808975
 20
835.9463936122484
 30
0.0
 11
601.8802460328079
 21
835.9463936122484
 31
0.0
  0
LINE
  5
33DA0
330
2678E
100
AcDbEntity
  8
0
100
AcDbLine
 10
601.8802460328079
 20
911.9463986190458
 30
0.0
 11
580.8802779808975
 21
911.9463986190458
 31
0.0
  0
ARC
  5
33DA1
330
2678E
100
AcDbEntity
  8
0
100
AcDbCircle
 10
580.8802541390323
 20
837.9464009915974
 30
0.0
 40
2.000000000000455
100
AcDbArc
 50
180.0
 51
270.0
  0
ARC
  5
33DA2
330
2678E
100
AcDbEntity
  8
0
100
AcDbCircle
 10
580.8802541390323
 20
909.9464009915973
 30
0.0
 40
2.000000000000455
100
AcDbArc
 50
90.0
 51
180.0
  0
ARC
  5
33DA3
330
2678E
100
AcDbEntity
  8
0
100
AcDbCircle
 10
601.8802541390323
 20
837.9464009915974
 30
0.0
 40
2.000000000000455
100
AcDbArc
 50
270.0
 51
0.0
  0
ARC
  5
33DA4
330
2678E
100
AcDbEntity
  8
0
100
AcDbCircle
 10
601.8802541390323
 20
909.9464009916045
 30
0.0
 40
2.000000000000455
100
AcDbArc
 50
0.0
 51
90.0
  0
ARC
  5
33DA5
330
2678E
100
AcDbEntity
  8
0
100
AcDbCircle
 10
-433.1197458609531
 20
854.4464009916119
 30
0.0
 40
3.000000000000115
100
AcDbArc
 50
270.0
 51
0.0
  0
ARC
  5
33DA6
330
2678E
100
AcDbEntity
  8
0
100
AcDbCircle
 10
-433.1197458609531
 20
893.4464009916119
 30
0.0
 40
3.000000000000115
100
AcDbArc
 50
0.0
 51
90.0
  0
ARC
  5
33DA7
330
2678E
100
AcDbEntity
  8
0
100
AcDbCircle
 10
-435.1197458609531
 20
854.4464009916119
 30
0.0
 40
2.999999999999547
100
AcDbArc
 50
270.0
 51
0.0
  0
ARC
  5
33DA8
330
2678E
100
AcDbEntity
  8
0
100
AcDbCircle
 10
-435.1197458609531
 20
893.4464009916192
 30
0.0
 40
2.999999999999547
100
AcDbArc
 50
0.0
 51
90.0
  0
LINE
  5
33DA9
330
2678E
100
AcDbEntity
  8
0
100
AcDbLine
 10
-437.1197584971451
 20
851.4464026721617
 30
0.0
 11
-433.1197503909134
 21
851.4464026721617
 31
0.0
  0
LINE
  5
33DAA
330
2678E
100
AcDbEntity
  8
0
100
AcDbLine
 10
-433.1197503909134
 20
896.4464044602937
 30
0.0
 11
-437.1197584971451
 21
896.4464044602937
 31
0.0
  0
LINE
  5
33DAB
330
2678E
100
AcDbEntity
  8
0
100
AcDbLine
 10
-887.1197167738865
 20
896.4464044602937
 30
0.0
 11
-889.1197506293247
 21
896.4464044602937
 31
0.0
  0
LINE
  5
33DAC
330
2678E
100
AcDbEntity
  8
0
100
AcDbLine
 10
-889.1197506293247
 20
851.4464026721617
 30
0.0
 11
-887.1197167738865
 21
851.4464026721617
 31
0.0
  0
ARC
  5
33DAD
330
2678E
100
AcDbEntity
  8
0
100
AcDbCircle
 10
-889.119745860953
 20
893.4464009916192
 30
0.0
 40
2.999999999999547
100
AcDbArc
 50
90.0
 51
180.0
  0
ARC
  5
33DAE
330
2678E
100
AcDbEntity
  8
0
100
AcDbCircle
 10
-889.119745860953
 20
854.4464009916119
 30
0.0
 40
2.999999999999547
100
AcDbArc
 50
180.0
 51
270.0
  0
LINE
  5
33DAF
330
2678E
100
AcDbEntity
  8
0
100
AcDbLine
 10
398.8802667752243
 20
896.4464044602937
 30
0.0
 11
394.8802586689926
 21
896.4464044602937
 31
0.0
  0
LINE
  5
33DB0
330
2678E
100
AcDbEntity
  8
0
100
AcDbLine
 10
394.8802586689926
 20
851.4464026721617
 30
0.0
 11
398.8802667752243
 21
851.4464026721617
 31
0.0
  0
ARC
  5
33DB1
330
2678E
100
AcDbEntity
  8
0
100
AcDbCircle
 10
394.8802541390396
 20
893.4464009916119
 30
0.0
 40
2.999999999999547
100
AcDbArc
 50
90.0
 51
180.0
  0
ARC
  5
33DB2
330
2678E
100
AcDbEntity
  8
0
100
AcDbCircle
 10
394.8802541390396
 20
854.4464009916119
 30
0.0
 40
3.000000000000683
100
AcDbArc
 50
180.0
 51
270.0
  0
ARC
  5
33DB3
330
2678E
100
AcDbEntity
  8
0
100
AcDbCircle
 10
396.8802541390396
 20
893.4464009916192
 30
0.0
 40
3.000000000000115
100
AcDbArc
 50
90.0
 51
180.0
  0
ARC
  5
33DB4
330
2678E
100
AcDbEntity
  8
0
100
AcDbCircle
 10
396.8802541390396
 20
854.4464009916119
 30
0.0
 40
3.000000000000683
100
AcDbArc
 50
180.0
 51
270.0
  0
ARC
  5
33DB5
330
2678E
100
AcDbEntity
  8
0
100
AcDbCircle
 10
850.8802541390396
 20
854.4464009916119
 30
0.0
 40
3.00000000000182
100
AcDbArc
 50
270.0
 51
0.0
  0
ARC
  5
33DB6
330
2678E
100
AcDbEntity
  8
0
100
AcDbCircle
 10
850.8802541390396
 20
893.4464009916192
 30
0.0
 40
3.00000000000182
100
AcDbArc
 50
0.0
 51
90.0
  0
LINE
  5
33DB7
330
2678E
100
AcDbEntity
  8
0
100
AcDbLine
 10
848.8802250519729
 20
851.4464026721617
 30
0.0
 11
850.8802589074111
 21
851.4464026721617
 31
0.0
  0
LINE
  5
33DB8
330
2678E
100
AcDbEntity
  8
0
100
AcDbLine
 10
850.8802589074111
 20
896.4464044602937
 30
0.0
 11
848.8802250519729
 21
896.4464044602937
 31
0.0
  0
LINE
  5
33DB9
330
2678E
100
AcDbEntity
  8
0
100
AcDbLine
 10
-435.1197544440292
 20
898.2963985236784
 30
0.0
 11
-542.119747768309
 21
898.2963985236784
 31
0.0
  0
LINE
  5
33DBA
330
2678E
100
AcDbEntity
  8
0
100
AcDbLine
 10
-642.1197716101669
 20
898.2963985236784
 30
0.0
 11
-887.1197167738865
 21
898.2963985236784
 31
0.0
  0
LINE
  5
33DBB
330
2678E
100
AcDbEntity
  8
0
100
AcDbLine
 10
-887.1197167738865
 20
849.5963937076158
 30
0.0
 11
-642.1197716101669
 21
849.5963937076158
 31
0.0
  0
LINE
  5
33DBC
330
2678E
100
AcDbEntity
  8
0
100
AcDbLine
 10
-542.119747768309
 20
849.5963937076158
 30
0.0
 11
-435.1197544440292
 21
849.5963937076158
 31
0.0
  0
LINE
  5
33DBD
330
2678E
100
AcDbEntity
  8
0
100
AcDbLine
 10
603.8802798882461
 20
849.5963937076158
 30
0.0
 11
848.8802250519729
 21
849.5963937076158
 31
0.0
  0
LINE
  5
33DBE
330
2678E
100
AcDbEntity
  8
0
100
AcDbLine
 10
848.8802250519729
 20
898.2963985236784
 30
0.0
 11
603.8802798882461
 21
898.2963985236784
 31
0.0
  0
LINE
  5
33DBF
330
2678E
100
AcDbEntity
  8
0
100
AcDbLine
 10
396.8802627221157
 20
849.5963937076158
 30
0.0
 11
503.8802560463882
 21
849.5963937076158
 31
0.0
  0
LINE
  5
33DC0
330
2678E
100
AcDbEntity
  8
0
100
AcDbLine
 10
503.8802560463882
 20
898.2963985236784
 30
0.0
 11
396.8802627221157
 21
898.2963985236784
 31
0.0
  0
LINE
  5
33DC1
330
2678E
100
AcDbEntity
  8
0
100
AcDbLine
 10
566.3802560463882
 20
-661.0535556045943
 30
0.0
 11
566.3802560463882
 21
-660.5535918442183
 31
0.0
  0
LINE
  5
33DC2
330
2678E
100
AcDbEntity
  8
0
100
AcDbLine
 10
541.3802798882461
 20
-660.5535918442183
 30
0.0
 11
541.3802798882461
 21
-661.0535556045943
 31
0.0
  0
LINE
  5
33DC3
330
2678E
100
AcDbEntity
  8
0
100
AcDbLine
 10
-579.6197716101669
 20
-661.0535556045943
 30
0.0
 11
-579.6197716101669
 21
-660.5535918442183
 31
0.0
  0
LINE
  5
33DC4
330
2678E
100
AcDbEntity
  8
0
100
AcDbLine
 10
-604.619747768309
 20
-660.5535918442183
 30
0.0
 11
-604.619747768309
 21
-661.0535556045943
 31
0.0
  0
LINE
  5
33DC5
330
2678E
100
AcDbEntity
  8
0
100
AcDbLine
 10
-271.0166636809372
 20
-577.0535641876631
 30
0.0
 11
234.8802541390396
 21
-577.0535990083954
 31
0.0
  0
LINE
  5
33DC6
330
2678E
100
AcDbEntity
  8
0
100
AcDbLine
 10
-273.1197539671848
 20
-577.0535641876631
 30
0.0
 11
-271.0166636809372
 21
-577.0535641876631
 31
0.0
  0
LINE
  5
33DC7
330
2678E
100
AcDbEntity
  8
0
100
AcDbLine
 10
-268.6168018683384
 20
-545.0536185470991
 30
0.0
 11
-273.1197539671848
 21
-545.0536185470991
 31
0.0
  0
LINE
  5
33DC8
330
2678E
100
AcDbEntity
  8
0
100
AcDbLine
 10
234.8802541390396
 20
-545.0535990083953
 30
0.0
 11
-268.6168018683384
 21
-545.0536185470991
 31
0.0
  0
ARC
  5
33DC9
330
2678E
100
AcDbEntity
  8
0
100
AcDbCircle
 10
234.8802541390396
 20
-642.0535990083954
 30
0.0
 40
65.0000000000006
100
AcDbArc
 50
0.0
 51
90.0
  0
ARC
  5
33DCA
330
2678E
100
AcDbEntity
  8
0
100
AcDbCircle
 10
234.8802541390396
 20
-642.0535990083954
 30
0.0
 40
96.99999999999995
100
AcDbArc
 50
0.0
 51
90.0
  0
ARC
  5
33DCB
330
2678E
100
AcDbEntity
  8
0
100
AcDbCircle
 10
-273.1197458609531
 20
-642.0535990083954
 30
0.0
 40
65.00000000000003
100
AcDbArc
 50
90.0
 51
180.0
  0
ARC
  5
33DCC
330
2678E
100
AcDbEntity
  8
0
100
AcDbCircle
 10
-273.1197458609531
 20
-642.0535990083954
 30
0.0
 40
96.99999999999995
100
AcDbArc
 50
90.0
 51
180.0
  0
LINE
  5
33DCD
330
2678E
100
AcDbEntity
  8
0
100
AcDbLine
 10
299.8802598610928
 20
-642.0536214081221
 30
0.0
 11
299.8802598610928
 21
-706.0536318985396
 31
0.0
  0
LINE
  5
33DCE
330
2678E
100
AcDbEntity
  8
0
100
AcDbLine
 10
299.8802598610928
 20
-756.0535842148238
 30
0.0
 11
299.8802598610928
 21
-759.0536051956587
 31
0.0
  0
LINE
  5
33DCF
330
2678E
100
AcDbEntity
  8
0
100
AcDbLine
 10
331.8802651062942
 20
-759.0536051956587
 30
0.0
 11
331.8802651062942
 21
-756.0535842148238
 31
0.0
  0
LINE
  5
33DD0
330
2678E
100
AcDbEntity
  8
0
100
AcDbLine
 10
331.8802651062942
 20
-706.0536318985396
 30
0.0
 11
331.8802651062942
 21
-642.0536214081221
 31
0.0
  0
LINE
  5
33DD1
330
2678E
100
AcDbEntity
  8
0
100
AcDbLine
 10
-338.1197515830063
 20
-759.0536051956587
 30
0.0
 11
-338.1197515830063
 21
-756.0535842148238
 31
0.0
  0
LINE
  5
33DD2
330
2678E
100
AcDbEntity
  8
0
100
AcDbLine
 10
-338.1197515830063
 20
-706.0536318985396
 30
0.0
 11
-338.1197515830063
 21
-642.0536214081221
 31
0.0
  0
LINE
  5
33DD3
330
2678E
100
AcDbEntity
  8
0
100
AcDbLine
 10
-370.1197568282077
 20
-642.0536214081221
 30
0.0
 11
-370.1197568282077
 21
-706.0536318985396
 31
0.0
  0
LINE
  5
33DD4
330
2678E
100
AcDbEntity
  8
0
100
AcDbLine
 10
-370.1197568282077
 20
-756.0535842148238
 30
0.0
 11
-370.1197568282077
 21
-759.0536051956587
 31
0.0
  0
ARC
  5
33DD5
330
2678E
100
AcDbEntity
  8
0
100
AcDbCircle
 10
-368.1197458609531
 20
-759.0535990083954
 30
0.0
 40
2.000000000000455
100
AcDbArc
 50
180.0
 51
270.0
  0
ARC
  5
33DD6
330
2678E
100
AcDbEntity
  8
0
100
AcDbCircle
 10
-340.1197458609604
 20
-759.0535990083954
 30
0.0
 40
2.000000000000455
100
AcDbArc
 50
270.0
 51
0.0
  0
ARC
  5
33DD7
330
2678E
100
AcDbEntity
  8
0
100
AcDbCircle
 10
329.8802541390396
 20
-759.0535990083954
 30
0.0
 40
2.000000000000455
100
AcDbArc
 50
270.0
 51
0.0
  0
ARC
  5
33DD8
330
2678E
100
AcDbEntity
  8
0
100
AcDbCircle
 10
301.8802541390469
 20
-759.0535990083954
 30
0.0
 40
2.000000000000455
100
AcDbArc
 50
180.0
 51
270.0
  0
LINE
  5
33DD9
330
2678E
100
AcDbEntity
  8
0
100
AcDbLine
 10
562.3508628502786
 20
-942.5535374847823
 30
0.0
 11
146.3639672890604
 21
-942.5535374847823
 31
0.0
  0
LINE
  5
33DDA
330
2678E
100
AcDbEntity
  8
0
100
AcDbLine
 10
115.3964337006582
 20
-942.5535374847823
 30
0.0
 11
-153.6360297307074
 21
-942.5535374847823
 31
0.0
  0
LINE
  5
33DDB
330
2678E
100
AcDbEntity
  8
0
100
AcDbLine
 10
578.8941916123331
 20
-942.5535374847823
 30
0.0
 11
562.3508628502786
 21
-942.5535374847823
 31
0.0
  0
LINE
  5
33DDC
330
2678E
100
AcDbEntity
  8
0
100
AcDbLine
 10
565.2737554207742
 20
-974.5536023346359
 30
0.0
 11
578.8941916123331
 21
-974.5536023346359
 31
0.0
  0
LINE
  5
33DDD
330
2678E
100
AcDbEntity
  8
0
100
AcDbLine
 10
-463.6745218142569
 20
-974.5536023346359
 30
0.0
 11
565.2737554207742
 21
-974.5536023346359
 31
0.0
  0
LINE
  5
33DDE
330
2678E
100
AcDbEntity
  8
0
100
AcDbLine
 10
-617.1336833342611
 20
-974.5536023346359
 30
0.0
 11
-463.6745218142569
 21
-974.5536023346359
 31
0.0
  0
LINE
  5
33DDF
330
2678E
100
AcDbEntity
  8
0
100
AcDbLine
 10
-460.7753220900595
 20
-942.5535374847823
 30
0.0
 11
-617.1336833342611
 21
-942.5535374847823
 31
0.0
  0
LINE
  5
33DE0
330
2678E
100
AcDbEntity
  8
0
100
AcDbLine
 10
-184.6035633191168
 20
-942.5535374847823
 30
0.0
 11
-460.7753220900595
 21
-942.5535374847823
 31
0.0
  0
SPLINE
  5
33DE1
330
2678E
100
AcDbEntity
  8
0
100
AcDbSpline
210
0.0
220
0.0
230
1.0
 70
     8
 71
     3
 72
    20
 73
    16
 74
     0
 42
0.000000001
 43
0.0000000001
 40
0.0
 40
0.0
 40
0.0
 40
0.0
 40
0.0389453256719785
 40
0.1009174783557411
 40
0.1638352975181659
 40
0.2346273921887872
 40
0.3203116875506333
 40
0.4210499670922221
 40
0.5212544141621099
 40
0.6176241948909376
 40
0.7117397276806964
 40
0.8046449789223821
 40
0.896854905286975
 40
0.9838199616242858
 40
0.9999999999999998
 40
0.9999999999999998
 40
0.9999999999999998
 40
0.9999999999999998
 10
-617.1400610312521
 20
-942.5947838989669
 30
0.0
 10
-617.3392162575801
 20
-942.5909054303046
 30
0.0
 10
-617.8552792997034
 20
-942.5808553082534
 30
0.0
 10
-618.6197877468402
 20
-942.9096904873514
 30
0.0
 10
-619.3555269621974
 20
-943.4407283820474
 30
0.0
 10
-620.0012520220516
 20
-944.1836061607755
 30
0.0
 10
-620.6068058127893
 20
-945.1914448986281
 30
0.0
 10
-621.1658996408623
 20
-946.5231341137696
 30
0.0
 10
-621.6543113682746
 20
-948.1485540782378
 30
0.0
 10
-622.0503530039386
 20
-949.9587511486534
 30
0.0
 10
-622.3576125132858
 20
-951.9055960528712
 30
0.0
 10
-622.5798883089992
 20
-953.9640750460385
 30
0.0
 10
-622.7149310040222
 20
-956.0647743165464
 30
0.0
 10
-622.7550953206992
 20
-957.6093209249375
 30
0.0
 10
-622.7568654722745
 20
-958.4255333057299
 30
0.0
 10
-622.7571431502401
 20
-958.5535699097091
 30
0.0
  0
SPLINE
  5
33DE2
330
2678E
100
AcDbEntity
  8
0
100
AcDbSpline
210
0.0
220
0.0
230
1.0
 70
     8
 71
     3
 72
    20
 73
    16
 74
     0
 42
0.000000001
 43
0.0000000001
 40
0.0
 40
0.0
 40
0.0
 40
0.0
 40
0.0481011297810692
 40
0.1396786999232857
 40
0.2314531693829084
 40
0.3236102246809421
 40
0.4164297848121393
 40
0.5104000228288034
 40
0.6063593741900111
 40
0.7059313994826199
 40
0.796578792528751
 40
0.8676577276783177
 40
0.9308610026772125
 40
0.9911541495263859
 40
1.0
 40
1.0
 40
1.0
 40
1.0
 10
-622.7571431502401
 20
-958.5535699097091
 30
0.0
 10
-622.7548143535131
 20
-958.9348874353454
 30
0.0
 10
-622.7480518658085
 20
-960.0421781888362
 30
0.0
 10
-622.6720611512246
 20
-961.8633948622591
 30
0.0
 10
-622.502747971801
 20
-963.9610260286062
 30
0.0
 10
-622.250574113761
 20
-965.955292565326
 30
0.0
 10
-621.9184299503358
 20
-967.8117655129463
 30
0.0
 10
-621.5054964400223
 20
-969.5041751803364
 30
0.0
 10
-621.003428811262
 20
-971.0169425347922
 30
0.0
 10
-620.4152423913074
 20
-972.2848870049929
 30
0.0
 10
-619.7533847730701
 20
-973.2535475650511
 30
0.0
 10
-619.0095656154335
 20
-973.963428141309
 30
0.0
 10
-618.1839064166597
 20
-974.392704831167
 30
0.0
 10
-617.5097472970337
 20
-974.5909621531682
 30
0.0
 10
-617.1635522427496
 20
-974.540930099196
 30
0.0
 10
-617.1192590102255
 20
-974.5345288483077
 30
0.0
  0
SPLINE
  5
33DE3
330
2678E
100
AcDbEntity
  8
0
100
AcDbSpline
210
0.0
220
0.0
230
1.0
 70
     8
 71
     3
 72
    20
 73
    16
 74
     0
 42
0.000000001
 43
0.0000000001
 40
0.0
 40
0.0
 40
0.0
 40
0.0
 40
0.0389449863168536
 40
0.1009190920857193
 40
0.1638367123484337
 40
0.2346243354247876
 40
0.3203133511091341
 40
0.4210513121906286
 40
0.5212554424880065
 40
0.6176249185667092
 40
0.7117401538326114
 40
0.8046357874245156
 40
0.8968551874413604
 40
0.983809970843655
 40
0.9999999999999998
 40
0.9999999999999998
 40
0.9999999999999998
 40
0.9999999999999998
 10
578.900569309324
 20
-974.5123559204513
 30
0.0
 10
579.0997262003547
 20
-974.5163421570032
 30
0.0
 10
579.6158063052899
 20
-974.5266717889244
 30
0.0
 10
580.3802787661298
 20
-974.1973503790795
 30
0.0
 10
581.1160099474254
 20
-973.6663886938041
 30
0.0
 10
581.7618117594865
 20
-972.9238671140846
 30
0.0
 10
582.3672815810096
 20
-971.9156100097098
 30
0.0
 10
582.9264145802117
 20
-970.5840367249402
 30
0.0
 10
583.4148173018948
 20
-968.9585769272817
 30
0.0
 10
583.8108641355902
 20
-967.148393993877
 30
0.0
 10
584.118101782773
 20
-965.2015953484369
 30
0.0
 10
584.3404231235945
 20
-963.1431765381639
 30
0.0
 10
584.4754217197587
 20
-961.0425105629255
 30
0.0
 10
584.5156069422046
 20
-959.4978992614851
 30
0.0
 10
584.5173740550926
 20
-958.6816860534819
 30
0.0
 10
584.5176514283121
 20
-958.5535699097091
 30
0.0
  0
SPLINE
  5
33DE4
330
2678E
100
AcDbEntity
  8
0
100
AcDbSpline
210
0.0
220
0.0
230
1.0
 70
     8
 71
     3
 72
    20
 73
    16
 74
     0
 42
0.000000001
 43
0.0000000001
 40
0.0
 40
0.0
 40
0.0
 40
0.0
 40
0.0481013392462339
 40
0.1396793081797239
 40
0.2314541772880542
 40
0.323602548456014
 40
0.4164225127869571
 40
0.5103931600142047
 40
0.6063595368151674
 40
0.7059319957123666
 40
0.7965750795566137
 40
0.8676543242323997
 40
0.9308607015988069
 40
0.9911541110055127
 40
1.0
 40
1.0
 40
1.0
 40
1.0
 10
584.5176514283121
 20
-958.5535699097091
 30
0.0
 10
584.5153227139635
 20
-958.1722522400232
 30
0.0
 10
584.5085604654559
 20
-957.0649610682304
 30
0.0
 10
584.4325666943514
 20
-955.2437497399806
 30
0.0
 10
584.2632719177163
 20
-953.1461653285369
 30
0.0
 10
584.0110624334665
 20
-951.1520425596609
 30
0.0
 10
583.6789436113358
 20
-949.2955970568655
 30
0.0
 10
583.2659825413029
 20
-947.6032095829722
 30
0.0
 10
582.763959577951
 20
-946.0901943732023
 30
0.0
 10
582.1757715022431
 20
-944.8222182975879
 30
0.0
 10
581.5138746233096
 20
-943.8538304789473
 30
0.0
 10
580.770050413932
 20
-943.1440238817158
 30
0.0
 10
579.944440761199
 20
-942.7143636542533
 30
0.0
 10
579.2702552606534
 20
-942.5161797034016
 30
0.0
 10
578.9240604851547
 20
-942.5662099512919
 30
0.0
 10
578.8797672882974
 20
-942.5726109711105
 30
0.0
  0
ARC
  5
33DE5
330
2678E
100
AcDbEntity
  8
0
100
AcDbCircle
 10
116.8802541390469
 20
-703.0535990084026
 30
0.0
 40
1.999999999999887
100
AcDbArc
 50
90.0
 51
180.0
  0
ARC
  5
33DE6
330
2678E
100
AcDbEntity
  8
0
100
AcDbCircle
 10
144.8802541390396
 20
-703.0535990084026
 30
0.0
 40
2.000000000000455
100
AcDbArc
 50
0.0
 51
90.0
  0
LINE
  5
33DE7
330
2678E
100
AcDbEntity
  8
0
100
AcDbLine
 10
146.8802478209509
 20
-942.0535737244064
 30
0.0
 11
146.8802478209545
 21
-756.0535842148238
 31
0.0
  0
LINE
  5
33DE8
330
2678E
100
AcDbEntity
  8
0
100
AcDbLine
 10
146.8802478209545
 20
-706.0536318985396
 30
0.0
 11
146.8802478209545
 21
-703.0536109177046
 31
0.0
  0
LINE
  5
33DE9
330
2678E
100
AcDbEntity
  8
0
100
AcDbLine
 10
114.880257476907
 20
-703.0536109177046
 30
0.0
 11
114.880257476907
 21
-706.0536318985396
 31
0.0
  0
LINE
  5
33DEA
330
2678E
100
AcDbEntity
  8
0
100
AcDbLine
 10
114.880257476907
 20
-756.0535842148238
 30
0.0
 11
114.8802574769033
 21
-942.0535737244064
 31
0.0
  0
LINE
  5
33DEB
330
2678E
100
AcDbEntity
  8
0
100
AcDbLine
 10
-153.1197491988241
 20
-942.0535737244064
 30
0.0
 11
-153.1197491988205
 21
-756.0535842148238
 31
0.0
  0
LINE
  5
33DEC
330
2678E
100
AcDbEntity
  8
0
100
AcDbLine
 10
-153.1197491988205
 20
-706.0536318985396
 30
0.0
 11
-153.1197491988205
 21
-703.0536109177046
 31
0.0
  0
LINE
  5
33DED
330
2678E
100
AcDbEntity
  8
0
100
AcDbLine
 10
-185.119739542868
 20
-703.0536109177046
 30
0.0
 11
-185.119739542868
 21
-706.0536318985396
 31
0.0
  0
LINE
  5
33DEE
330
2678E
100
AcDbEntity
  8
0
100
AcDbLine
 10
-185.119739542868
 20
-756.0535842148238
 30
0.0
 11
-185.1197395428717
 21
-942.0535737244064
 31
0.0
  0
ARC
  5
33DEF
330
2678E
100
AcDbEntity
  8
0
100
AcDbCircle
 10
-183.1197458609531
 20
-703.0535990084026
 30
0.0
 40
1.999999999999887
100
AcDbArc
 50
90.0
 51
180.0
  0
ARC
  5
33DF0
330
2678E
100
AcDbEntity
  8
0
100
AcDbCircle
 10
-155.1197458609604
 20
-703.0535990084026
 30
0.0
 40
1.999999999999887
100
AcDbArc
 50
0.0
 51
90.0
  0
ARC
  5
33DF1
330
2678E
100
AcDbEntity
  8
0
100
AcDbCircle
 10
-768.1197458609603
 20
-426.803599008388
 30
0.0
 40
1.000000000000227
100
AcDbArc
 50
0.0
 51
90.0
  0
LINE
  5
33DF2
330
2678E
100
AcDbEntity
  8
0
100
AcDbLine
 10
-768.1197587355637
 20
-425.8035594192915
 30
0.0
 11
-771.1197201117538
 21
-425.8035594192915
 31
0.0
  0
ARC
  5
33DF3
330
2678E
100
AcDbEntity
  8
0
100
AcDbCircle
 10
-771.1197458609603
 20
-426.803599008388
 30
0.0
 40
1.000000000000227
100
AcDbArc
 50
90.0
 51
180.0
  0
ARC
  5
33DF4
330
2678E
100
AcDbEntity
  8
0
100
AcDbCircle
 10
-771.1197458609603
 20
-484.803599008388
 30
0.0
 40
1.000000000000227
100
AcDbArc
 50
180.0
 51
270.0
  0
ARC
  5
33DF5
330
2678E
100
AcDbEntity
  8
0
100
AcDbCircle
 10
-768.1197458609603
 20
-484.803599008388
 30
0.0
 40
1.000000000000796
100
AcDbArc
 50
270.0
 51
0.0
  0
LINE
  5
33DF6
330
2678E
100
AcDbEntity
  8
0
100
AcDbLine
 10
-771.1197201117538
 20
-485.8036214081221
 30
0.0
 11
-768.1197587355637
 21
-485.8036214081221
 31
0.0
  0
LINE
  5
33DF7
330
2678E
100
AcDbEntity
  8
0
100
AcDbLine
 10
729.8802670136429
 20
-486.0536032883101
 30
0.0
 11
732.8802283898331
 21
-486.0536032883101
 31
0.0
  0
ARC
  5
33DF8
330
2678E
100
AcDbEntity
  8
0
100
AcDbCircle
 10
732.8802541390468
 20
-485.0535990083954
 30
0.0
 40
1.000000000000227
100
AcDbArc
 50
270.0
 51
0.0
  0
ARC
  5
33DF9
330
2678E
100
AcDbEntity
  8
0
100
AcDbCircle
 10
729.8802541390468
 20
-485.0535990083954
 30
0.0
 40
1.000000000001364
100
AcDbArc
 50
180.0
 51
270.0
  0
LINE
  5
33DFA
330
2678E
100
AcDbEntity
  8
0
100
AcDbLine
 10
-771.1197201117538
 20
-486.0536032883101
 30
0.0
 11
-768.1197587355637
 21
-486.0536032883101
 31
0.0
  0
ARC
  5
33DFB
330
2678E
100
AcDbEntity
  8
0
100
AcDbCircle
 10
-768.1197458609531
 20
-485.0535990083954
 30
0.0
 40
1.000000000000227
100
AcDbArc
 50
270.0
 51
0.0
  0
ARC
  5
33DFC
330
2678E
100
AcDbEntity
  8
0
100
AcDbCircle
 10
-771.1197458609531
 20
-485.0535990083954
 30
0.0
 40
1.000000000000227
100
AcDbArc
 50
180.0
 51
270.0
  0
LINE
  5
33DFD
330
2678E
100
AcDbEntity
  8
0
100
AcDbLine
 10
732.8802283898331
 20
-425.8035594192915
 30
0.0
 11
729.8802670136429
 21
-425.8035594192915
 31
0.0
  0
ARC
  5
33DFE
330
2678E
100
AcDbEntity
  8
0
100
AcDbCircle
 10
729.8802541390468
 20
-426.803599008388
 30
0.0
 40
1.000000000000227
100
AcDbArc
 50
90.0
 51
180.0
  0
ARC
  5
33DFF
330
2678E
100
AcDbEntity
  8
0
100
AcDbCircle
 10
732.8802541390468
 20
-426.803599008388
 30
0.0
 40
1.000000000000227
100
AcDbArc
 50
0.0
 51
90.0
  0
ARC
  5
33E00
330
2678E
100
AcDbEntity
  8
0
100
AcDbCircle
 10
729.8802541390468
 20
-484.803599008388
 30
0.0
 40
1.000000000001364
100
AcDbArc
 50
180.0
 51
270.0
  0
ARC
  5
33E01
330
2678E
100
AcDbEntity
  8
0
100
AcDbCircle
 10
732.8802541390468
 20
-484.803599008388
 30
0.0
 40
0.9999999999996594
100
AcDbArc
 50
270.0
 51
0.0
  0
LINE
  5
33E02
330
2678E
100
AcDbEntity
  8
0
100
AcDbLine
 10
729.8802670136429
 20
-485.8036214081221
 30
0.0
 11
732.8802283898331
 21
-485.8036214081221
 31
0.0
  0
LINE
  5
33E03
330
2678E
100
AcDbEntity
  8
0
100
AcDbLine
 10
-757.8447458609589
 20
-218.5535603729659
 30
0.0
 11
-662.1197525366806
 21
-218.5535603729659
 31
0.0
  0
LINE
  5
33E04
330
2678E
100
AcDbEntity
  8
0
100
AcDbLine
 10
623.8802608147598
 20
31.44643962703412
 30
0.0
 11
719.6052541390454
 21
31.44643962703412
 31
0.0
  0
LINE
  5
33E05
330
2678E
100
AcDbEntity
  8
0
100
AcDbLine
 10
-765.1197377547214
 20
-468.5535603729658
 30
0.0
 11
-662.1197525366806
 21
-468.5535603729658
 31
0.0
  0
LINE
  5
33E06
330
2678E
100
AcDbEntity
  8
0
100
AcDbLine
 10
-767.1197716101596
 20
-466.5535861221724
 30
0.0
 11
-765.1197377547214
 21
-468.5535603729658
 31
0.0
  0
LINE
  5
33E07
330
2678E
100
AcDbEntity
  8
0
100
AcDbLine
 10
623.8802608147598
 20
-218.5535603729659
 30
0.0
 11
719.6052541390454
 21
-218.5535603729659
 31
0.0
  0
LINE
  5
33E08
330
2678E
100
AcDbEntity
  8
0
100
AcDbLine
 10
623.8802608147598
 20
-468.5535603729658
 30
0.0
 11
726.8802460328079
 21
-468.5535603729658
 31
0.0
  0
LINE
  5
33E09
330
2678E
100
AcDbEntity
  8
0
100
AcDbLine
 10
726.8802460328079
 20
-468.5535603729658
 30
0.0
 11
728.8802798882461
 21
-466.5535861221724
 31
0.0
  0
LINE
  5
33E0A
330
2678E
100
AcDbEntity
  8
0
100
AcDbLine
 10
-757.8447458609589
 20
31.44643962703412
 30
0.0
 11
-662.1197525366806
 21
31.44643962703412
 31
0.0
  0
LINE
  5
33E0B
330
2678E
100
AcDbEntity
  8
0
100
AcDbLine
 10
583.8802393570877
 20
-703.5535746780806
 30
0.0
 11
584.8802264824844
 21
-703.5535746780806
 31
0.0
  0
LINE
  5
33E0C
330
2678E
100
AcDbEntity
  8
0
100
AcDbLine
 10
584.8802264824844
 20
-678.5535985199385
 30
0.0
 11
583.8802393570877
 21
-678.5535985199385
 31
0.0
  0
LINE
  5
33E0D
330
2678E
100
AcDbEntity
  8
0
100
AcDbLine
 10
588.8802345887161
 20
-701.5536004272871
 30
0.0
 11
589.8802813187576
 21
-700.5535536972456
 31
0.0
  0
LINE
  5
33E0E
330
2678E
100
AcDbEntity
  8
0
100
AcDbLine
 10
589.8802813187576
 20
-681.5536195007735
 30
0.0
 11
588.8802345887161
 21
-680.553572770732
 31
0.0
  0
LINE
  5
33E0F
330
2678E
100
AcDbEntity
  8
0
100
AcDbLine
 10
523.8802369729019
 20
-680.553572770732
 30
0.0
 11
522.8802498475052
 21
-681.5536195007735
 31
0.0
  0
LINE
  5
33E10
330
2678E
100
AcDbEntity
  8
0
100
AcDbLine
 10
522.8802498475052
 20
-700.5535536972456
 30
0.0
 11
523.8802369729019
 21
-701.5536004272871
 31
0.0
  0
LINE
  5
33E11
330
2678E
100
AcDbEntity
  8
0
100
AcDbLine
 10
583.8802393570877
 20
-783.5536175934248
 30
0.0
 11
584.8802264824844
 21
-783.5536175934248
 31
0.0
  0
LINE
  5
33E12
330
2678E
100
AcDbEntity
  8
0
100
AcDbLine
 10
584.8802264824844
 20
-758.5536414352827
 30
0.0
 11
583.8802393570877
 21
-758.5536414352827
 31
0.0
  0
LINE
  5
33E13
330
2678E
100
AcDbEntity
  8
0
100
AcDbLine
 10
523.8802369729019
 20
-760.5536156860762
 30
0.0
 11
522.8802498475052
 21
-761.5535432068281
 31
0.0
  0
LINE
  5
33E14
330
2678E
100
AcDbEntity
  8
0
100
AcDbLine
 10
522.8802498475052
 20
-780.5535966125899
 30
0.0
 11
523.8802369729019
 21
-781.5536433426314
 31
0.0
  0
LINE
  5
33E15
330
2678E
100
AcDbEntity
  8
0
100
AcDbLine
 10
588.8802345887161
 20
-781.5536433426314
 30
0.0
 11
589.8802813187576
 21
-780.5535966125899
 31
0.0
  0
LINE
  5
33E16
330
2678E
100
AcDbEntity
  8
0
100
AcDbLine
 10
589.8802813187576
 20
-761.5535432068281
 30
0.0
 11
588.8802345887161
 21
-760.5536156860762
 31
0.0
  0
LINE
  5
33E17
330
2678E
100
AcDbEntity
  8
0
100
AcDbLine
 10
583.8802393570877
 20
346.4463776382036
 30
0.0
 11
584.8802264824844
 21
346.4463776382036
 31
0.0
  0
LINE
  5
33E18
330
2678E
100
AcDbEntity
  8
0
100
AcDbLine
 10
584.8802264824844
 20
371.4464134009904
 30
0.0
 11
583.8802393570877
 21
371.4464134009904
 31
0.0
  0
LINE
  5
33E19
330
2678E
100
AcDbEntity
  8
0
100
AcDbLine
 10
523.8802369729019
 20
369.4463795455522
 30
0.0
 11
522.8802498475052
 21
368.4463924201555
 31
0.0
  0
LINE
  5
33E1A
330
2678E
100
AcDbEntity
  8
0
100
AcDbLine
 10
522.8802498475052
 20
349.4463986190385
 30
0.0
 11
523.8802369729019
 21
348.4464114936418
 31
0.0
  0
LINE
  5
33E1B
330
2678E
100
AcDbEntity
  8
0
100
AcDbLine
 10
588.8802345887161
 20
348.4464114936418
 30
0.0
 11
589.8802813187576
 21
349.4463986190385
 31
0.0
  0
LINE
  5
33E1C
330
2678E
100
AcDbEntity
  8
0
100
AcDbLine
 10
589.8802813187576
 20
368.4463924201555
 30
0.0
 11
588.8802345887161
 21
369.4463795455522
 31
0.0
  0
LINE
  5
33E1D
330
2678E
100
AcDbEntity
  8
0
100
AcDbLine
 10
583.8802393570877
 20
266.4463943275041
 30
0.0
 11
584.8802264824844
 21
266.4463943275041
 31
0.0
  0
LINE
  5
33E1E
330
2678E
100
AcDbEntity
  8
0
100
AcDbLine
 10
584.8802264824844
 20
291.446430090291
 30
0.0
 11
583.8802393570877
 21
291.446430090291
 31
0.0
  0
LINE
  5
33E1F
330
2678E
100
AcDbEntity
  8
0
100
AcDbLine
 10
523.8802369729019
 20
289.4463962348527
 30
0.0
 11
522.8802498475052
 21
288.446409109456
 31
0.0
  0
LINE
  5
33E20
330
2678E
100
AcDbEntity
  8
0
100
AcDbLine
 10
522.8802498475052
 20
269.4464153083391
 30
0.0
 11
523.8802369729019
 21
268.4464281829423
 31
0.0
  0
LINE
  5
33E21
330
2678E
100
AcDbEntity
  8
0
100
AcDbLine
 10
588.8802345887161
 20
268.4464281829423
 30
0.0
 11
589.8802813187576
 21
269.4464153083391
 31
0.0
  0
LINE
  5
33E22
330
2678E
100
AcDbEntity
  8
0
100
AcDbLine
 10
589.8802813187576
 20
288.446409109456
 30
0.0
 11
588.8802345887161
 21
289.4463962348527
 31
0.0
  0
LINE
  5
33E23
330
2678E
100
AcDbEntity
  8
0
100
AcDbLine
 10
-562.1197286948154
 20
348.4464114936418
 30
0.0
 11
-561.119741569426
 21
349.4463986190385
 31
0.0
  0
LINE
  5
33E24
330
2678E
100
AcDbEntity
  8
0
100
AcDbLine
 10
-561.119741569426
 20
368.4463924201555
 30
0.0
 11
-562.1197286948154
 21
369.4463795455522
 31
0.0
  0
LINE
  5
33E25
330
2678E
100
AcDbEntity
  8
0
100
AcDbLine
 10
-622.1197310790085
 20
371.4464134009904
 30
0.0
 11
-623.1197182043979
 21
371.4464134009904
 31
0.0
  0
LINE
  5
33E26
330
2678E
100
AcDbEntity
  8
0
100
AcDbLine
 10
-623.1197182043979
 20
346.4463776382036
 30
0.0
 11
-622.1197310790085
 21
346.4463776382036
 31
0.0
  0
LINE
  5
33E27
330
2678E
100
AcDbEntity
  8
0
100
AcDbLine
 10
-627.1197263106369
 20
369.4463795455522
 30
0.0
 11
-628.1197730406784
 21
368.4463924201555
 31
0.0
  0
LINE
  5
33E28
330
2678E
100
AcDbEntity
  8
0
100
AcDbLine
 10
-628.1197730406784
 20
349.4463986190385
 30
0.0
 11
-627.1197263106369
 21
348.4464114936418
 31
0.0
  0
LINE
  5
33E29
330
2678E
100
AcDbEntity
  8
0
100
AcDbLine
 10
-622.1197310790085
 20
291.446430090291
 30
0.0
 11
-623.1197182043979
 21
291.446430090291
 31
0.0
  0
LINE
  5
33E2A
330
2678E
100
AcDbEntity
  8
0
100
AcDbLine
 10
-623.1197182043979
 20
266.4463943275041
 30
0.0
 11
-622.1197310790085
 21
266.4463943275041
 31
0.0
  0
LINE
  5
33E2B
330
2678E
100
AcDbEntity
  8
0
100
AcDbLine
 10
-627.1197263106369
 20
289.4463962348527
 30
0.0
 11
-628.1197730406784
 21
288.446409109456
 31
0.0
  0
LINE
  5
33E2C
330
2678E
100
AcDbEntity
  8
0
100
AcDbLine
 10
-628.1197730406784
 20
269.4464153083391
 30
0.0
 11
-627.1197263106369
 21
268.4464281829423
 31
0.0
  0
LINE
  5
33E2D
330
2678E
100
AcDbEntity
  8
0
100
AcDbLine
 10
-562.1197286948154
 20
268.4464281829423
 30
0.0
 11
-561.119741569426
 21
269.4464153083391
 31
0.0
  0
LINE
  5
33E2E
330
2678E
100
AcDbEntity
  8
0
100
AcDbLine
 10
-561.119741569426
 20
288.446409109456
 30
0.0
 11
-562.1197286948154
 21
289.4463962348527
 31
0.0
  0
LINE
  5
33E2F
330
2678E
100
AcDbEntity
  8
0
100
AcDbLine
 10
-622.1197310790085
 20
-678.5535985199385
 30
0.0
 11
-623.1197182043979
 21
-678.5535985199385
 31
0.0
  0
LINE
  5
33E30
330
2678E
100
AcDbEntity
  8
0
100
AcDbLine
 10
-623.1197182043979
 20
-703.5535746780806
 30
0.0
 11
-622.1197310790085
 21
-703.5535746780806
 31
0.0
  0
LINE
  5
33E31
330
2678E
100
AcDbEntity
  8
0
100
AcDbLine
 10
-562.1197286948154
 20
-701.5536004272871
 30
0.0
 11
-561.119741569426
 21
-700.5535536972456
 31
0.0
  0
LINE
  5
33E32
330
2678E
100
AcDbEntity
  8
0
100
AcDbLine
 10
-561.119741569426
 20
-681.5536195007735
 30
0.0
 11
-562.1197286948154
 21
-680.553572770732
 31
0.0
  0
LINE
  5
33E33
330
2678E
100
AcDbEntity
  8
0
100
AcDbLine
 10
-627.1197263106369
 20
-680.553572770732
 30
0.0
 11
-628.1197730406784
 21
-681.5536195007735
 31
0.0
  0
LINE
  5
33E34
330
2678E
100
AcDbEntity
  8
0
100
AcDbLine
 10
-628.1197730406784
 20
-700.5535536972456
 30
0.0
 11
-627.1197263106369
 21
-701.5536004272871
 31
0.0
  0
LINE
  5
33E35
330
2678E
100
AcDbEntity
  8
0
100
AcDbLine
 10
-562.1197286948154
 20
-781.5536433426314
 30
0.0
 11
-561.119741569426
 21
-780.5535966125899
 31
0.0
  0
LINE
  5
33E36
330
2678E
100
AcDbEntity
  8
0
100
AcDbLine
 10
-561.119741569426
 20
-761.5535432068281
 30
0.0
 11
-562.1197286948154
 21
-760.5536156860762
 31
0.0
  0
LINE
  5
33E37
330
2678E
100
AcDbEntity
  8
0
100
AcDbLine
 10
-622.1197310790085
 20
-758.5536414352827
 30
0.0
 11
-623.1197182043979
 21
-758.5536414352827
 31
0.0
  0
LINE
  5
33E38
330
2678E
100
AcDbEntity
  8
0
100
AcDbLine
 10
-623.1197182043979
 20
-783.5536175934248
 30
0.0
 11
-622.1197310790085
 21
-783.5536175934248
 31
0.0
  0
LINE
  5
33E39
330
2678E
100
AcDbEntity
  8
0
100
AcDbLine
 10
-627.1197263106369
 20
-760.5536156860762
 30
0.0
 11
-628.1197730406784
 21
-761.5535432068281
 31
0.0
  0
LINE
  5
33E3A
330
2678E
100
AcDbEntity
  8
0
100
AcDbLine
 10
-628.1197730406784
 20
-780.5535966125899
 30
0.0
 11
-627.1197263106369
 21
-781.5536433426314
 31
0.0
  0
CIRCLE
  5
33E3B
330
2678E
100
AcDbEntity
  8
0
100
AcDbCircle
 10
553.8802541390396
 20
1083.946400991612
 30
0.0
 40
35.13135349057419
  0
CIRCLE
  5
33E3C
330
2678E
100
AcDbEntity
  8
0
100
AcDbCircle
 10
-592.1197458609531
 20
1083.946400991612
 30
0.0
 40
35.13135349057484
  0
LINE
  5
33E3D
330
2678E
100
AcDbEntity
  8
0
100
AcDbLine
 10
-765.1197377547214
 20
-443.3036023346358
 30
0.0
 11
-765.1197377547214
 21
-468.5535603729658
 31
0.0
  0
LINE
  5
33E3E
330
2678E
100
AcDbEntity
  8
0
100
AcDbLine
 10
726.8802460328079
 20
-468.5535603729658
 30
0.0
 11
726.8802460328079
 21
-443.3036023346358
 31
0.0
  0
LINE
  5
33E3F
330
2678E
100
AcDbEntity
  8
0
100
AcDbLine
 10
575.8802827492691
 20
237.9463738235063
 30
0.0
 11
575.8802827492691
 21
-127.7808266107458
 31
0.0
  0
LINE
  5
33E40
330
2678E
100
AcDbEntity
  8
0
100
AcDbLine
 10
575.8802827492691
 20
-157.7808266107458
 30
0.0
 11
575.8802827492691
 21
-649.5535546509199
 31
0.0
  0
LINE
  5
33E41
330
2678E
100
AcDbEntity
  8
0
100
AcDbLine
 10
578.8802441254593
 20
237.9463738235063
 30
0.0
 11
578.8802441254666
 21
-127.7808266107458
 31
0.0
  0
LINE
  5
33E42
330
2678E
100
AcDbEntity
  8
0
100
AcDbLine
 10
578.8802441254666
 20
-157.7808266107458
 30
0.0
 11
578.8802441254593
 21
-649.5535546509199
 31
0.0
  0
LINE
  5
33E43
330
2678E
100
AcDbEntity
  8
0
100
AcDbLine
 10
528.8802322045303
 20
237.9463738235063
 30
0.0
 11
528.8802322045376
 21
-127.7808266107458
 31
0.0
  0
LINE
  5
33E44
330
2678E
100
AcDbEntity
  8
0
100
AcDbLine
 10
528.8802322045376
 20
-157.7808266107458
 30
0.0
 11
528.8802322045303
 21
-649.5535546509199
 31
0.0
  0
LINE
  5
33E45
330
2678E
100
AcDbEntity
  8
0
100
AcDbLine
 10
531.8802531853653
 20
237.9463738235063
 30
0.0
 11
531.8802531853726
 21
-127.7808266107458
 31
0.0
  0
LINE
  5
33E46
330
2678E
100
AcDbEntity
  8
0
100
AcDbLine
 10
531.8802531853726
 20
-157.7808266107458
 30
0.0
 11
531.8802531853653
 21
-649.5535546509199
 31
0.0
  0
LINE
  5
33E47
330
2678E
100
AcDbEntity
  8
0
100
AcDbLine
 10
528.8802322045303
 20
-649.5535546509199
 30
0.0
 11
578.8802441254593
 21
-649.5535546509199
 31
0.0
  0
LINE
  5
33E48
330
2678E
100
AcDbEntity
  8
0
100
AcDbLine
 10
528.8802322045303
 20
237.9463738235063
 30
0.0
 11
578.8802441254593
 21
237.9463738235063
 31
0.0
  0
LINE
  5
33E49
330
2678E
100
AcDbEntity
  8
0
100
AcDbLine
 10
-614.1197744711899
 20
-649.5535546509199
 30
0.0
 11
-614.1197744711899
 21
-157.7808266107458
 31
0.0
  0
LINE
  5
33E4A
330
2678E
100
AcDbEntity
  8
0
100
AcDbLine
 10
-614.1197744711899
 20
-127.7808266107458
 30
0.0
 11
-614.1197744711899
 21
237.9463738235063
 31
0.0
  0
LINE
  5
33E4B
330
2678E
100
AcDbEntity
  8
0
100
AcDbLine
 10
-567.1197239264511
 20
-649.5535546509199
 30
0.0
 11
-617.1197358473801
 21
-649.5535546509199
 31
0.0
  0
LINE
  5
33E4C
330
2678E
100
AcDbEntity
  8
0
100
AcDbLine
 10
-617.1197358473801
 20
-649.5535546509199
 30
0.0
 11
-617.1197358473728
 21
-157.7808266107458
 31
0.0
  0
LINE
  5
33E4D
330
2678E
100
AcDbEntity
  8
0
100
AcDbLine
 10
-617.1197358473728
 20
-127.7808266107458
 30
0.0
 11
-617.1197358473801
 21
237.9463738235063
 31
0.0
  0
LINE
  5
33E4E
330
2678E
100
AcDbEntity
  8
0
100
AcDbLine
 10
-567.1197239264511
 20
237.9463738235063
 30
0.0
 11
-617.1197358473801
 21
237.9463738235063
 31
0.0
  0
LINE
  5
33E4F
330
2678E
100
AcDbEntity
  8
0
100
AcDbLine
 10
-567.1197239264511
 20
-649.5535546509199
 30
0.0
 11
-567.1197239264511
 21
-157.7808266107458
 31
0.0
  0
LINE
  5
33E50
330
2678E
100
AcDbEntity
  8
0
100
AcDbLine
 10
-567.1197239264511
 20
-127.7808266107458
 30
0.0
 11
-567.1197239264511
 21
237.9463738235063
 31
0.0
  0
LINE
  5
33E51
330
2678E
100
AcDbEntity
  8
0
100
AcDbLine
 10
-570.1197449072861
 20
-649.5535546509199
 30
0.0
 11
-570.1197449072788
 21
-157.7808266107458
 31
0.0
  0
LINE
  5
33E52
330
2678E
100
AcDbEntity
  8
0
100
AcDbLine
 10
-570.1197449072788
 20
-127.7808266107458
 30
0.0
 11
-570.1197449072861
 21
237.9463738235063
 31
0.0
  0
LINE
  5
33E53
330
2678E
100
AcDbEntity
  8
0
100
AcDbLine
 10
358.8802453175522
 20
343.9463800223894
 30
0.0
 11
358.8802453175522
 21
293.9464277061052
 31
0.0
  0
LINE
  5
33E54
330
2678E
100
AcDbEntity
  8
0
100
AcDbLine
 10
-397.119737039473
 20
343.9463800223894
 30
0.0
 11
-397.119737039473
 21
293.9464277061052
 31
0.0
  0
ARC
  5
33E55
330
2678E
100
AcDbEntity
  8
0
100
AcDbCircle
 10
-613.3697458609677
 20
-626.0535990083954
 30
0.0
 40
5.00000000000044
100
AcDbArc
 50
180.0
 51
221.4096221092795
  0
LINE
  5
33E56
330
2678E
100
AcDbEntity
  8
0
100
AcDbLine
 10
-618.3697644576096
 20
134.5473951133317
 30
0.0
 11
-618.3697644576096
 21
56.6963976653642
 31
0.0
  0
LINE
  5
33E57
330
2678E
100
AcDbEntity
  8
0
100
AcDbLine
 10
-618.3697644576096
 20
31.69642150722211
 30
0.0
 11
-618.3697644576023
 21
-127.7808266107458
 31
0.0
  0
LINE
  5
33E58
330
2678E
100
AcDbEntity
  8
0
100
AcDbLine
 10
-618.3697644576023
 20
-157.7808266107458
 30
0.0
 11
-618.3697644576096
 21
-193.3036023346358
 31
0.0
  0
LINE
  5
33E59
330
2678E
100
AcDbEntity
  8
0
100
AcDbLine
 10
-618.3697644576096
 20
-218.3035784927779
 30
0.0
 11
-618.3697644576096
 21
-443.3036023346358
 31
0.0
  0
LINE
  5
33E5A
330
2678E
100
AcDbEntity
  8
0
100
AcDbLine
 10
-618.3697644576096
 20
-468.3035784927779
 30
0.0
 11
-618.3697644576096
 21
-626.0535889831953
 31
0.0
  0
ARC
  5
33E5B
330
2678E
100
AcDbEntity
  8
0
100
AcDbCircle
 10
-570.8697458609676
 20
213.9464009916046
 30
0.0
 40
5.000000000000002
100
AcDbArc
 50
0.0
 51
41.40962210927951
  0
LINE
  5
33E5C
330
2678E
100
AcDbEntity
  8
0
100
AcDbLine
 10
-565.8697549208591
 20
-626.0535889831953
 30
0.0
 11
-565.8697549208518
 21
-157.7808266107458
 31
0.0
  0
LINE
  5
33E5D
330
2678E
100
AcDbEntity
  8
0
100
AcDbLine
 10
-565.8697549208518
 20
-127.7808266107458
 30
0.0
 11
-565.8697549208591
 21
213.946384790761
 31
0.0
  0
ARC
  5
33E5E
330
2678E
100
AcDbEntity
  8
0
100
AcDbCircle
 10
-570.8697458609676
 20
-626.0535990083954
 30
0.0
 40
5.000000000000144
100
AcDbArc
 50
318.5903778907205
 51
0.0
  0
ARC
  5
33E5F
330
2678E
100
AcDbEntity
  8
0
100
AcDbCircle
 10
532.630254139025
 20
-626.0535990083954
 30
0.0
 40
5.000000000000002
100
AcDbArc
 50
180.0
 51
221.4096221098679
  0
ARC
  5
33E60
330
2678E
100
AcDbEntity
  8
0
100
AcDbCircle
 10
532.630254139025
 20
213.9464009916046
 30
0.0
 40
5.000000000000002
100
AcDbArc
 50
138.5903778901321
 51
180.0
  0
ARC
  5
33E61
330
2678E
100
AcDbEntity
  8
0
100
AcDbCircle
 10
575.130254139025
 20
-626.0535990083954
 30
0.0
 40
5.000000000000002
100
AcDbArc
 50
318.5903778907205
 51
0.0
  0
LINE
  5
33E62
330
2678E
100
AcDbEntity
  8
0
100
AcDbLine
 10
580.1302727356888
 20
-626.0535889831953
 30
0.0
 11
580.1302727356888
 21
-468.3035784927779
 31
0.0
  0
LINE
  5
33E63
330
2678E
100
AcDbEntity
  8
0
100
AcDbLine
 10
580.1302727356888
 20
-443.3036023346358
 30
0.0
 11
580.1302727356888
 21
-218.3035784927779
 31
0.0
  0
LINE
  5
33E64
330
2678E
100
AcDbEntity
  8
0
100
AcDbLine
 10
580.1302727356888
 20
-193.3036023346358
 30
0.0
 11
580.1302727356888
 21
-157.7808266107458
 31
0.0
  0
LINE
  5
33E65
330
2678E
100
AcDbEntity
  8
0
100
AcDbLine
 10
580.1302727356888
 20
-127.7808266107458
 30
0.0
 11
580.1302727356888
 21
31.69642150722211
 31
0.0
  0
LINE
  5
33E66
330
2678E
100
AcDbEntity
  8
0
100
AcDbLine
 10
580.1302727356888
 20
56.6963976653642
 30
0.0
 11
580.1302727356888
 21
134.5473951133317
 31
0.0
  0
LINE
  5
33E67
330
2678E
100
AcDbEntity
  8
0
100
AcDbLine
 10
527.6302631989456
 20
213.946384790761
 30
0.0
 11
527.6302631989456
 21
-127.7808266107458
 31
0.0
  0
LINE
  5
33E68
330
2678E
100
AcDbEntity
  8
0
100
AcDbLine
 10
527.6302631989456
 20
-157.7808266107458
 30
0.0
 11
527.6302631989456
 21
-626.0535889831953
 31
0.0
  0
LINE
  5
33E69
330
2678E
100
AcDbEntity
  8
0
100
AcDbLine
 10
-557.1197334631943
 20
233.0161160262651
 30
0.0
 11
-557.1197334631943
 21
229.9464172156877
 31
0.0
  0
LINE
  5
33E6A
330
2678E
100
AcDbEntity
  8
0
100
AcDbLine
 10
-557.1197334631943
 20
229.9464172156877
 30
0.0
 11
-559.6197310790085
 21
229.9464172156877
 31
0.0
  0
LINE
  5
33E6B
330
2678E
100
AcDbEntity
  8
0
100
AcDbLine
 10
-557.1197334631943
 20
-642.0536214081221
 30
0.0
 11
-567.1197239264511
 21
-642.0536214081221
 31
0.0
  0
LINE
  5
33E6C
330
2678E
100
AcDbEntity
  8
0
100
AcDbLine
 10
-557.1197334631943
 20
-642.0536214081221
 30
0.0
 11
-557.1197334631943
 21
-652.0536118713789
 31
0.0
  0
LINE
  5
33E6D
330
2678E
100
AcDbEntity
  8
0
100
AcDbLine
 10
-557.1197334631943
 20
-652.0536118713789
 30
0.0
 11
-559.6197310790085
 21
-652.0536118713789
 31
0.0
  0
LINE
  5
33E6E
330
2678E
100
AcDbEntity
  8
0
100
AcDbLine
 10
-627.1197263106369
 20
-642.0536214081221
 30
0.0
 11
-627.1197263106369
 21
-652.0536118713789
 31
0.0
  0
LINE
  5
33E6F
330
2678E
100
AcDbEntity
  8
0
100
AcDbLine
 10
-624.6197286948227
 20
-652.0536118713789
 30
0.0
 11
-627.1197263106369
 21
-652.0536118713789
 31
0.0
  0
LINE
  5
33E70
330
2678E
100
AcDbEntity
  8
0
100
AcDbLine
 10
-617.1197358473801
 20
-642.0536214081221
 30
0.0
 11
-627.1197263106369
 21
-642.0536214081221
 31
0.0
  0
LINE
  5
33E71
330
2678E
100
AcDbEntity
  8
0
100
AcDbLine
 10
518.8802417412735
 20
-642.0536214081221
 30
0.0
 11
518.8802417412735
 21
-652.0536118713789
 31
0.0
  0
LINE
  5
33E72
330
2678E
100
AcDbEntity
  8
0
100
AcDbLine
 10
528.8802322045303
 20
-642.0536214081221
 30
0.0
 11
518.8802417412735
 21
-642.0536214081221
 31
0.0
  0
LINE
  5
33E73
330
2678E
100
AcDbEntity
  8
0
100
AcDbLine
 10
521.3802393570877
 20
-652.0536118713789
 30
0.0
 11
518.8802417412735
 21
-652.0536118713789
 31
0.0
  0
LINE
  5
33E74
330
2678E
100
AcDbEntity
  8
0
100
AcDbLine
 10
588.8802345887161
 20
-642.0536214081221
 30
0.0
 11
578.8802441254593
 21
-642.0536214081221
 31
0.0
  0
LINE
  5
33E75
330
2678E
100
AcDbEntity
  8
0
100
AcDbLine
 10
588.8802345887161
 20
-642.0536214081221
 30
0.0
 11
588.8802345887161
 21
-652.0536118713789
 31
0.0
  0
LINE
  5
33E76
330
2678E
100
AcDbEntity
  8
0
100
AcDbLine
 10
588.8802345887161
 20
-652.0536118713789
 30
0.0
 11
586.3802369729019
 21
-652.0536118713789
 31
0.0
  0
LINE
  5
33E77
330
2678E
100
AcDbEntity
  8
0
100
AcDbLine
 10
518.8802417412735
 20
233.0161160262651
 30
0.0
 11
518.8802417412735
 21
229.9464172156877
 31
0.0
  0
LINE
  5
33E78
330
2678E
100
AcDbEntity
  8
0
100
AcDbLine
 10
521.3802393570877
 20
229.9464172156877
 30
0.0
 11
518.8802417412735
 21
229.9464172156877
 31
0.0
  0
LINE
  5
33E79
330
2678E
100
AcDbEntity
  8
0
100
AcDbLine
 10
-522.119766841799
 20
-942.5535374847823
 30
0.0
 11
-522.1197668417953
 21
-756.0535842148238
 31
0.0
  0
LINE
  5
33E7A
330
2678E
100
AcDbEntity
  8
0
100
AcDbLine
 10
-522.1197668417953
 20
-706.0536318985396
 30
0.0
 11
-522.1197668417953
 21
-157.7808266107458
 31
0.0
  0
LINE
  5
33E7B
330
2678E
100
AcDbEntity
  8
0
100
AcDbLine
 10
-522.1197668417953
 20
-127.7808266107458
 30
0.0
 11
-522.1197668417953
 21
293.9464277061052
 31
0.0
  0
LINE
  5
33E7C
330
2678E
100
AcDbEntity
  8
0
100
AcDbLine
 10
-522.1197668417953
 20
343.9463800223894
 30
0.0
 11
-522.1197668417953
 21
849.5963937076158
 31
0.0
  0
CIRCLE
  5
33E7D
330
2678E
100
AcDbEntity
  8
0
100
AcDbCircle
 10
-632.1197458609531
 20
973.9464009916119
 30
0.0
 40
6.499999999999776
  0
CIRCLE
  5
33E7E
330
2678E
100
AcDbEntity
  8
0
100
AcDbCircle
 10
-552.1197458609531
 20
773.9464009916119
 30
0.0
 40
6.499999999999776
  0
CIRCLE
  5
33E7F
330
2678E
100
AcDbEntity
  8
0
100
AcDbCircle
 10
-632.1197458609531
 20
418.9464009916118
 30
0.0
 40
6.499999999999776
  0
CIRCLE
  5
33E80
330
2678E
100
AcDbEntity
  8
0
100
AcDbCircle
 10
-552.1197458609531
 20
218.9464009916046
 30
0.0
 40
6.499999999999776
  0
CIRCLE
  5
33E81
330
2678E
100
AcDbEntity
  8
0
100
AcDbCircle
 10
-552.1197458609568
 20
-831.0535990083954
 30
0.0
 40
6.499999999999776
  0
CIRCLE
  5
33E82
330
2678E
100
AcDbEntity
  8
0
100
AcDbCircle
 10
-632.1197458609531
 20
-631.0535990083954
 30
0.0
 40
6.499999999999776
  0
LINE
  5
33E83
330
2678E
100
AcDbEntity
  8
0
100
AcDbLine
 10
-662.1197525366842
 20
-963.5536843506198
 30
0.0
 11
-662.1197525366806
 21
-468.3035784927779
 31
0.0
  0
LINE
  5
33E84
330
2678E
100
AcDbEntity
  8
0
100
AcDbLine
 10
-662.1197525366806
 20
-443.3036023346358
 30
0.0
 11
-662.1197525366806
 21
-218.3035784927779
 31
0.0
  0
LINE
  5
33E85
330
2678E
100
AcDbEntity
  8
0
100
AcDbLine
 10
-662.1197525366806
 20
-193.3036023346358
 30
0.0
 11
-662.1197525366806
 21
-157.7808266107458
 31
0.0
  0
LINE
  5
33E86
330
2678E
100
AcDbEntity
  8
0
100
AcDbLine
 10
-662.1197525366806
 20
-127.7808266107458
 30
0.0
 11
-662.1197525366806
 21
31.69642150722211
 31
0.0
  0
LINE
  5
33E87
330
2678E
100
AcDbEntity
  8
0
100
AcDbLine
 10
-662.1197525366806
 20
56.6963976653642
 30
0.0
 11
-662.1197525366806
 21
849.5963937076158
 31
0.0
  0
LINE
  5
33E88
330
2678E
100
AcDbEntity
  8
0
100
AcDbLine
 10
-662.1197525366806
 20
898.2963985236784
 30
0.0
 11
-662.1197525366806
 21
1133.946400991612
 31
0.0
  0
LINE
  5
33E89
330
2678E
100
AcDbEntity
  8
0
100
AcDbLine
 10
483.8802751198709
 20
-942.5535374847823
 30
0.0
 11
483.8802751198746
 21
-756.0535842148238
 31
0.0
  0
LINE
  5
33E8A
330
2678E
100
AcDbEntity
  8
0
100
AcDbLine
 10
483.8802751198746
 20
-706.0536318985396
 30
0.0
 11
483.8802751198746
 21
-157.7808266107458
 31
0.0
  0
LINE
  5
33E8B
330
2678E
100
AcDbEntity
  8
0
100
AcDbLine
 10
483.8802751198746
 20
-127.7808266107458
 30
0.0
 11
483.8802751198746
 21
293.9464277061052
 31
0.0
  0
LINE
  5
33E8C
330
2678E
100
AcDbEntity
  8
0
100
AcDbLine
 10
483.8802751198746
 20
343.9463800223894
 30
0.0
 11
483.8802751198746
 21
849.5963937076158
 31
0.0
  0
CIRCLE
  5
33E8D
330
2678E
100
AcDbEntity
  8
0
100
AcDbCircle
 10
513.8802541390396
 20
973.9464009916119
 30
0.0
 40
6.500000000000913
  0
CIRCLE
  5
33E8E
330
2678E
100
AcDbEntity
  8
0
100
AcDbCircle
 10
593.8802541390396
 20
773.9464009916119
 30
0.0
 40
6.500000000000913
  0
CIRCLE
  5
33E8F
330
2678E
100
AcDbEntity
  8
0
100
AcDbCircle
 10
513.8802541390396
 20
418.9464009916118
 30
0.0
 40
6.499999999999776
  0
ARC
  5
33E90
330
2678E
100
AcDbEntity
  8
0
100
AcDbCircle
 10
593.8802541390396
 20
218.9464009916046
 30
0.0
 40
6.500000000000913
100
AcDbArc
 50
219.7151372319412
 51
140.2848409966291
  0
CIRCLE
  5
33E91
330
2678E
100
AcDbEntity
  8
0
100
AcDbCircle
 10
513.8802541390396
 20
-631.0535990083954
 30
0.0
 40
6.500000000000913
  0
CIRCLE
  5
33E92
330
2678E
100
AcDbEntity
  8
0
100
AcDbCircle
 10
593.880254139036
 20
-831.0535990083954
 30
0.0
 40
6.499999999999776
  0
LINE
  5
33E93
330
2678E
100
AcDbEntity
  8
0
100
AcDbLine
 10
623.8802608147562
 20
-963.5536843506198
 30
0.0
 11
623.8802608147598
 21
-468.3035784927779
 31
0.0
  0
LINE
  5
33E94
330
2678E
100
AcDbEntity
  8
0
100
AcDbLine
 10
623.8802608147598
 20
-443.3036023346358
 30
0.0
 11
623.8802608147598
 21
-218.3035784927779
 31
0.0
  0
LINE
  5
33E95
330
2678E
100
AcDbEntity
  8
0
100
AcDbLine
 10
623.8802608147598
 20
-193.3036023346358
 30
0.0
 11
623.8802608147598
 21
-157.7808266107458
 31
0.0
  0
LINE
  5
33E96
330
2678E
100
AcDbEntity
  8
0
100
AcDbLine
 10
623.8802608147598
 20
-127.7808266107458
 30
0.0
 11
623.8802608147598
 21
31.69642150722211
 31
0.0
  0
LINE
  5
33E97
330
2678E
100
AcDbEntity
  8
0
100
AcDbLine
 10
623.8802608147598
 20
56.6963976653642
 30
0.0
 11
623.8802608147598
 21
849.5963937076158
 31
0.0
  0
LINE
  5
33E98
330
2678E
100
AcDbEntity
  8
0
100
AcDbLine
 10
623.8802608147598
 20
898.2963985236784
 30
0.0
 11
623.8802608147598
 21
1133.946400991612
 31
0.0
  0
LINE
  5
33E99
330
2678E
100
AcDbEntity
  8
0
100
AcDbLine
 10
560.8802374497391
 20
-806.0536557403974
 30
0.0
 11
546.8802388802505
 21
-806.0536557403974
 31
0.0
  0
LINE
  5
33E9A
330
2678E
100
AcDbEntity
  8
0
100
AcDbLine
 10
-585.1197306021713
 20
-806.0536557403974
 30
0.0
 11
-599.1197291716598
 21
-806.0536557403974
 31
0.0
  0
LINE
  5
33E9B
330
2678E
100
AcDbEntity
  8
0
100
AcDbLine
 10
-642.1197716101669
 20
909.9463945659227
 30
0.0
 11
-642.1197716101669
 21
837.9463976653715
 31
0.0
  0
LINE
  5
33E9C
330
2678E
100
AcDbEntity
  8
0
100
AcDbLine
 10
-542.119747768309
 20
837.9463976653715
 30
0.0
 11
-542.119747768309
 21
909.9463945659227
 31
0.0
  0
LINE
  5
33E9D
330
2678E
100
AcDbEntity
  8
0
100
AcDbLine
 10
503.8802560463882
 20
909.9463945659227
 30
0.0
 11
503.8802560463882
 21
837.9463976653715
 31
0.0
  0
LINE
  5
33E9E
330
2678E
100
AcDbEntity
  8
0
100
AcDbLine
 10
603.8802798882461
 20
837.9463976653715
 30
0.0
 11
603.8802798882461
 21
909.9463945659227
 31
0.0
  0
SPLINE
  5
33E9F
330
2678E
100
AcDbEntity
  8
0
100
AcDbSpline
210
0.0
220
0.0
230
1.0
 70
     8
 71
     3
 72
    10
 73
     6
 74
     0
 42
0.000000001
 43
0.0000000001
 40
0.0
 40
0.0
 40
0.0
 40
0.0
 40
0.410007377190437
 40
0.8186702097126172
 40
1.0
 40
1.0
 40
1.0
 40
1.0
 10
-627.1197263106369
 20
232.6963967116899
 30
0.0
 10
-627.0329310757224
 20
232.3364257086869
 30
0.0
 10
-626.859625235098
 20
231.6176641621423
 30
0.0
 10
-625.7871442399554
 20
230.8375044913118
 30
0.0
 10
-624.8941758162618
 20
230.5086038754962
 30
0.0
 10
-624.6197286948227
 20
230.4075187476701
 30
0.0
  0
LINE
  5
33EA0
330
2678E
100
AcDbEntity
  8
0
100
AcDbLine
 10
-626.374727855582
 20
232.6963967116899
 30
0.0
 11
-627.1197263106369
 21
232.6963967116899
 31
0.0
  0
LWPOLYLINE
  5
33EA1
330
2678E
100
AcDbEntity
  8
0
100
AcDbPolyline
 90
        9
 70
   128
 43
0.0
 10
-621.1197439536118
 20
182.8453964026994
 10
-622.2902599677109
 20
182.9268759521074
 10
-623.4158340796494
 20
183.1683343680925
 10
-624.4531933173202
 20
183.560413721425
 10
-625.3624025687241
 20
184.0880340369767
 10
-626.1085931166599
 20
184.7309297355241
 10
-626.6630355223679
 20
185.4644244941301
 10
-627.004450927634
 20
186.2603253158158
 10
-627.1197263106369
 20
187.0879954131669
  0
LINE
  5
33EA2
330
2678E
100
AcDbEntity
  8
0
100
AcDbLine
 10
-617.1197358473801
 20
182.8453964026994
 30
0.0
 11
-621.1197439536118
 21
182.8453964026994
 31
0.0
  0
LINE
  5
33EA3
330
2678E
100
AcDbEntity
  8
0
100
AcDbLine
 10
582.880252231691
 20
182.8453964026994
 30
0.0
 11
578.8802441254593
 21
182.8453964026994
 31
0.0
  0
SPLINE
  5
33EA4
330
2678E
100
AcDbEntity
  8
0
100
AcDbSpline
210
0.0
220
0.0
230
1.0
 70
     8
 71
     3
 72
    10
 73
     6
 74
     0
 42
0.000000001
 43
0.0000000001
 40
0.0
 40
0.0
 40
0.0
 40
0.0
 40
0.1807469111385572
 40
0.5896495762881035
 40
0.9999999999999998
 40
0.9999999999999998
 40
0.9999999999999998
 40
0.9999999999999998
 10
586.3802369729019
 20
230.4076975616045
 30
0.0
 10
586.6538996464951
 20
230.5084075553387
 30
0.0
 10
587.5466677635995
 20
230.8369531706194
 30
0.0
 10
588.619769252451
 20
231.616939713509
 30
0.0
 10
588.7933105843476
 20
232.3361540545593
 30
0.0
 10
588.8802345887161
 20
232.6963967116899
 30
0.0
  0
LINE
  5
33EA5
330
2678E
100
AcDbEntity
  8
0
100
AcDbLine
 10
588.1352361336685
 20
232.6963967116899
 30
0.0
 11
588.8802345887161
 21
232.6963967116899
 31
0.0
  0
LWPOLYLINE
  5
33EA6
330
2678E
100
AcDbEntity
  8
0
100
AcDbPolyline
 90
        9
 70
   128
 43
0.0
 10
588.8802345887161
 20
187.0879954131669
 10
588.7649592057205
 20
186.2603253158158
 10
588.4235438004471
 20
185.4644244941301
 10
587.8691013947464
 20
184.7309297355241
 10
587.1229108468033
 20
184.0880340369767
 10
586.2137015953995
 20
183.560413721425
 10
585.1763423577286
 20
183.1683343680925
 10
584.0507682457901
 20
182.9268759521074
 10
582.880252231691
 20
182.8453964026994
  0
LINE
  5
33EA7
330
2678E
100
AcDbEntity
  8
0
100
AcDbLine
 10
-622.1197310790085
 20
141.6184729369706
 30
0.0
 11
-617.1197358473801
 21
141.6184729369706
 31
0.0
  0
LWPOLYLINE
  5
33EA8
330
2678E
100
AcDbEntity
  8
0
100
AcDbPolyline
 90
        9
 70
   128
 43
0.0
 10
-627.1197263106369
 20
145.1539820464677
 10
-627.023643623259
 20
144.4642370971269
 10
-626.739150653746
 20
143.8010162147111
 10
-626.2770954474472
 20
143.1897705825395
 10
-625.655299793143
 20
142.6539844306535
 10
-624.8976055487656
 20
142.2142809661454
 10
-624.0331593855808
 20
141.8875879081315
 10
-623.0952206954025
 20
141.6863626273698
 10
-622.1197310790085
 20
141.6184729369706
  0
LINE
  5
33EA9
330
2678E
100
AcDbEntity
  8
0
100
AcDbLine
 10
-627.1197263106369
 20
187.0860284598893
 30
0.0
 11
-627.1197263106369
 21
138.0829042228288
 31
0.0
  0
LINE
  5
33EAA
330
2678E
100
AcDbEntity
  8
0
100
AcDbLine
 10
-622.1197310790085
 20
134.5473951133317
 30
0.0
 11
-617.1197358473801
 21
134.5473951133317
 31
0.0
  0
LWPOLYLINE
  5
33EAB
330
2678E
100
AcDbEntity
  8
0
100
AcDbPolyline
 90
        9
 70
   128
 43
0.0
 10
-627.1197263106369
 20
138.0829042228288
 10
-627.023643623259
 20
137.393159273488
 10
-626.739150653746
 20
136.7299383910722
 10
-626.2770954474472
 20
136.1186927589006
 10
-625.655299793143
 20
135.5829066070146
 10
-624.8976055487656
 20
135.1432031425065
 10
-624.0331593855808
 20
134.8165100844926
 10
-623.0952206954025
 20
134.6152848037309
 10
-622.1197310790085
 20
134.5473951133317
  0
LWPOLYLINE
  5
33EAC
330
2678E
100
AcDbEntity
  8
0
100
AcDbPolyline
 90
        9
 70
   128
 43
0.0
 10
583.8802393570877
 20
141.6184729369706
 10
584.8557289734817
 20
141.6863626273698
 10
585.7936676636673
 20
141.8875879081315
 10
586.6581138268448
 20
142.2142809661454
 10
587.4158080712295
 20
142.6539844306535
 10
588.0376037255264
 20
143.1897705825395
 10
588.4996589318252
 20
143.8010162147111
 10
588.7841519013382
 20
144.4642370971269
 10
588.8802345887161
 20
145.1539820464677
  0
LINE
  5
33EAD
330
2678E
100
AcDbEntity
  8
0
100
AcDbLine
 10
578.8802441254593
 20
141.6184729369706
 30
0.0
 11
583.8802393570877
 21
141.6184729369706
 31
0.0
  0
LINE
  5
33EAE
330
2678E
100
AcDbEntity
  8
0
100
AcDbLine
 10
588.8802345887161
 20
138.0829042228288
 30
0.0
 11
588.8802345887161
 21
187.084001901967
 31
0.0
  0
LINE
  5
33EAF
330
2678E
100
AcDbEntity
  8
0
100
AcDbLine
 10
578.8802441254593
 20
134.5473951133317
 30
0.0
 11
583.8802393570877
 21
134.5473951133317
 31
0.0
  0
LWPOLYLINE
  5
33EB0
330
2678E
100
AcDbEntity
  8
0
100
AcDbPolyline
 90
        9
 70
   128
 43
0.0
 10
583.8802393570877
 20
134.5473951133317
 10
584.8557289734817
 20
134.6152848037309
 10
585.7936676636673
 20
134.8165100844926
 10
586.6581138268448
 20
135.1432031425065
 10
587.4158080712295
 20
135.5829066070146
 10
588.0376037255264
 20
136.1186927589006
 10
588.4996589318252
 20
136.7299383910722
 10
588.7841519013382
 20
137.393159273488
 10
588.8802345887161
 20
138.0829042228288
  0
LINE
  5
33EB1
330
2678E
100
AcDbEntity
  8
0
100
AcDbLine
 10
-617.1197358473801
 20
404.1964238914078
 30
0.0
 11
-627.1197263106369
 21
404.1964238914078
 31
0.0
  0
LINE
  5
33EB2
330
2678E
100
AcDbEntity
  8
0
100
AcDbLine
 10
-627.1197263106369
 20
396.1964076789445
 30
0.0
 11
-627.1197263106369
 21
404.1964238914078
 31
0.0
  0
LINE
  5
33EB3
330
2678E
100
AcDbEntity
  8
0
100
AcDbLine
 10
-626.1197391852402
 20
405.1964110168046
 30
0.0
 11
-617.1197358473801
 21
405.1964110168046
 31
0.0
  0
LINE
  5
33EB4
330
2678E
100
AcDbEntity
  8
0
100
AcDbLine
 10
-622.1197310790085
 20
405.1964110168046
 30
0.0
 11
-622.1197310790085
 21
398.9463871749467
 31
0.0
  0
ARC
  5
33EB5
330
2678E
100
AcDbEntity
  8
0
100
AcDbCircle
 10
-626.1197458609676
 20
404.1964009916191
 30
0.0
 40
1.000000000000227
100
AcDbArc
 50
90.0
 51
180.0
  0
LINE
  5
33EB6
330
2678E
100
AcDbEntity
  8
0
100
AcDbLine
 10
-540.6816665038132
 20
385.196430090291
 30
0.0
 11
-550.6817165717148
 21
385.196430090291
 31
0.0
  0
ARC
  5
33EB7
330
2678E
100
AcDbEntity
  8
0
100
AcDbCircle
 10
-560.681690762889
 20
385.1964009916192
 30
0.0
 40
10.00000000000007
100
AcDbArc
 50
0.0
 51
83.90400939218045
  0
LINE
  5
33EB8
330
2678E
100
AcDbEntity
  8
0
100
AcDbLine
 10
-567.1197239264511
 20
405.1964110168046
 30
0.0
 11
-560.6817070349716
 21
405.1964110168046
 31
0.0
  0
LINE
  5
33EB9
330
2678E
100
AcDbEntity
  8
0
100
AcDbLine
 10
-560.6817070349716
 20
405.1964110168046
 30
0.0
 11
-560.6817070349716
 21
398.9463871749467
 31
0.0
  0
ARC
  5
33EBA
330
2678E
100
AcDbEntity
  8
0
100
AcDbCircle
 10
-560.681690762889
 20
385.1964009916192
 30
0.0
 40
19.00000000000035
100
AcDbArc
 50
0.0
 51
90.0
  0
ARC
  5
33EBB
330
2678E
100
AcDbEntity
  8
0
100
AcDbCircle
 10
-560.681690762889
 20
385.1964009916192
 30
0.0
 40
20.00000000000001
100
AcDbArc
 50
0.0
 51
90.0
  0
LINE
  5
33EBC
330
2678E
100
AcDbEntity
  8
0
100
AcDbLine
 10
-624.6197286948227
 20
395.1964205535478
 30
0.0
 11
-626.1197391852402
 21
395.1964205535478
 31
0.0
  0
ARC
  5
33EBD
330
2678E
100
AcDbEntity
  8
0
100
AcDbCircle
 10
-626.1197458609676
 20
396.1964009916191
 30
0.0
 40
1.000000000000227
100
AcDbArc
 50
180.0
 51
270.0
  0
LINE
  5
33EBE
330
2678E
100
AcDbEntity
  8
0
100
AcDbLine
 10
-617.1197358473801
 20
232.6963967116899
 30
0.0
 11
-626.1197391852402
 21
232.6963967116899
 31
0.0
  0
ARC
  5
33EBF
330
2678E
100
AcDbEntity
  8
0
100
AcDbCircle
 10
-626.1197458609603
 20
233.6964009916191
 30
0.0
 40
1.000000000000227
100
AcDbArc
 50
180.0
 51
270.0
  0
LINE
  5
33EC0
330
2678E
100
AcDbEntity
  8
0
100
AcDbLine
 10
-627.1197263106369
 20
233.6963838370866
 30
0.0
 11
-617.1197358473801
 21
233.6963838370866
 31
0.0
  0
ARC
  5
33EC1
330
2678E
100
AcDbEntity
  8
0
100
AcDbCircle
 10
-560.681690762889
 20
252.6964009916191
 30
0.0
 40
10.0000000000002
100
AcDbArc
 50
276.0959906078195
 51
0.0
  0
LINE
  5
33EC2
330
2678E
100
AcDbEntity
  8
0
100
AcDbLine
 10
-540.6816665038132
 20
252.6963776382036
 30
0.0
 11
-550.6817165717148
 21
252.6963776382036
 31
0.0
  0
LINE
  5
33EC3
330
2678E
100
AcDbEntity
  8
0
100
AcDbLine
 10
-627.1197263106369
 20
241.69640004955
 30
0.0
 11
-627.1197263106369
 21
187.0879954131669
 31
0.0
  0
ARC
  5
33EC4
330
2678E
100
AcDbEntity
  8
0
100
AcDbCircle
 10
-626.1197458609676
 20
241.6964009916191
 30
0.0
 40
0.9999999999996594
100
AcDbArc
 50
90.0
 51
180.0
  0
LINE
  5
33EC5
330
2678E
100
AcDbEntity
  8
0
100
AcDbLine
 10
-626.1197391852402
 20
242.6963871749467
 30
0.0
 11
-624.6197286948227
 21
242.6963871749467
 31
0.0
  0
LINE
  5
33EC6
330
2678E
100
AcDbEntity
  8
0
100
AcDbLine
 10
-559.6197310790085
 20
232.6963967116899
 30
0.0
 11
-567.1197239264511
 21
232.6963967116899
 31
0.0
  0
ARC
  5
33EC7
330
2678E
100
AcDbEntity
  8
0
100
AcDbCircle
 10
-560.681690762889
 20
252.6964009916191
 30
0.0
 40
20.00000000000001
100
AcDbArc
 50
270.0
 51
0.0
  0
ARC
  5
33EC8
330
2678E
100
AcDbEntity
  8
0
100
AcDbCircle
 10
-560.681690762889
 20
252.6964009916191
 30
0.0
 40
18.99999999999978
100
AcDbArc
 50
270.0
 51
0.0
  0
LINE
  5
33EC9
330
2678E
100
AcDbEntity
  8
0
100
AcDbLine
 10
-540.6816665038132
 20
385.196430090291
 30
0.0
 11
-540.6816665038132
 21
343.9463800223894
 31
0.0
  0
LINE
  5
33ECA
330
2678E
100
AcDbEntity
  8
0
100
AcDbLine
 10
-540.6816665038132
 20
293.9464277061052
 30
0.0
 11
-540.6816665038132
 21
252.6963776382036
 31
0.0
  0
LINE
  5
33ECB
330
2678E
100
AcDbEntity
  8
0
100
AcDbLine
 10
-550.6817165717148
 20
252.6963776382036
 30
0.0
 11
-550.6817165717148
 21
253.9464062484331
 31
0.0
  0
LINE
  5
33ECC
330
2678E
100
AcDbEntity
  8
0
100
AcDbLine
 10
-550.6817165717148
 20
383.9464014800615
 30
0.0
 11
-550.6817165717148
 21
385.196430090291
 31
0.0
  0
LINE
  5
33ECD
330
2678E
100
AcDbEntity
  8
0
100
AcDbLine
 10
522.4422153130508
 20
398.9463871749467
 30
0.0
 11
522.4422153130508
 21
405.1964110168046
 31
0.0
  0
LINE
  5
33ECE
330
2678E
100
AcDbEntity
  8
0
100
AcDbLine
 10
522.4422153130508
 20
405.1964110168046
 30
0.0
 11
528.8802322045303
 21
405.1964110168046
 31
0.0
  0
LINE
  5
33ECF
330
2678E
100
AcDbEntity
  8
0
100
AcDbLine
 10
578.8802441254593
 20
405.1964110168046
 30
0.0
 11
587.8802474633194
 21
405.1964110168046
 31
0.0
  0
LINE
  5
33ED0
330
2678E
100
AcDbEntity
  8
0
100
AcDbLine
 10
583.8802393570877
 20
398.9463871749467
 30
0.0
 11
583.8802393570877
 21
405.1964110168046
 31
0.0
  0
ARC
  5
33ED1
330
2678E
100
AcDbEntity
  8
0
100
AcDbCircle
 10
522.4421990409755
 20
385.1964009916119
 30
0.0
 40
18.99999999999978
100
AcDbArc
 50
90.0
 51
180.0
  0
LINE
  5
33ED2
330
2678E
100
AcDbEntity
  8
0
100
AcDbLine
 10
512.442224849794
 20
385.196430090291
 30
0.0
 11
502.4421747818924
 21
385.196430090291
 31
0.0
  0
ARC
  5
33ED3
330
2678E
100
AcDbEntity
  8
0
100
AcDbCircle
 10
522.4421990409755
 20
385.1964009916119
 30
0.0
 40
20.00000000000001
100
AcDbArc
 50
90.0
 51
180.0
  0
ARC
  5
33ED4
330
2678E
100
AcDbEntity
  8
0
100
AcDbCircle
 10
587.8802541390541
 20
404.1964009916045
 30
0.0
 40
1.000000000000227
100
AcDbArc
 50
0.0
 51
90.0
  0
LINE
  5
33ED5
330
2678E
100
AcDbEntity
  8
0
100
AcDbLine
 10
588.8802345887161
 20
396.1964076789445
 30
0.0
 11
588.8802345887161
 21
404.1964238914078
 31
0.0
  0
ARC
  5
33ED6
330
2678E
100
AcDbEntity
  8
0
100
AcDbCircle
 10
522.4421990409755
 20
385.1964009916119
 30
0.0
 40
10.00000000000005
100
AcDbArc
 50
96.09599060781956
 51
180.0
  0
LINE
  5
33ED7
330
2678E
100
AcDbEntity
  8
0
100
AcDbLine
 10
587.8802474633194
 20
395.1964205535478
 30
0.0
 11
586.3802369729019
 21
395.1964205535478
 31
0.0
  0
ARC
  5
33ED8
330
2678E
100
AcDbEntity
  8
0
100
AcDbCircle
 10
587.8802541390541
 20
396.1964009916046
 30
0.0
 40
1.000000000000227
100
AcDbArc
 50
270.0
 51
0.0
  0
LINE
  5
33ED9
330
2678E
100
AcDbEntity
  8
0
100
AcDbLine
 10
512.442224849794
 20
252.6963776382036
 30
0.0
 11
502.4421747818924
 21
252.6963776382036
 31
0.0
  0
LINE
  5
33EDA
330
2678E
100
AcDbEntity
  8
0
100
AcDbLine
 10
502.4421747818924
 20
252.6963776382036
 30
0.0
 11
502.4421747818924
 21
293.9464277061052
 31
0.0
  0
LINE
  5
33EDB
330
2678E
100
AcDbEntity
  8
0
100
AcDbLine
 10
502.4421747818924
 20
343.9463800223894
 30
0.0
 11
502.4421747818924
 21
385.196430090291
 31
0.0
  0
LINE
  5
33EDC
330
2678E
100
AcDbEntity
  8
0
100
AcDbLine
 10
512.442224849794
 20
385.196430090291
 30
0.0
 11
512.442224849794
 21
383.9464014800615
 31
0.0
  0
LINE
  5
33EDD
330
2678E
100
AcDbEntity
  8
0
100
AcDbLine
 10
512.442224849794
 20
253.9464062484331
 30
0.0
 11
512.442224849794
 21
252.6963776382036
 31
0.0
  0
ARC
  5
33EDE
330
2678E
100
AcDbEntity
  8
0
100
AcDbCircle
 10
522.4421990409755
 20
252.6964009916119
 30
0.0
 40
19.00000000000035
100
AcDbArc
 50
180.0
 51
270.0
  0
ARC
  5
33EDF
330
2678E
100
AcDbEntity
  8
0
100
AcDbCircle
 10
522.4421990409755
 20
252.6964009916119
 30
0.0
 40
20.00000000000001
100
AcDbArc
 50
180.0
 51
270.0
  0
ARC
  5
33EE0
330
2678E
100
AcDbEntity
  8
0
100
AcDbCircle
 10
587.8802541390541
 20
233.6964009916046
 30
0.0
 40
1.000000000000227
100
AcDbArc
 50
270.0
 51
0.0
  0
ARC
  5
33EE1
330
2678E
100
AcDbEntity
  8
0
100
AcDbCircle
 10
522.4421990409755
 20
252.6964009916119
 30
0.0
 40
10.0
100
AcDbArc
 50
180.0
 51
263.9040093921805
  0
LINE
  5
33EE2
330
2678E
100
AcDbEntity
  8
0
100
AcDbLine
 10
586.3802369729019
 20
242.6963871749467
 30
0.0
 11
587.8802474633194
 21
242.6963871749467
 31
0.0
  0
ARC
  5
33EE3
330
2678E
100
AcDbEntity
  8
0
100
AcDbCircle
 10
587.8802541390541
 20
241.6964009916046
 30
0.0
 40
1.000000000000796
100
AcDbArc
 50
0.0
 51
90.0
  0
LINE
  5
33EE4
330
2678E
100
AcDbEntity
  8
0
100
AcDbLine
 10
587.8802474633194
 20
232.6963967116899
 30
0.0
 11
578.8802441254593
 21
232.6963967116899
 31
0.0
  0
LINE
  5
33EE5
330
2678E
100
AcDbEntity
  8
0
100
AcDbLine
 10
588.8802345887161
 20
241.69640004955
 30
0.0
 11
588.8802345887161
 21
187.0879954131669
 31
0.0
  0
LINE
  5
33EE6
330
2678E
100
AcDbEntity
  8
0
100
AcDbLine
 10
-430.1197592124008
 20
854.4463938506742
 30
0.0
 11
-430.1197592124008
 21
893.44639838062
 31
0.0
  0
LINE
  5
33EE7
330
2678E
100
AcDbEntity
  8
0
100
AcDbLine
 10
-432.1197334631943
 20
854.4463938506742
 30
0.0
 11
-432.1197334631943
 21
893.44639838062
 31
0.0
  0
LINE
  5
33EE8
330
2678E
100
AcDbEntity
  8
0
100
AcDbLine
 10
-892.1197716101669
 20
893.44639838062
 30
0.0
 11
-892.1197716101669
 21
854.4463938506742
 31
0.0
  0
LINE
  5
33EE9
330
2678E
100
AcDbEntity
  8
0
100
AcDbLine
 10
391.8802674904873
 20
893.44639838062
 30
0.0
 11
391.8802674904873
 21
854.4463938506742
 31
0.0
  0
LINE
  5
33EEA
330
2678E
100
AcDbEntity
  8
0
100
AcDbLine
 10
393.8802417412735
 20
893.44639838062
 30
0.0
 11
393.8802417412735
 21
854.4463938506742
 31
0.0
  0
LINE
  5
33EEB
330
2678E
100
AcDbEntity
  8
0
100
AcDbLine
 10
853.8802798882461
 20
854.4463938506742
 30
0.0
 11
853.8802798882461
 21
893.44639838062
 31
0.0
  0
LINE
  5
33EEC
330
2678E
100
AcDbEntity
  8
0
100
AcDbLine
 10
-437.1197584971451
 20
849.5963937076158
 30
0.0
 11
-437.1197584971451
 21
898.2963985236784
 31
0.0
  0
LINE
  5
33EED
330
2678E
100
AcDbEntity
  8
0
100
AcDbLine
 10
-887.1197167738865
 20
849.5963937076158
 30
0.0
 11
-887.1197167738865
 21
898.2963985236784
 31
0.0
  0
LINE
  5
33EEE
330
2678E
100
AcDbEntity
  8
0
100
AcDbLine
 10
848.8802250519729
 20
898.2963985236784
 30
0.0
 11
848.8802250519729
 21
849.5963937076158
 31
0.0
  0
LINE
  5
33EEF
330
2678E
100
AcDbEntity
  8
0
100
AcDbLine
 10
398.8802667752243
 20
898.2963985236784
 30
0.0
 11
398.8802667752243
 21
849.5963937076158
 31
0.0
  0
LINE
  5
33EF0
330
2678E
100
AcDbEntity
  8
0
100
AcDbLine
 10
396.8802627221157
 20
898.2963985236784
 30
0.0
 11
396.8802627221157
 21
849.5963937076158
 31
0.0
  0
LINE
  5
33EF1
330
2678E
100
AcDbEntity
  8
0
100
AcDbLine
 10
-435.1197544440292
 20
849.5963937076158
 30
0.0
 11
-435.1197544440292
 21
898.2963985236784
 31
0.0
  0
LINE
  5
33EF2
330
2678E
100
AcDbEntity
  8
0
100
AcDbLine
 10
-622.1197310790085
 20
145.1539820464677
 30
0.0
 11
-622.1197310790085
 21
134.5473951133317
 31
0.0
  0
LINE
  5
33EF3
330
2678E
100
AcDbEntity
  8
0
100
AcDbLine
 10
-622.1197310790085
 20
145.1539820464677
 30
0.0
 11
-617.1197358473801
 21
145.1539820464677
 31
0.0
  0
LWPOLYLINE
  5
33EF4
330
2678E
100
AcDbEntity
  8
0
100
AcDbPolyline
 90
        9
 70
   128
 43
0.0
 10
-622.1197310790085
 20
180.5093115600175
 10
-623.0952206954025
 20
180.4413622649736
 10
-624.0331593855808
 20
180.2401965888566
 10
-624.8976055487656
 20
179.9135035308427
 10
-625.655299793143
 20
179.4738000663346
 10
-626.2770954474472
 20
178.9380139144487
 10
-626.739150653746
 20
178.326768282277
 10
-627.023643623259
 20
177.6635473998612
 10
-627.1197263106369
 20
176.9738024505204
  0
LINE
  5
33EF5
330
2678E
100
AcDbEntity
  8
0
100
AcDbLine
 10
-617.1197358473801
 20
180.5093115600175
 30
0.0
 11
-622.1197310790085
 21
180.5093115600175
 31
0.0
  0
LWPOLYLINE
  5
33EF6
330
2678E
100
AcDbEntity
  8
0
100
AcDbPolyline
 90
        9
 70
   128
 43
0.0
 10
-627.1197263106369
 20
148.6894911559648
 10
-627.023643623259
 20
147.9997462066239
 10
-626.739150653746
 20
147.3365253242082
 10
-626.2770954474472
 20
146.7252796920365
 10
-625.655299793143
 20
146.1894935401506
 10
-624.8976055487656
 20
145.7498496802873
 10
-624.0331593855808
 20
145.4230970176286
 10
-623.0952206954025
 20
145.2219313415116
 10
-622.1197310790085
 20
145.1539820464677
  0
LINE
  5
33EF7
330
2678E
100
AcDbEntity
  8
0
100
AcDbLine
 10
-622.1197310790085
 20
220.4987829955644
 30
0.0
 11
-622.1197310790085
 21
224.0343517097063
 31
0.0
  0
LWPOLYLINE
  5
33EF8
330
2678E
100
AcDbEntity
  8
0
100
AcDbPolyline
 90
        9
 70
   128
 43
0.0
 10
-622.1197310790085
 20
220.4987829955644
 10
-623.0952206954025
 20
220.4308933051652
 10
-624.0331593855808
 20
220.2296680244035
 10
-624.8976055487656
 20
219.9029749663896
 10
-625.655299793143
 20
219.4632715018816
 10
-626.2770954474472
 20
218.9274853499956
 10
-626.739150653746
 20
218.3162397178239
 10
-627.023643623259
 20
217.6530188354082
 10
-627.1197263106369
 20
216.9632738860673
  0
LWPOLYLINE
  5
33EF9
330
2678E
100
AcDbEntity
  8
0
100
AcDbPolyline
 90
        9
 70
   128
 43
0.0
 10
-622.1197310790085
 20
224.0343517097063
 10
-623.0952206954025
 20
223.9664024146623
 10
-624.0331593855808
 20
223.7652367385454
 10
-624.8976055487656
 20
223.4384840758867
 10
-625.655299793143
 20
222.9987806113786
 10
-626.2770954474472
 20
222.4630540641374
 10
-626.739150653746
 20
221.8518084319658
 10
-627.023643623259
 20
221.1885279449052
 10
-627.1197263106369
 20
220.4987829955644
  0
LINE
  5
33EFA
330
2678E
100
AcDbEntity
  8
0
100
AcDbLine
 10
-617.1197358473801
 20
220.4987829955644
 30
0.0
 11
-622.1197310790085
 21
220.4987829955644
 31
0.0
  0
LINE
  5
33EFB
330
2678E
100
AcDbEntity
  8
0
100
AcDbLine
 10
-622.1197310790085
 20
185.1434534820146
 30
0.0
 11
-617.1197358473801
 21
185.1434534820146
 31
0.0
  0
LWPOLYLINE
  5
33EFC
330
2678E
100
AcDbEntity
  8
0
100
AcDbPolyline
 90
        9
 70
   128
 43
0.0
 10
-627.1197263106369
 20
188.6790221961564
 10
-627.023643623259
 20
187.9892772468156
 10
-626.739150653746
 20
187.3259967597551
 10
-626.2770954474472
 20
186.7147511275834
 10
-625.655299793143
 20
186.1790245803422
 10
-624.8976055487656
 20
185.7393211158342
 10
-624.0331593855808
 20
185.4125684531755
 10
-623.0952206954025
 20
185.2114027770585
 10
-622.1197310790085
 20
185.1434534820146
  0
LINE
  5
33EFD
330
2678E
100
AcDbEntity
  8
0
100
AcDbLine
 10
-617.1197358473801
 20
224.0343517097063
 30
0.0
 11
-622.1197310790085
 21
224.0343517097063
 31
0.0
  0
LINE
  5
33EFE
330
2678E
100
AcDbEntity
  8
0
100
AcDbLine
 10
583.8802393570877
 20
180.5093115600175
 30
0.0
 11
578.8802441254593
 21
180.5093115600175
 31
0.0
  0
LWPOLYLINE
  5
33EFF
330
2678E
100
AcDbEntity
  8
0
100
AcDbPolyline
 90
        9
 70
   128
 43
0.0
 10
588.8802345887161
 20
176.9738024505204
 10
588.7841519013382
 20
177.6635473998612
 10
588.4996589318252
 20
178.326768282277
 10
588.0376037255264
 20
178.9380139144487
 10
587.4158080712295
 20
179.4738000663346
 10
586.6581138268448
 20
179.9135035308427
 10
585.7936676636673
 20
180.2401965888566
 10
584.8557289734817
 20
180.4413622649736
 10
583.8802393570877
 20
180.5093115600175
  0
LWPOLYLINE
  5
33F00
330
2678E
100
AcDbEntity
  8
0
100
AcDbPolyline
 90
        9
 70
   128
 43
0.0
 10
583.8802393570877
 20
145.1539820464677
 10
584.8557289734817
 20
145.2219313415116
 10
585.7936676636673
 20
145.4230970176286
 10
586.6581138268448
 20
145.7498496802873
 10
587.4158080712295
 20
146.1894935401506
 10
588.0376037255264
 20
146.7252796920365
 10
588.4996589318252
 20
147.3365253242082
 10
588.7841519013382
 20
147.9997462066239
 10
588.8802345887161
 20
148.6894911559648
  0
LINE
  5
33F01
330
2678E
100
AcDbEntity
  8
0
100
AcDbLine
 10
578.8802441254593
 20
145.1539820464677
 30
0.0
 11
583.8802393570877
 21
145.1539820464677
 31
0.0
  0
LINE
  5
33F02
330
2678E
100
AcDbEntity
  8
0
100
AcDbLine
 10
583.8802393570877
 20
145.1539820464677
 30
0.0
 11
583.8802393570877
 21
134.5473951133317
 31
0.0
  0
LINE
  5
33F03
330
2678E
100
AcDbEntity
  8
0
100
AcDbLine
 10
583.8802393570877
 20
220.4987829955644
 30
0.0
 11
578.8802441254593
 21
220.4987829955644
 31
0.0
  0
LWPOLYLINE
  5
33F04
330
2678E
100
AcDbEntity
  8
0
100
AcDbPolyline
 90
        9
 70
   128
 43
0.0
 10
588.8802345887161
 20
216.9632738860673
 10
588.7841519013382
 20
217.6530188354082
 10
588.4996589318252
 20
218.3162397178239
 10
588.0376037255264
 20
218.9274853499956
 10
587.4158080712295
 20
219.4632715018816
 10
586.6581138268448
 20
219.9029749663896
 10
585.7936676636673
 20
220.2296680244035
 10
584.8557289734817
 20
220.4308933051652
 10
583.8802393570877
 20
220.4987829955644
  0
LWPOLYLINE
  5
33F05
330
2678E
100
AcDbEntity
  8
0
100
AcDbPolyline
 90
        9
 70
   128
 43
0.0
 10
583.8802393570877
 20
185.1434534820146
 10
584.8557289734817
 20
185.2114027770585
 10
585.7936676636673
 20
185.4125684531755
 10
586.6581138268448
 20
185.7393211158342
 10
587.4158080712295
 20
186.1790245803422
 10
588.0376037255264
 20
186.7147511275834
 10
588.4996589318252
 20
187.3259967597551
 10
588.7841519013382
 20
187.9892772468156
 10
588.8802345887161
 20
188.6790221961564
  0
LINE
  5
33F06
330
2678E
100
AcDbEntity
  8
0
100
AcDbLine
 10
578.8802441254593
 20
185.1434534820146
 30
0.0
 11
583.8802393570877
 21
185.1434534820146
 31
0.0
  0
LINE
  5
33F07
330
2678E
100
AcDbEntity
  8
0
100
AcDbLine
 10
583.8802393570877
 20
220.4987829955644
 30
0.0
 11
583.8802393570877
 21
224.0343517097063
 31
0.0
  0
LINE
  5
33F08
330
2678E
100
AcDbEntity
  8
0
100
AcDbLine
 10
583.8802393570877
 20
224.0343517097063
 30
0.0
 11
578.8802441254593
 21
224.0343517097063
 31
0.0
  0
LWPOLYLINE
  5
33F09
330
2678E
100
AcDbEntity
  8
0
100
AcDbPolyline
 90
        9
 70
   128
 43
0.0
 10
588.8802345887161
 20
220.4987829955644
 10
588.7841519013382
 20
221.1885279449052
 10
588.4996589318252
 20
221.8518084319658
 10
588.0376037255264
 20
222.4630540641374
 10
587.4158080712295
 20
222.9987806113786
 10
586.6581138268448
 20
223.4384840758867
 10
585.7936676636673
 20
223.7652367385454
 10
584.8557289734817
 20
223.9664024146623
 10
583.8802393570877
 20
224.0343517097063
  0
LINE
  5
33F0A
330
2678E
100
AcDbEntity
  8
0
100
AcDbLine
 10
-564.6197263106369
 20
227.6964014800615
 30
0.0
 11
-564.6197263106369
 21
232.6963967116899
 31
0.0
  0
LINE
  5
33F0B
330
2678E
100
AcDbEntity
  8
0
100
AcDbLine
 10
-559.6197310790085
 20
227.6964014800615
 30
0.0
 11
-567.1197239264511
 21
227.6964014800615
 31
0.0
  0
LINE
  5
33F0C
330
2678E
100
AcDbEntity
  8
0
100
AcDbLine
 10
-619.619733463187
 20
227.6964014800615
 30
0.0
 11
-619.619733463187
 21
232.6963967116899
 31
0.0
  0
LINE
  5
33F0D
330
2678E
100
AcDbEntity
  8
0
100
AcDbLine
 10
-559.6197310790085
 20
227.6964014800615
 30
0.0
 11
-559.6197310790085
 21
232.6963967116899
 31
0.0
  0
LINE
  5
33F0E
330
2678E
100
AcDbEntity
  8
0
100
AcDbLine
 10
-624.6197286948227
 20
227.6964014800615
 30
0.0
 11
-624.6197286948227
 21
232.6963967116899
 31
0.0
  0
LINE
  5
33F0F
330
2678E
100
AcDbEntity
  8
0
100
AcDbLine
 10
-617.1197358473801
 20
227.6964014800615
 30
0.0
 11
-624.6197286948227
 21
227.6964014800615
 31
0.0
  0
LINE
  5
33F10
330
2678E
100
AcDbEntity
  8
0
100
AcDbLine
 10
586.3802369729019
 20
227.6964014800615
 30
0.0
 11
586.3802369729019
 21
232.6963967116899
 31
0.0
  0
LINE
  5
33F11
330
2678E
100
AcDbEntity
  8
0
100
AcDbLine
 10
581.3802417412735
 20
227.6964014800615
 30
0.0
 11
581.3802417412735
 21
232.6963967116899
 31
0.0
  0
LINE
  5
33F12
330
2678E
100
AcDbEntity
  8
0
100
AcDbLine
 10
586.3802369729019
 20
227.6964014800615
 30
0.0
 11
578.8802441254593
 21
227.6964014800615
 31
0.0
  0
LINE
  5
33F13
330
2678E
100
AcDbEntity
  8
0
100
AcDbLine
 10
526.3802345887161
 20
227.6964014800615
 30
0.0
 11
526.3802345887161
 21
232.6963967116899
 31
0.0
  0
LINE
  5
33F14
330
2678E
100
AcDbEntity
  8
0
100
AcDbLine
 10
521.3802393570877
 20
227.6964014800615
 30
0.0
 11
521.3802393570877
 21
232.6963967116899
 31
0.0
  0
LINE
  5
33F15
330
2678E
100
AcDbEntity
  8
0
100
AcDbLine
 10
528.8802322045303
 20
232.6963967116899
 30
0.0
 11
521.3802393570877
 21
232.6963967116899
 31
0.0
  0
LINE
  5
33F16
330
2678E
100
AcDbEntity
  8
0
100
AcDbLine
 10
528.8802322045303
 20
227.6964014800615
 30
0.0
 11
521.3802393570877
 21
227.6964014800615
 31
0.0
  0
LINE
  5
33F17
330
2678E
100
AcDbEntity
  8
0
100
AcDbLine
 10
-617.1197358473801
 20
716.4464122088975
 30
0.0
 11
-567.1197239264511
 21
716.4464122088975
 31
0.0
  0
LINE
  5
33F18
330
2678E
100
AcDbEntity
  8
0
100
AcDbLine
 10
528.8802322045303
 20
716.4464122088975
 30
0.0
 11
578.8802441254593
 21
716.4464122088975
 31
0.0
  0
LINE
  5
33F19
330
2678E
100
AcDbEntity
  8
0
100
AcDbLine
 10
-567.1197239264511
 20
718.8119715484208
 30
0.0
 11
-617.1197358473801
 21
718.8119715484208
 31
0.0
  0
ARC
  5
33F1A
330
2678E
100
AcDbEntity
  8
0
100
AcDbCircle
 10
-614.429634913773
 20
718.4074820439928
 30
0.0
 40
2.720340933077558
100
AcDbArc
 50
83.459528652438
 51
171.4489393905357
  0
LINE
  5
33F1B
330
2678E
100
AcDbEntity
  8
0
100
AcDbLine
 10
-570.1197449072861
 20
721.1101180347104
 30
0.0
 11
-614.1197744711899
 21
721.1101180347104
 31
0.0
  0
ARC
  5
33F1C
330
2678E
100
AcDbEntity
  8
0
100
AcDbCircle
 10
-569.8099064389825
 20
718.4073835874296
 30
0.0
 40
2.720436246074699
100
AcDbArc
 50
8.552855703457886
 51
96.53977535836311
  0
LINE
  5
33F1D
330
2678E
100
AcDbEntity
  8
0
100
AcDbLine
 10
-570.1197449072861
 20
721.1101180347104
 30
0.0
 11
-570.1197449072861
 21
913.9464026721544
 31
0.0
  0
LINE
  5
33F1E
330
2678E
100
AcDbEntity
  8
0
100
AcDbLine
 10
-614.1197744711899
 20
721.1101180347104
 30
0.0
 11
-614.1197744711899
 21
913.9464026721544
 31
0.0
  0
LINE
  5
33F1F
330
2678E
100
AcDbEntity
  8
0
100
AcDbLine
 10
-570.1197449072861
 20
913.9464026721544
 30
0.0
 11
-614.1197744711899
 21
913.9464026721544
 31
0.0
  0
LINE
  5
33F20
330
2678E
100
AcDbEntity
  8
0
100
AcDbLine
 10
-617.1197358473801
 20
398.9463871749467
 30
0.0
 11
-617.1197358473801
 21
911.6482710870332
 31
0.0
  0
ARC
  5
33F21
330
2678E
100
AcDbEntity
  8
0
100
AcDbCircle
 10
-614.4296335652325
 20
911.2437622982978
 30
0.0
 40
2.720345134088449
100
AcDbArc
 50
83.45956738604391
 51
171.4485419634687
  0
LINE
  5
33F22
330
2678E
100
AcDbEntity
  8
0
100
AcDbLine
 10
-567.1197239264511
 20
398.9463871749467
 30
0.0
 11
-567.1197239264511
 21
911.6482710870332
 31
0.0
  0
ARC
  5
33F23
330
2678E
100
AcDbEntity
  8
0
100
AcDbCircle
 10
-569.8099077882361
 20
911.2436638401341
 30
0.0
 40
2.720440448618242
100
AcDbArc
 50
8.553253144587833
 51
96.53973660844441
  0
LINE
  5
33F24
330
2678E
100
AcDbEntity
  8
0
100
AcDbLine
 10
-614.1197744711899
 20
398.9463871749467
 30
0.0
 11
-614.1197744711899
 21
718.8119715484208
 31
0.0
  0
LINE
  5
33F25
330
2678E
100
AcDbEntity
  8
0
100
AcDbLine
 10
-570.1197449072861
 20
718.8119715484208
 30
0.0
 11
-570.1197449072861
 21
398.9463871749467
 31
0.0
  0
LINE
  5
33F26
330
2678E
100
AcDbEntity
  8
0
100
AcDbLine
 10
531.8802531853653
 20
721.1101180347104
 30
0.0
 11
531.8802531853653
 21
913.9464026721544
 31
0.0
  0
ARC
  5
33F27
330
2678E
100
AcDbEntity
  8
0
100
AcDbCircle
 10
531.570414717069
 20
718.4073835874296
 30
0.0
 40
2.720436246074699
100
AcDbArc
 50
83.46022464163688
 51
171.4471442965421
  0
LINE
  5
33F28
330
2678E
100
AcDbEntity
  8
0
100
AcDbLine
 10
528.8802322045303
 20
398.9463871749467
 30
0.0
 11
528.8802322045303
 21
911.6482710870332
 31
0.0
  0
ARC
  5
33F29
330
2678E
100
AcDbEntity
  8
0
100
AcDbCircle
 10
531.5704160663226
 20
911.2436638401341
 30
0.0
 40
2.720440448619367
100
AcDbArc
 50
83.46026339155562
 51
171.4467468554121
  0
LINE
  5
33F2A
330
2678E
100
AcDbEntity
  8
0
100
AcDbLine
 10
578.8802441254593
 20
718.8119715484208
 30
0.0
 11
528.8802322045303
 21
718.8119715484208
 31
0.0
  0
LINE
  5
33F2B
330
2678E
100
AcDbEntity
  8
0
100
AcDbLine
 10
575.8802827492691
 20
721.1101180347104
 30
0.0
 11
531.8802531853653
 21
721.1101180347104
 31
0.0
  0
ARC
  5
33F2C
330
2678E
100
AcDbEntity
  8
0
100
AcDbCircle
 10
576.1901431918595
 20
718.4074820439928
 30
0.0
 40
2.720340933077622
100
AcDbArc
 50
8.551060609464251
 51
96.54047134756201
  0
LINE
  5
33F2D
330
2678E
100
AcDbEntity
  8
0
100
AcDbLine
 10
575.8802827492691
 20
721.1101180347104
 30
0.0
 11
575.8802827492691
 21
913.9464026721544
 31
0.0
  0
LINE
  5
33F2E
330
2678E
100
AcDbEntity
  8
0
100
AcDbLine
 10
575.8802827492691
 20
913.9464026721544
 30
0.0
 11
531.8802531853653
 21
913.9464026721544
 31
0.0
  0
LINE
  5
33F2F
330
2678E
100
AcDbEntity
  8
0
100
AcDbLine
 10
578.8802441254593
 20
398.9463871749467
 30
0.0
 11
578.8802441254593
 21
911.6482710870332
 31
0.0
  0
ARC
  5
33F30
330
2678E
100
AcDbEntity
  8
0
100
AcDbCircle
 10
576.190141843319
 20
911.2437622982978
 30
0.0
 40
2.720345134088384
100
AcDbArc
 50
8.551458036531242
 51
96.5404326139561
  0
LINE
  5
33F31
330
2678E
100
AcDbEntity
  8
0
100
AcDbLine
 10
531.8802531853653
 20
398.9463871749467
 30
0.0
 11
531.8802531853653
 21
718.8119715484208
 31
0.0
  0
LINE
  5
33F32
330
2678E
100
AcDbEntity
  8
0
100
AcDbLine
 10
575.8802827492691
 20
718.8119715484208
 30
0.0
 11
575.8802827492691
 21
398.9463871749467
 31
0.0
  0
LINE
  5
33F33
330
2678E
100
AcDbEntity
  8
0
100
AcDbLine
 10
-460.1454500063919
 20
1016.446401778092
 30
0.0
 11
-512.1197465762161
 21
1016.446401778092
 31
0.0
  0
LWPOLYLINE
  5
33F34
330
2678E
100
AcDbEntity
  8
0
100
AcDbPolyline
 90
        9
 70
   128
 43
0.0
 10
-459.0535525187515
 20
1013.446403148999
 10
-459.2665497168491
 20
1014.031668606629
 10
-459.4714108809494
 20
1014.594448212017
 10
-459.6601787909531
 20
1015.113112929684
 10
-459.8256412848423
 20
1015.567725005967
 10
-459.9614206656479
 20
1015.940812829358
 10
-460.0623313292526
 20
1016.218041482796
 10
-460.124469171431
 20
1016.388756636006
 10
-460.1454500063919
 20
1016.446401778092
  0
LINE
  5
33F35
330
2678E
100
AcDbEntity
  8
0
100
AcDbLine
 10
-459.0535525187515
 20
1013.446403148999
 30
0.0
 11
-512.1197465762161
 21
1013.446403148999
 31
0.0
  0
LINE
  5
33F36
330
2678E
100
AcDbEntity
  8
0
100
AcDbLine
 10
-432.1197334631943
 20
939.4464021953245
 30
0.0
 11
-512.1197465762161
 21
939.4464021953245
 31
0.0
  0
LINE
  5
33F37
330
2678E
100
AcDbEntity
  8
0
100
AcDbLine
 10
-432.1197334631943
 20
939.4464021953245
 30
0.0
 11
-459.0535525187515
 21
1013.446403148999
 31
0.0
  0
LINE
  5
33F38
330
2678E
100
AcDbEntity
  8
0
100
AcDbLine
 10
-432.1197334631943
 20
939.4464021953245
 30
0.0
 11
-432.1197334631943
 21
936.4463961156435
 31
0.0
  0
LINE
  5
33F39
330
2678E
100
AcDbEntity
  8
0
100
AcDbLine
 10
-432.1197334631943
 20
936.4463961156435
 30
0.0
 11
-512.1197465762161
 21
936.4463961156435
 31
0.0
  0
LINE
  5
33F3A
330
2678E
100
AcDbEntity
  8
0
100
AcDbLine
 10
393.8802417412735
 20
939.4464021953245
 30
0.0
 11
473.8802548542953
 21
939.4464021953245
 31
0.0
  0
LINE
  5
33F3B
330
2678E
100
AcDbEntity
  8
0
100
AcDbLine
 10
420.8140607968379
 20
1013.446403148999
 30
0.0
 11
473.8802548542953
 21
1013.446403148999
 31
0.0
  0
LINE
  5
33F3C
330
2678E
100
AcDbEntity
  8
0
100
AcDbLine
 10
420.8140607968379
 20
1013.446403148999
 30
0.0
 11
393.8802417412735
 21
939.4464021953245
 31
0.0
  0
LINE
  5
33F3D
330
2678E
100
AcDbEntity
  8
0
100
AcDbLine
 10
421.9059582844783
 20
1016.446401778092
 30
0.0
 11
473.8802548542953
 21
1016.446401778092
 31
0.0
  0
LWPOLYLINE
  5
33F3E
330
2678E
100
AcDbEntity
  8
0
100
AcDbPolyline
 90
       10
 70
   128
 43
0.0
 10
421.9059582844783
 20
1016.446401778092
 10
421.8893881932236
 20
1016.400826576573
 10
421.8401249543167
 20
1016.265479329457
 10
421.7596884861995
 20
1016.044480207791
 10
421.6504927769638
 20
1015.74453473412
 10
421.5159054890682
 20
1015.374762419094
 10
421.3600095406509
 20
1014.946398738248
 10
421.187513698671
 20
1014.472459855904
 10
421.0036631718613
 20
1013.967347744336
 10
420.8140607968379
 20
1013.446403148999
  0
LINE
  5
33F3F
330
2678E
100
AcDbEntity
  8
0
100
AcDbLine
 10
393.8802417412735
 20
936.4463961156435
 30
0.0
 11
473.8802548542953
 21
936.4463961156435
 31
0.0
  0
LINE
  5
33F40
330
2678E
100
AcDbEntity
  8
0
100
AcDbLine
 10
393.8802417412735
 20
936.4463961156435
 30
0.0
 11
393.8802417412735
 21
939.4464021953245
 31
0.0
  0
LINE
  5
33F41
330
2678E
100
AcDbEntity
  8
0
100
AcDbLine
 10
265.851789344888
 20
1141.66600438155
 30
0.0
 11
419.4944139615108
 21
1012.744536105019
 31
0.0
  0
LINE
  5
33F42
330
2678E
100
AcDbEntity
  8
0
100
AcDbLine
 10
419.4944139615108
 20
1012.744536105019
 30
0.0
 11
392.5606247082687
 21
938.7445277007646
 31
0.0
  0
LINE
  5
33F43
330
2678E
100
AcDbEntity
  8
0
100
AcDbLine
 10
238.9180000916458
 20
1067.666006687504
 30
0.0
 11
392.5606247082687
 21
938.7445277007646
 31
0.0
  0
LINE
  5
33F44
330
2678E
100
AcDbEntity
  8
0
100
AcDbLine
 10
238.9180000916458
 20
1067.666006687504
 30
0.0
 11
265.851789344888
 21
1141.66600438155
 31
0.0
  0
CIRCLE
  5
33F45
330
2678E
100
AcDbEntity
  8
0
100
AcDbCircle
 10
283.2435373565095
 20
1078.772525899403
 30
0.0
 40
4.399999999999985
  0
CIRCLE
  5
33F46
330
2678E
100
AcDbEntity
  8
0
100
AcDbCircle
 10
375.1688705307824
 20
1001.638012737014
 30
0.0
 40
4.39999999999955
  0
LWPOLYLINE
  5
33F47
330
2678E
100
AcDbEntity
  8
0
100
AcDbPolyline
 90
        9
 70
   128
 43
0.0
 10
265.851789344888
 20
1141.66600438155
 10
266.2279840603805
 20
1142.114348191251
 10
266.5897544518448
 20
1142.545462067654
 10
266.9231232300735
 20
1142.942779179146
 10
267.2153350010849
 20
1143.291029560787
 10
267.455154289346
 20
1143.576831969847
 10
267.6333721772244
 20
1143.789202387859
 10
267.7431043282486
 20
1143.919979635102
 10
267.7801486149838
 20
1143.964137363662
  0
LINE
  5
33F48
330
2678E
100
AcDbEntity
  8
0
100
AcDbLine
 10
267.7801486149838
 20
1143.964137363662
 30
0.0
 11
420.5863114491512
 21
1015.74453473412
 31
0.0
  0
LWPOLYLINE
  5
33F49
330
2678E
100
AcDbEntity
  8
0
100
AcDbPolyline
 90
        9
 70
   128
 43
0.0
 10
420.5863114491512
 20
1015.74453473412
 10
420.565330614183
 20
1015.686889592041
 10
420.5032225743343
 20
1015.516174438824
 10
420.4023119107223
 20
1015.238945785386
 10
420.2665027276016
 20
1014.865857961995
 10
420.1010402337123
 20
1014.411245885712
 10
419.9122723237015
 20
1013.892581168045
 10
419.707440961938
 20
1013.329801562657
 10
419.4944139615108
 20
1012.744536105019
  0
LWPOLYLINE
  5
33F4A
330
2678E
100
AcDbEntity
  8
0
100
AcDbPolyline
 90
        9
 70
   128
 43
0.0
 10
390.6322654381729
 20
936.4463961156435
 10
390.6693097249081
 20
936.490563157422
 10
390.7790418759323
 20
936.6213357480592
 10
390.9572299614883
 20
936.8337070974012
 10
391.1970492497494
 20
937.1195113690992
 10
391.4892908230759
 20
937.4677664073606
 10
391.8226596013119
 20
937.8650760682649
 10
392.1844001904537
 20
938.2961964639326
 10
392.5606247082687
 20
938.7445277007646
  0
LINE
  5
33F4B
330
2678E
100
AcDbEntity
  8
0
100
AcDbLine
 10
237.826072801683
 20
1064.666000607838
 30
0.0
 11
390.6322654381729
 21
936.4463961156435
 31
0.0
  0
LWPOLYLINE
  5
33F4C
330
2678E
100
AcDbEntity
  8
0
100
AcDbPolyline
 90
        9
 70
   128
 43
0.0
 10
237.826072801683
 20
1064.666000607838
 10
237.847053636644
 20
1064.723645749916
 10
237.9091914788223
 20
1064.894368353707
 10
238.0101021424271
 20
1065.171597007145
 10
238.1458815232254
 20
1065.544684830536
 10
238.3113738194443
 20
1065.999296906819
 10
238.5001417294552
 20
1066.517954173912
 10
238.7049730912186
 20
1067.080733779301
 10
238.9180000916458
 20
1067.666006687504
  0
LINE
  5
33F4D
330
2678E
100
AcDbEntity
  8
0
100
AcDbLine
 10
-306.0196403368973
 20
1143.964137363662
 30
0.0
 11
-458.8258031710648
 21
1015.74453473412
 31
0.0
  0
LWPOLYLINE
  5
33F4E
330
2678E
100
AcDbEntity
  8
0
100
AcDbPolyline
 90
        9
 70
   128
 43
0.0
 10
-306.0196403368973
 20
1143.964137363662
 10
-305.9825960501694
 20
1143.919979635102
 10
-305.8728638991379
 20
1143.789202387859
 10
-305.6946460112595
 20
1143.576831969847
 10
-305.4548267229984
 20
1143.291029560787
 10
-305.162614951987
 20
1142.942779179146
 10
-304.8292461737656
 20
1142.545462067654
 10
-304.467475782294
 20
1142.114348191251
 10
-304.0912810668014
 20
1141.66600438155
  0
LINE
  5
33F4F
330
2678E
100
AcDbEntity
  8
0
100
AcDbLine
 10
-304.0912810668014
 20
1141.66600438155
 30
0.0
 11
-457.7339056834244
 21
1012.744536105019
 31
0.0
  0
LWPOLYLINE
  5
33F50
330
2678E
100
AcDbEntity
  8
0
100
AcDbPolyline
 90
       10
 70
   128
 43
0.0
 10
-457.7339056834244
 20
1012.744536105019
 10
-457.9235080584476
 20
1013.265480700356
 10
-458.1073585852646
 20
1013.770592811925
 10
-458.2798544272446
 20
1014.244531694283
 10
-458.435780177977
 20
1014.672895375115
 10
-458.5703674658725
 20
1015.04266769014
 10
-458.6795333727859
 20
1015.342613163819
 10
-458.7599698409103
 20
1015.563612285477
 10
-458.8092330798099
 20
1015.698959532608
 10
-458.8258031710648
 20
1015.74453473412
  0
LINE
  5
33F51
330
2678E
100
AcDbEntity
  8
0
100
AcDbLine
 10
-277.1574918135666
 20
1067.666006687504
 30
0.0
 11
-430.8001164301822
 21
938.7445277007646
 31
0.0
  0
LINE
  5
33F52
330
2678E
100
AcDbEntity
  8
0
100
AcDbLine
 10
-430.8001164301822
 20
938.7445277007646
 30
0.0
 11
-457.7339056834244
 21
1012.744536105019
 31
0.0
  0
LINE
  5
33F53
330
2678E
100
AcDbEntity
  8
0
100
AcDbLine
 10
-304.0912810668014
 20
1141.66600438155
 30
0.0
 11
-277.1574918135666
 21
1067.666006687504
 31
0.0
  0
CIRCLE
  5
33F54
330
2678E
100
AcDbEntity
  8
0
100
AcDbCircle
 10
-321.483029078423
 20
1078.772525899403
 30
0.0
 40
5.025000000000678
  0
CIRCLE
  5
33F55
330
2678E
100
AcDbEntity
  8
0
100
AcDbCircle
 10
-413.4083622527032
 20
1001.638012737021
 30
0.0
 40
5.024999999999077
  0
CIRCLE
  5
33F56
330
2678E
100
AcDbEntity
  8
0
100
AcDbCircle
 10
-321.483029078423
 20
1078.772525899403
 30
0.0
 40
4.40000000000042
  0
LINE
  5
33F57
330
2678E
100
AcDbEntity
  8
0
100
AcDbLine
 10
-276.0655645235965
 20
1064.666000607838
 30
0.0
 11
-428.8717571600864
 21
936.4463961156435
 31
0.0
  0
LWPOLYLINE
  5
33F58
330
2678E
100
AcDbEntity
  8
0
100
AcDbPolyline
 90
        9
 70
   128
 43
0.0
 10
-430.8001164301822
 20
938.7445277007646
 10
-430.4238919123672
 20
938.2961964639326
 10
-430.0621513232254
 20
937.8650760682649
 10
-429.7287825449966
 20
937.4677664073606
 10
-429.4365409716629
 20
937.1195113690992
 10
-429.1967216834091
 20
936.8337070974012
 10
-429.0185335978458
 20
936.6213357480592
 10
-428.9088014468216
 20
936.490563157422
 10
-428.8717571600864
 20
936.4463961156435
  0
LWPOLYLINE
  5
33F59
330
2678E
100
AcDbEntity
  8
0
100
AcDbPolyline
 90
        9
 70
   128
 43
0.0
 10
-277.1574918135666
 20
1067.666006687504
 10
-276.9444648131321
 20
1067.080733779301
 10
-276.7396334513687
 20
1066.517954173912
 10
-276.550865541365
 20
1065.999296906819
 10
-276.3853732451389
 20
1065.544684830536
 10
-276.2495938643406
 20
1065.171597007145
 10
-276.1486832007431
 20
1064.894368353707
 10
-276.0865453585648
 20
1064.723645749916
 10
-276.0655645235965
 20
1064.666000607838
  0
CIRCLE
  5
33F5A
330
2678E
100
AcDbEntity
  8
0
100
AcDbCircle
 10
-413.4083622527032
 20
1001.638012737021
 30
0.0
 40
4.39999999999955
  0
LINE
  5
33F5B
330
2678E
100
AcDbEntity
  8
0
100
AcDbLine
 10
521.3802393570877
 20
398.9463871749467
 30
0.0
 11
521.3802393570877
 21
388.9463967116899
 31
0.0
  0
LINE
  5
33F5C
330
2678E
100
AcDbEntity
  8
0
100
AcDbLine
 10
531.3802298203445
 20
398.9463871749467
 30
0.0
 11
531.3802298203445
 21
388.9463967116899
 31
0.0
  0
LINE
  5
33F5D
330
2678E
100
AcDbEntity
  8
0
100
AcDbLine
 10
521.3802393570877
 20
398.9463871749467
 30
0.0
 11
586.3802369729019
 21
398.9463871749467
 31
0.0
  0
LINE
  5
33F5E
330
2678E
100
AcDbEntity
  8
0
100
AcDbLine
 10
576.3802465096451
 20
398.9463871749467
 30
0.0
 11
576.3802465096451
 21
388.9463967116899
 31
0.0
  0
LINE
  5
33F5F
330
2678E
100
AcDbEntity
  8
0
100
AcDbLine
 10
586.3802369729019
 20
398.9463871749467
 30
0.0
 11
586.3802369729019
 21
388.9463967116899
 31
0.0
  0
LINE
  5
33F60
330
2678E
100
AcDbEntity
  8
0
100
AcDbLine
 10
521.3802393570877
 20
-650.5536013809614
 30
0.0
 11
521.3802393570877
 21
-660.5535918442183
 31
0.0
  0
LINE
  5
33F61
330
2678E
100
AcDbEntity
  8
0
100
AcDbLine
 10
521.3802393570877
 20
-650.5536013809614
 30
0.0
 11
586.3802369729019
 21
-650.5536013809614
 31
0.0
  0
LINE
  5
33F62
330
2678E
100
AcDbEntity
  8
0
100
AcDbLine
 10
531.3802298203445
 20
-650.5536013809614
 30
0.0
 11
531.3802298203445
 21
-660.5535918442183
 31
0.0
  0
LINE
  5
33F63
330
2678E
100
AcDbEntity
  8
0
100
AcDbLine
 10
521.3802393570877
 20
-660.5535918442183
 30
0.0
 11
586.3802369729019
 21
-660.5535918442183
 31
0.0
  0
LINE
  5
33F64
330
2678E
100
AcDbEntity
  8
0
100
AcDbLine
 10
576.3802465096451
 20
-650.5536013809614
 30
0.0
 11
576.3802465096451
 21
-660.5535918442183
 31
0.0
  0
LINE
  5
33F65
330
2678E
100
AcDbEntity
  8
0
100
AcDbLine
 10
586.3802369729019
 20
-650.5536013809614
 30
0.0
 11
586.3802369729019
 21
-660.5535918442183
 31
0.0
  0
LINE
  5
33F66
330
2678E
100
AcDbEntity
  8
0
100
AcDbLine
 10
-559.6197310790085
 20
238.9464205535478
 30
0.0
 11
-559.6197310790085
 21
248.9464110168047
 31
0.0
  0
LINE
  5
33F67
330
2678E
100
AcDbEntity
  8
0
100
AcDbLine
 10
-569.6197215422653
 20
238.9464205535478
 30
0.0
 11
-569.6197215422653
 21
248.9464110168047
 31
0.0
  0
LINE
  5
33F68
330
2678E
100
AcDbEntity
  8
0
100
AcDbLine
 10
-614.6197382315659
 20
238.9464205535478
 30
0.0
 11
-614.6197382315659
 21
248.9464110168047
 31
0.0
  0
LINE
  5
33F69
330
2678E
100
AcDbEntity
  8
0
100
AcDbLine
 10
-624.6197286948227
 20
238.9464205535478
 30
0.0
 11
-624.6197286948227
 21
248.9464110168047
 31
0.0
  0
LINE
  5
33F6A
330
2678E
100
AcDbEntity
  8
0
100
AcDbLine
 10
-559.6197310790085
 20
238.9464205535478
 30
0.0
 11
-624.6197286948227
 21
238.9464205535478
 31
0.0
  0
LINE
  5
33F6B
330
2678E
100
AcDbEntity
  8
0
100
AcDbLine
 10
-559.6197310790085
 20
-660.5535918442183
 30
0.0
 11
-559.6197310790085
 21
-650.5536013809614
 31
0.0
  0
LINE
  5
33F6C
330
2678E
100
AcDbEntity
  8
0
100
AcDbLine
 10
-569.6197215422653
 20
-660.5535918442183
 30
0.0
 11
-569.6197215422653
 21
-650.5536013809614
 31
0.0
  0
LINE
  5
33F6D
330
2678E
100
AcDbEntity
  8
0
100
AcDbLine
 10
-614.6197382315659
 20
-660.5535918442183
 30
0.0
 11
-614.6197382315659
 21
-650.5536013809614
 31
0.0
  0
LINE
  5
33F6E
330
2678E
100
AcDbEntity
  8
0
100
AcDbLine
 10
-624.6197286948227
 20
-660.5535918442183
 30
0.0
 11
-624.6197286948227
 21
-650.5536013809614
 31
0.0
  0
LINE
  5
33F6F
330
2678E
100
AcDbEntity
  8
0
100
AcDbLine
 10
-559.6197310790085
 20
-660.5535918442183
 30
0.0
 11
-624.6197286948227
 21
-660.5535918442183
 31
0.0
  0
LINE
  5
33F70
330
2678E
100
AcDbEntity
  8
0
100
AcDbLine
 10
-559.6197310790085
 20
-650.5536013809614
 30
0.0
 11
-624.6197286948227
 21
-650.5536013809614
 31
0.0
  0
LINE
  5
33F71
330
2678E
100
AcDbEntity
  8
0
100
AcDbLine
 10
-522.1197668417953
 20
1051.446398201813
 30
0.0
 11
-512.1197465762161
 21
1051.446398201813
 31
0.0
  0
LINE
  5
33F72
330
2678E
100
AcDbEntity
  8
0
100
AcDbLine
 10
-522.1197668417953
 20
1061.446403566224
 30
0.0
 11
-512.1197465762161
 21
1061.446403566224
 31
0.0
  0
LINE
  5
33F73
330
2678E
100
AcDbEntity
  8
0
100
AcDbLine
 10
-512.1197465762161
 20
898.2963985236784
 30
0.0
 11
-512.1197465762161
 21
1061.446403566224
 31
0.0
  0
LINE
  5
33F74
330
2678E
100
AcDbEntity
  8
0
100
AcDbLine
 10
-522.1197668417953
 20
901.4463996919221
 30
0.0
 11
-512.1197465762161
 21
901.4463996919221
 31
0.0
  0
LINE
  5
33F75
330
2678E
100
AcDbEntity
  8
0
100
AcDbLine
 10
-624.6197286948227
 20
398.9463871749467
 30
0.0
 11
-624.6197286948227
 21
388.904435041768
 31
0.0
  0
LINE
  5
33F76
330
2678E
100
AcDbEntity
  8
0
100
AcDbLine
 10
-624.6197286948227
 20
398.9463871749467
 30
0.0
 11
-559.6197310790085
 21
398.9463871749467
 31
0.0
  0
LINE
  5
33F77
330
2678E
100
AcDbEntity
  8
0
100
AcDbLine
 10
-614.6197382315659
 20
398.9463871749467
 30
0.0
 11
-614.6197382315659
 21
388.9463967116899
 31
0.0
  0
LINE
  5
33F78
330
2678E
100
AcDbEntity
  8
0
100
AcDbLine
 10
-569.6197215422653
 20
398.9463871749467
 30
0.0
 11
-569.6197215422653
 21
388.9463967116899
 31
0.0
  0
LINE
  5
33F79
330
2678E
100
AcDbEntity
  8
0
100
AcDbLine
 10
-559.6197310790085
 20
398.9463871749467
 30
0.0
 11
-559.6197310790085
 21
388.904435041768
 31
0.0
  0
LINE
  5
33F7A
330
2678E
100
AcDbEntity
  8
0
100
AcDbLine
 10
521.3802393570877
 20
248.9464110168047
 30
0.0
 11
521.3802393570877
 21
238.9464205535478
 31
0.0
  0
LINE
  5
33F7B
330
2678E
100
AcDbEntity
  8
0
100
AcDbLine
 10
531.3802298203445
 20
248.9464110168047
 30
0.0
 11
531.3802298203445
 21
238.9464205535478
 31
0.0
  0
LINE
  5
33F7C
330
2678E
100
AcDbEntity
  8
0
100
AcDbLine
 10
521.3802393570877
 20
238.9464205535478
 30
0.0
 11
586.3802369729019
 21
238.9464205535478
 31
0.0
  0
LINE
  5
33F7D
330
2678E
100
AcDbEntity
  8
0
100
AcDbLine
 10
576.3802465096451
 20
248.9464110168047
 30
0.0
 11
576.3802465096451
 21
238.9464205535478
 31
0.0
  0
LINE
  5
33F7E
330
2678E
100
AcDbEntity
  8
0
100
AcDbLine
 10
586.3802369729019
 20
248.9464110168047
 30
0.0
 11
586.3802369729019
 21
238.9464205535478
 31
0.0
  0
LINE
  5
33F7F
330
2678E
100
AcDbEntity
  8
0
100
AcDbLine
 10
473.8802548542953
 20
1051.446398201813
 30
0.0
 11
483.8802751198746
 21
1051.446398201813
 31
0.0
  0
LINE
  5
33F80
330
2678E
100
AcDbEntity
  8
0
100
AcDbLine
 10
473.8802548542953
 20
1061.446403566224
 30
0.0
 11
483.8802751198746
 21
1061.446403566224
 31
0.0
  0
LINE
  5
33F81
330
2678E
100
AcDbEntity
  8
0
100
AcDbLine
 10
473.8802548542953
 20
898.2963985236784
 30
0.0
 11
473.8802548542953
 21
1061.446403566224
 31
0.0
  0
LINE
  5
33F82
330
2678E
100
AcDbEntity
  8
0
100
AcDbLine
 10
473.8802548542953
 20
901.4463996919221
 30
0.0
 11
483.8802751198746
 21
901.4463996919221
 31
0.0
  0
LINE
  5
33F83
330
2678E
100
AcDbEntity
  8
0
100
AcDbLine
 10
-303.3697370394657
 20
1140.946400764813
 30
0.0
 11
265.1302453175522
 21
1140.946400764813
 31
0.0
  0
LINE
  5
33F84
330
2678E
100
AcDbEntity
  8
0
100
AcDbLine
 10
-303.3697370394657
 20
1140.946400764813
 30
0.0
 11
-303.3697370394657
 21
1143.946401256544
 31
0.0
  0
LINE
  5
33F85
330
2678E
100
AcDbEntity
  8
0
100
AcDbLine
 10
-303.3697370394657
 20
1143.946401256544
 30
0.0
 11
265.1302453175522
 21
1143.946401256544
 31
0.0
  0
LINE
  5
33F86
330
2678E
100
AcDbEntity
  8
0
100
AcDbLine
 10
265.1302453175522
 20
1140.946400764813
 30
0.0
 11
265.1302453175522
 21
1143.946401256544
 31
0.0
  0
LINE
  5
33F87
330
2678E
100
AcDbEntity
  8
0
100
AcDbLine
 10
265.1302453175522
 20
1140.946400764813
 30
0.0
 11
238.1964560643246
 21
1066.946399811139
 31
0.0
  0
LINE
  5
33F88
330
2678E
100
AcDbEntity
  8
0
100
AcDbLine
 10
-276.4359477862381
 20
1066.946399811139
 30
0.0
 11
238.1964560643246
 21
1066.946399811139
 31
0.0
  0
LINE
  5
33F89
330
2678E
100
AcDbEntity
  8
0
100
AcDbLine
 10
-303.3697370394657
 20
1140.946400764813
 30
0.0
 11
-276.4359477862381
 21
1066.946399811139
 31
0.0
  0
LINE
  5
33F8A
330
2678E
100
AcDbEntity
  8
0
100
AcDbLine
 10
-275.3440502985904
 20
1063.946401182045
 30
0.0
 11
237.1045585766769
 21
1063.946401182045
 31
0.0
  0
LWPOLYLINE
  5
33F8B
330
2678E
100
AcDbEntity
  8
0
100
AcDbPolyline
 90
        9
 70
   128
 43
0.0
 10
238.1964560643246
 20
1066.946399811139
 10
237.9834290638901
 20
1066.36112690292
 10
237.7785977021267
 20
1065.798347297532
 10
237.5898297921231
 20
1065.279690030438
 10
237.4243672982193
 20
1064.825077954156
 10
237.2885581150986
 20
1064.451990130765
 10
237.1876772538162
 20
1064.174761477341
 10
237.1255394116379
 20
1064.004046324116
 10
237.1045585766769
 20
1063.946401182045
  0
LWPOLYLINE
  5
33F8C
330
2678E
100
AcDbEntity
  8
0
100
AcDbPolyline
 90
        9
 70
   128
 43
0.0
 10
-276.4359477862381
 20
1066.946399811139
 10
-276.2229207858036
 20
1066.36112690292
 10
-276.0180894240402
 20
1065.798347297532
 10
-275.8293215140366
 20
1065.279690030438
 10
-275.6638590201328
 20
1064.825077954156
 10
-275.5280498370193
 20
1064.451990130765
 10
-275.427168975737
 20
1064.174761477341
 10
-275.3650311335587
 20
1064.004046324116
 10
-275.3440502985904
 20
1063.946401182045
  0
LINE
  5
33F8D
330
2678E
100
AcDbEntity
  8
0
100
AcDbLine
 10
-340.1197556361221
 20
-761.0535794464522
 30
0.0
 11
-368.1197527750919
 21
-761.0535794464522
 31
0.0
  0
LINE
  5
33F8E
330
2678E
100
AcDbEntity
  8
0
100
AcDbLine
 10
329.8802610531784
 20
-761.0535794464522
 30
0.0
 11
301.8802639142086
 21
-761.0535794464522
 31
0.0
  0
ARC
  5
33F8F
330
2678E
100
AcDbEntity
  8
0
100
AcDbCircle
 10
-398.4506332901074
 20
341.3214484207129
 30
0.0
 40
2.677948596384404
100
AcDbArc
 50
101.4199230991989
 51
188.0503737890738
  0
LINE
  5
33F90
330
2678E
100
AcDbEntity
  8
0
100
AcDbLine
 10
-547.1197429999374
 20
340.9464186461992
 30
0.0
 11
-401.1021915778183
 21
340.9464186461992
 31
0.0
  0
LINE
  5
33F91
330
2678E
100
AcDbEntity
  8
0
100
AcDbLine
 10
-547.1197429999374
 20
343.9463800223894
 30
0.0
 11
508.8802512780167
 21
343.9463800223894
 31
0.0
  0
LINE
  5
33F92
330
2678E
100
AcDbEntity
  8
0
100
AcDbLine
 10
-401.1021915778183
 20
296.9463890822954
 30
0.0
 11
-401.1021915778183
 21
340.9464186461992
 31
0.0
  0
LINE
  5
33F93
330
2678E
100
AcDbEntity
  8
0
100
AcDbLine
 10
-398.9808622702621
 20
343.9463800223894
 30
0.0
 11
-398.9808622702621
 21
293.9464277061052
 31
0.0
  0
ARC
  5
33F94
330
2678E
100
AcDbEntity
  8
0
100
AcDbCircle
 10
-398.4506332901074
 20
296.5713593077889
 30
0.0
 40
2.677948596384459
100
AcDbArc
 50
171.9496262109261
 51
258.5800769008011
  0
LINE
  5
33F95
330
2678E
100
AcDbEntity
  8
0
100
AcDbLine
 10
-547.1197429999374
 20
293.9464277061052
 30
0.0
 11
508.8802512780167
 21
293.9464277061052
 31
0.0
  0
LINE
  5
33F96
330
2678E
100
AcDbEntity
  8
0
100
AcDbLine
 10
-547.1197429999374
 20
296.9463890822954
 30
0.0
 11
-401.1021915778183
 21
296.9463890822954
 31
0.0
  0
LINE
  5
33F97
330
2678E
100
AcDbEntity
  8
0
100
AcDbLine
 10
360.7413705483486
 20
296.9463890822954
 30
0.0
 11
-398.9808622702621
 21
296.9463890822954
 31
0.0
  0
LINE
  5
33F98
330
2678E
100
AcDbEntity
  8
0
100
AcDbLine
 10
-398.9808622702621
 20
340.9464186461992
 30
0.0
 11
360.7413705483486
 21
340.9464186461992
 31
0.0
  0
LINE
  5
33F99
330
2678E
100
AcDbEntity
  8
0
100
AcDbLine
 10
-401.1021915778183
 20
-753.0535632339888
 30
0.0
 11
-401.1021915778183
 21
-709.0536528793745
 31
0.0
  0
ARC
  5
33F9A
330
2678E
100
AcDbEntity
  8
0
100
AcDbCircle
 10
-398.450653743952
 20
-708.6785564889141
 30
0.0
 40
2.677937674136295
100
AcDbArc
 50
101.41952384503
 51
188.0518463098639
  0
LINE
  5
33F9B
330
2678E
100
AcDbEntity
  8
0
100
AcDbLine
 10
-398.9808622702621
 20
-706.0536318985396
 30
0.0
 11
-398.9808622702621
 21
-756.0535842148238
 31
0.0
  0
ARC
  5
33F9C
330
2678E
100
AcDbEntity
  8
0
100
AcDbCircle
 10
-398.4505197115577
 20
-753.4285648494842
 30
0.0
 40
2.678057112525968
100
AcDbArc
 50
171.9505630231241
 51
258.5780668216785
  0
LINE
  5
33F9D
330
2678E
100
AcDbEntity
  8
0
100
AcDbLine
 10
-547.1197429999374
 20
-709.0536528793745
 30
0.0
 11
-401.1021915778183
 21
-709.0536528793745
 31
0.0
  0
LINE
  5
33F9E
330
2678E
100
AcDbEntity
  8
0
100
AcDbLine
 10
-547.1197429999374
 20
-706.0536318985396
 30
0.0
 11
508.8802512780167
 21
-706.0536318985396
 31
0.0
  0
LINE
  5
33F9F
330
2678E
100
AcDbEntity
  8
0
100
AcDbLine
 10
-547.1197429999374
 20
-756.0535842148238
 30
0.0
 11
508.8802512780167
 21
-756.0535842148238
 31
0.0
  0
LINE
  5
33FA0
330
2678E
100
AcDbEntity
  8
0
100
AcDbLine
 10
-547.1197429999374
 20
-753.0535632339888
 30
0.0
 11
-401.1021915778183
 21
-753.0535632339888
 31
0.0
  0
LINE
  5
33FA1
330
2678E
100
AcDbEntity
  8
0
100
AcDbLine
 10
360.7413705483486
 20
-753.0535632339888
 30
0.0
 11
-398.9808622702621
 21
-753.0535632339888
 31
0.0
  0
LINE
  5
33FA2
330
2678E
100
AcDbEntity
  8
0
100
AcDbLine
 10
-398.9808622702621
 20
-709.0536528793745
 30
0.0
 11
360.7413705483486
 21
-709.0536528793745
 31
0.0
  0
LINE
  5
33FA3
330
2678E
100
AcDbEntity
  8
0
100
AcDbLine
 10
362.8626998559048
 20
-709.0536528793745
 30
0.0
 11
362.8626998559048
 21
-753.0535632339888
 31
0.0
  0
ARC
  5
33FA4
330
2678E
100
AcDbEntity
  8
0
100
AcDbCircle
 10
360.2110279896442
 20
-753.4285648494842
 30
0.0
 40
2.67805711252608
100
AcDbArc
 50
281.4219331783215
 51
8.049436976875835
  0
LINE
  5
33FA5
330
2678E
100
AcDbEntity
  8
0
100
AcDbLine
 10
360.7413705483486
 20
-756.0535842148238
 30
0.0
 11
360.7413705483486
 21
-706.0536318985396
 31
0.0
  0
ARC
  5
33FA6
330
2678E
100
AcDbEntity
  8
0
100
AcDbCircle
 10
360.2111620220385
 20
-708.6785564889141
 30
0.0
 40
2.677937674135366
100
AcDbArc
 50
351.9481536901361
 51
78.58047615497001
  0
LINE
  5
33FA7
330
2678E
100
AcDbEntity
  8
0
100
AcDbLine
 10
508.8802512780167
 20
-709.0536528793745
 30
0.0
 11
362.8626998559048
 21
-709.0536528793745
 31
0.0
  0
LINE
  5
33FA8
330
2678E
100
AcDbEntity
  8
0
100
AcDbLine
 10
508.8802512780167
 20
-753.0535632339888
 30
0.0
 11
362.8626998559048
 21
-753.0535632339888
 31
0.0
  0
ARC
  5
33FA9
330
2678E
100
AcDbEntity
  8
0
100
AcDbCircle
 10
360.2111415681938
 20
341.3214484207129
 30
0.0
 40
2.677948596384967
100
AcDbArc
 50
351.9496262109261
 51
78.58007690080109
  0
LINE
  5
33FAA
330
2678E
100
AcDbEntity
  8
0
100
AcDbLine
 10
508.8802512780167
 20
340.9464186461992
 30
0.0
 11
362.8626998559048
 21
340.9464186461992
 31
0.0
  0
LINE
  5
33FAB
330
2678E
100
AcDbEntity
  8
0
100
AcDbLine
 10
362.8626998559048
 20
340.9464186461992
 30
0.0
 11
362.8626998559048
 21
296.9463890822954
 31
0.0
  0
ARC
  5
33FAC
330
2678E
100
AcDbEntity
  8
0
100
AcDbCircle
 10
360.2111415681938
 20
296.5713593077889
 30
0.0
 40
2.677948596384967
100
AcDbArc
 50
281.4199230991989
 51
8.050373789073864
  0
LINE
  5
33FAD
330
2678E
100
AcDbEntity
  8
0
100
AcDbLine
 10
360.7413705483486
 20
293.9464277061052
 30
0.0
 11
360.7413705483486
 21
343.9463800223894
 31
0.0
  0
LINE
  5
33FAE
330
2678E
100
AcDbEntity
  8
0
100
AcDbLine
 10
508.8802512780167
 20
296.9463890822954
 30
0.0
 11
362.8626998559048
 21
296.9463890822954
 31
0.0
  0
LINE
  5
33FAF
330
2678E
100
AcDbEntity
  8
0
100
AcDbLine
 10
-397.119737039473
 20
-706.0536318985396
 30
0.0
 11
-397.119737039473
 21
-756.0535842148238
 31
0.0
  0
LINE
  5
33FB0
330
2678E
100
AcDbEntity
  8
0
100
AcDbLine
 10
358.8802453175522
 20
-706.0536318985396
 30
0.0
 11
358.8802453175522
 21
-756.0535842148238
 31
0.0
  0
LINE
  5
33FB1
330
2678E
100
AcDbEntity
  8
0
100
AcDbLine
 10
116.8802615300228
 20
-701.0536366669112
 30
0.0
 11
144.8802586689926
 21
-701.0536366669112
 31
0.0
  0
SPLINE
  5
33FB2
330
2678E
100
AcDbEntity
  8
0
100
AcDbSpline
210
0.0
220
0.0
230
1.0
 70
     8
 71
     3
 72
    15
 73
    11
 74
     0
 42
0.000000001
 43
0.0000000001
 40
0.0
 40
0.0
 40
0.0
 40
0.0
 40
0.1009160711394996
 40
0.205353942922961
 40
0.3061867846167476
 40
0.4095145727757176
 40
0.5515368959278435
 40
0.6976147672543386
 40
0.8474901622917455
 40
1.0
 40
1.0
 40
1.0
 40
1.0
 10
114.8802574769033
 20
-942.0535737244064
 30
0.0
 10
114.9078181908371
 20
-942.0803287137896
 30
0.0
 10
114.9639014411332
 20
-942.1347723965665
 30
0.0
 10
115.4069947654679
 20
-942.5638487314282
 30
0.0
 10
116.0824940597995
 20
-943.2172449870849
 30
0.0
 10
117.0803471384897
 20
-944.1778815273865
 30
0.0
 10
118.4638839920553
 20
-945.5029142556595
 30
0.0
 10
120.2620405711605
 20
-947.2002893350801
 30
0.0
 10
122.2860218734968
 20
-949.0833973211847
 30
0.0
 10
123.7947595791156
 20
-950.3930867898525
 30
0.0
 10
124.5557006493582
 20
-951.0536366669112
 30
0.0
  0
SPLINE
  5
33FB3
330
2678E
100
AcDbEntity
  8
0
100
AcDbSpline
210
0.0
220
0.0
230
1.0
 70
     8
 71
     3
 72
    14
 73
    10
 74
     0
 42
0.000000001
 43
0.0000000001
 40
0.0
 40
0.0
 40
0.0
 40
0.0
 40
0.1903922721792937
 40
0.3861910101227093
 40
0.5123228948521847
 40
0.6413876655003562
 40
0.7441740200443272
 40
0.8497103674369077
 40
0.9999999999999998
 40
0.9999999999999998
 40
0.9999999999999998
 40
0.9999999999999998
 10
137.204804648496
 20
-951.0536366669112
 30
0.0
 10
138.1494629340268
 20
-950.2284915088676
 30
0.0
 10
140.0656044524548
 20
-948.5547699946909
 30
0.0
 10
142.2960749572921
 20
-946.449868374577
 30
0.0
 10
144.0227655838062
 20
-944.8092459820109
 30
0.0
 10
145.1882376301182
 20
-943.6892377918921
 30
0.0
 10
146.0463964838091
 20
-942.8613567061111
 30
0.0
 10
146.7172712270585
 20
-942.2117039965597
 30
0.0
 10
146.8199357037629
 20
-942.1120923820636
 30
0.0
 10
146.8802478209509
 20
-942.0535737244064
 30
0.0
  0
LINE
  5
33FB4
330
2678E
100
AcDbEntity
  8
0
100
AcDbLine
 10
124.5557006493582
 20
-951.0536366669112
 30
0.0
 11
137.204804648496
 21
-951.0536366669112
 31
0.0
  0
SPLINE
  5
33FB5
330
2678E
100
AcDbEntity
  8
0
100
AcDbSpline
210
0.0
220
0.0
230
1.0
 70
     8
 71
     3
 72
    15
 73
    11
 74
     0
 42
0.000000001
 43
0.0000000001
 40
0.0
 40
0.0
 40
0.0
 40
0.0
 40
0.1009160629414894
 40
0.2053537880722775
 40
0.306186840979305
 40
0.4095146207443467
 40
0.5515369323591579
 40
0.6976147918188822
 40
0.847490174681023
 40
1.0
 40
1.0
 40
1.0
 40
1.0
 10
-185.1197395428717
 20
-942.0535737244064
 30
0.0
 10
-185.0921768905937
 20
-942.0803285945295
 30
0.0
 10
-185.0360897337195
 20
-942.1347719979895
 30
0.0
 10
-184.5930265546594
 20
-942.5638500597342
 30
0.0
 10
-183.9174972250366
 20
-943.2172438706256
 30
0.0
 10
-182.9196523333121
 20
-944.1778817228696
 30
0.0
 10
-181.5361122627837
 20
-945.5029141946797
 30
0.0
 10
-179.7379566608833
 20
-947.2002893519967
 30
0.0
 10
-177.7139750915412
 20
-949.0833973168191
 30
0.0
 10
-176.2052374222949
 20
-950.39308678839
 30
0.0
 10
-175.4442963704168
 20
-951.0536366669112
 30
0.0
  0
SPLINE
  5
33FB6
330
2678E
100
AcDbEntity
  8
0
100
AcDbSpline
210
0.0
220
0.0
230
1.0
 70
     8
 71
     3
 72
    14
 73
    10
 74
     0
 42
0.000000001
 43
0.0000000001
 40
0.0
 40
0.0
 40
0.0
 40
0.0
 40
0.1903923076132984
 40
0.3861910819969188
 40
0.512322990200865
 40
0.641387784869348
 40
0.744173903075104
 40
0.849710270109109
 40
1.0
 40
1.0
 40
1.0
 40
1.0
 10
-162.795192371279
 20
-951.0536366669112
 30
0.0
 10
-161.8505341526943
 20
-950.228491499678
 30
0.0
 10
-159.9343927700647
 20
-948.5547699668531
 30
0.0
 10
-157.7039213491189
 20
-946.4498684725258
 30
0.0
 10
-155.9772330895466
 20
-944.8092457549646
 30
0.0
 10
-154.8117543467196
 20
-943.6892393977831
 30
0.0
 10
-153.9536189650425
 20
-942.8613555180346
 30
0.0
 10
-153.2827415054889
 20
-942.2117041432501
 30
0.0
 10
-153.1800671380078
 20
-942.1120924433635
 30
0.0
 10
-153.1197491988241
 20
-942.0535737244064
 30
0.0
  0
LINE
  5
33FB7
330
2678E
100
AcDbEntity
  8
0
100
AcDbLine
 10
-175.4442963704168
 20
-951.0536366669112
 30
0.0
 11
-162.795192371279
 21
-951.0536366669112
 31
0.0
  0
LINE
  5
33FB8
330
2678E
100
AcDbEntity
  8
0
100
AcDbLine
 10
-183.1197503909061
 20
-701.0536366669112
 30
0.0
 11
-155.1197532519363
 21
-701.0536366669112
 31
0.0
  0
LINE
  5
33FB9
330
2678E
100
AcDbEntity
  8
0
100
AcDbLine
 10
584.8802264824844
 20
252.9464191230363
 30
0.0
 11
522.8802498475052
 21
252.9464191230363
 31
0.0
  0
ARC
  5
33FBA
330
2678E
100
AcDbEntity
  8
0
100
AcDbCircle
 10
585.8802541390396
 20
251.9464009916046
 30
0.0
 40
3.000000000000683
100
AcDbArc
 50
270.0
 51
0.0
  0
LINE
  5
33FBB
330
2678E
100
AcDbEntity
  8
0
100
AcDbLine
 10
585.8802732125259
 20
248.9464110168047
 30
0.0
 11
521.8802627221085
 21
248.9464110168047
 31
0.0
  0
ARC
  5
33FBC
330
2678E
100
AcDbEntity
  8
0
100
AcDbCircle
 10
521.8802541390395
 20
251.9464009916046
 30
0.0
 40
2.999999999999547
100
AcDbArc
 50
180.0
 51
270.0
  0
ARC
  5
33FBD
330
2678E
100
AcDbEntity
  8
0
100
AcDbCircle
 10
521.8802541390395
 20
385.9464009916046
 30
0.0
 40
2.999999999999547
100
AcDbArc
 50
90.0
 51
180.0
  0
LINE
  5
33FBE
330
2678E
100
AcDbEntity
  8
0
100
AcDbLine
 10
584.8802264824844
 20
384.9463886054582
 30
0.0
 11
584.8802264824844
 21
252.9464191230363
 31
0.0
  0
LINE
  5
33FBF
330
2678E
100
AcDbEntity
  8
0
100
AcDbLine
 10
518.8802417412735
 20
251.9463723929948
 30
0.0
 11
518.8802417412735
 21
385.9463757308549
 31
0.0
  0
ARC
  5
33FC0
330
2678E
100
AcDbEntity
  8
0
100
AcDbCircle
 10
585.8802541390396
 20
385.9464009916046
 30
0.0
 40
3.000000000000683
100
AcDbArc
 50
0.0
 51
90.0
  0
LINE
  5
33FC1
330
2678E
100
AcDbEntity
  8
0
100
AcDbLine
 10
521.8802627221085
 20
388.9463967116899
 30
0.0
 11
585.8802732125259
 21
388.9463967116899
 31
0.0
  0
LINE
  5
33FC2
330
2678E
100
AcDbEntity
  8
0
100
AcDbLine
 10
522.8802498475052
 20
384.9463886054582
 30
0.0
 11
584.8802264824844
 21
384.9463886054582
 31
0.0
  0
LINE
  5
33FC3
330
2678E
100
AcDbEntity
  8
0
100
AcDbLine
 10
588.8802345887161
 20
385.9463757308549
 30
0.0
 11
588.8802345887161
 21
251.9463723929948
 31
0.0
  0
LINE
  5
33FC4
330
2678E
100
AcDbEntity
  8
0
100
AcDbLine
 10
522.8802498475052
 20
252.9464191230363
 30
0.0
 11
522.8802498475052
 21
384.9463886054582
 31
0.0
  0
LINE
  5
33FC5
330
2678E
100
AcDbEntity
  8
0
100
AcDbLine
 10
-623.1197182043979
 20
-665.0536233154707
 30
0.0
 11
-561.119741569426
 21
-665.0536233154707
 31
0.0
  0
LINE
  5
33FC6
330
2678E
100
AcDbEntity
  8
0
100
AcDbLine
 10
-623.1197182043979
 20
-797.0535927978926
 30
0.0
 11
-623.1197182043979
 21
-665.0536233154707
 31
0.0
  0
LINE
  5
33FC7
330
2678E
100
AcDbEntity
  8
0
100
AcDbLine
 10
-561.119741569426
 20
-797.0535927978926
 30
0.0
 11
-623.1197182043979
 21
-797.0535927978926
 31
0.0
  0
LINE
  5
33FC8
330
2678E
100
AcDbEntity
  8
0
100
AcDbLine
 10
-561.119741569426
 20
-665.0536233154707
 30
0.0
 11
-561.119741569426
 21
-797.0535927978926
 31
0.0
  0
LINE
  5
33FC9
330
2678E
100
AcDbEntity
  8
0
100
AcDbLine
 10
-560.1197544440292
 20
-801.0535412994794
 30
0.0
 11
-624.1197649344467
 21
-801.0535412994794
 31
0.0
  0
ARC
  5
33FCA
330
2678E
100
AcDbEntity
  8
0
100
AcDbCircle
 10
-624.1197458609531
 20
-798.0535990083881
 30
0.0
 40
3.000000000000115
100
AcDbArc
 50
180.0
 51
270.0
  0
LINE
  5
33FCB
330
2678E
100
AcDbEntity
  8
0
100
AcDbLine
 10
-627.1197263106369
 20
-798.0536395279341
 30
0.0
 11
-627.1197263106369
 21
-664.0535765854292
 31
0.0
  0
ARC
  5
33FCC
330
2678E
100
AcDbEntity
  8
0
100
AcDbCircle
 10
-624.1197458609531
 20
-664.0535990083881
 30
0.0
 40
3.000000000000115
100
AcDbArc
 50
90.0
 51
180.0
  0
LINE
  5
33FCD
330
2678E
100
AcDbEntity
  8
0
100
AcDbLine
 10
-624.1197649344467
 20
-661.0535556045943
 30
0.0
 11
-560.1197544440292
 21
-661.0535556045943
 31
0.0
  0
ARC
  5
33FCE
330
2678E
100
AcDbEntity
  8
0
100
AcDbCircle
 10
-560.1197458609531
 20
-664.0535990083881
 30
0.0
 40
3.000000000000115
100
AcDbArc
 50
0.0
 51
90.0
  0
ARC
  5
33FCF
330
2678E
100
AcDbEntity
  8
0
100
AcDbCircle
 10
-560.1197458609531
 20
-798.0535990083881
 30
0.0
 40
3.000000000000115
100
AcDbArc
 50
270.0
 51
0.0
  0
LINE
  5
33FD0
330
2678E
100
AcDbEntity
  8
0
100
AcDbLine
 10
-557.1197334631943
 20
-664.0535765854292
 30
0.0
 11
-557.1197334631943
 21
-798.0536395279341
 31
0.0
  0
LINE
  5
33FD1
330
2678E
100
AcDbEntity
  8
0
100
AcDbLine
 10
583.8802393570877
 20
258.9464014800615
 30
0.0
 11
578.8802441254593
 21
253.9464062484331
 31
0.0
  0
LINE
  5
33FD2
330
2678E
100
AcDbEntity
  8
0
100
AcDbLine
 10
578.8802441254593
 20
253.9464062484331
 30
0.0
 11
528.8802322045303
 21
253.9464062484331
 31
0.0
  0
LINE
  5
33FD3
330
2678E
100
AcDbEntity
  8
0
100
AcDbLine
 10
528.8802322045303
 20
253.9464062484331
 30
0.0
 11
523.8802369729019
 21
258.9464014800615
 31
0.0
  0
LINE
  5
33FD4
330
2678E
100
AcDbEntity
  8
0
100
AcDbLine
 10
523.8802369729019
 20
258.9464014800615
 30
0.0
 11
523.8802369729019
 21
378.9464062484331
 31
0.0
  0
LINE
  5
33FD5
330
2678E
100
AcDbEntity
  8
0
100
AcDbLine
 10
528.8802322045303
 20
383.9464014800615
 30
0.0
 11
578.8802441254593
 21
383.9464014800615
 31
0.0
  0
LINE
  5
33FD6
330
2678E
100
AcDbEntity
  8
0
100
AcDbLine
 10
578.8802441254593
 20
383.9464014800615
 30
0.0
 11
583.8802393570877
 21
378.9464062484331
 31
0.0
  0
LINE
  5
33FD7
330
2678E
100
AcDbEntity
  8
0
100
AcDbLine
 10
583.8802393570877
 20
378.9464062484331
 30
0.0
 11
583.8802393570877
 21
258.9464014800615
 31
0.0
  0
LINE
  5
33FD8
330
2678E
100
AcDbEntity
  8
0
100
AcDbLine
 10
523.8802369729019
 20
378.9464062484331
 30
0.0
 11
528.8802322045303
 21
383.9464014800615
 31
0.0
  0
LINE
  5
33FD9
330
2678E
100
AcDbEntity
  8
0
100
AcDbLine
 10
-622.1197310790085
 20
-671.0535460678511
 30
0.0
 11
-617.1197358473801
 21
-666.0535508362227
 31
0.0
  0
LINE
  5
33FDA
330
2678E
100
AcDbEntity
  8
0
100
AcDbLine
 10
-617.1197358473801
 20
-666.0535508362227
 30
0.0
 11
-567.1197239264511
 21
-666.0535508362227
 31
0.0
  0
LINE
  5
33FDB
330
2678E
100
AcDbEntity
  8
0
100
AcDbLine
 10
-562.1197286948154
 20
-671.0535460678511
 30
0.0
 11
-562.1197286948154
 21
-791.0535508362227
 31
0.0
  0
LINE
  5
33FDC
330
2678E
100
AcDbEntity
  8
0
100
AcDbLine
 10
-617.1197358473801
 20
-796.0535460678511
 30
0.0
 11
-622.1197310790085
 21
-791.0535508362227
 31
0.0
  0
LINE
  5
33FDD
330
2678E
100
AcDbEntity
  8
0
100
AcDbLine
 10
-622.1197310790085
 20
-791.0535508362227
 30
0.0
 11
-622.1197310790085
 21
-671.0535460678511
 31
0.0
  0
LINE
  5
33FDE
330
2678E
100
AcDbEntity
  8
0
100
AcDbLine
 10
-567.1197239264511
 20
-666.0535508362227
 30
0.0
 11
-562.1197286948154
 21
-671.0535460678511
 31
0.0
  0
LINE
  5
33FDF
330
2678E
100
AcDbEntity
  8
0
100
AcDbLine
 10
-567.1197239264511
 20
-796.0535460678511
 30
0.0
 11
-617.1197358473801
 21
-796.0535460678511
 31
0.0
  0
LINE
  5
33FE0
330
2678E
100
AcDbEntity
  8
0
100
AcDbLine
 10
-562.1197286948154
 20
-791.0535508362227
 30
0.0
 11
-567.1197239264511
 21
-796.0535460678511
 31
0.0
  0
LINE
  5
33FE1
330
2678E
100
AcDbEntity
  8
0
100
AcDbLine
 10
583.8802393570877
 20
-791.0535508362227
 30
0.0
 11
578.8802441254593
 21
-796.0535460678511
 31
0.0
  0
LINE
  5
33FE2
330
2678E
100
AcDbEntity
  8
0
100
AcDbLine
 10
578.8802441254593
 20
-796.0535460678511
 30
0.0
 11
528.8802322045303
 21
-796.0535460678511
 31
0.0
  0
LINE
  5
33FE3
330
2678E
100
AcDbEntity
  8
0
100
AcDbLine
 10
528.8802322045303
 20
-796.0535460678511
 30
0.0
 11
523.8802369729019
 21
-791.0535508362227
 31
0.0
  0
LINE
  5
33FE4
330
2678E
100
AcDbEntity
  8
0
100
AcDbLine
 10
578.8802441254593
 20
-666.0535508362227
 30
0.0
 11
583.8802393570877
 21
-671.0535460678511
 31
0.0
  0
LINE
  5
33FE5
330
2678E
100
AcDbEntity
  8
0
100
AcDbLine
 10
583.8802393570877
 20
-671.0535460678511
 30
0.0
 11
583.8802393570877
 21
-791.0535508362227
 31
0.0
  0
LINE
  5
33FE6
330
2678E
100
AcDbEntity
  8
0
100
AcDbLine
 10
523.8802369729019
 20
-791.0535508362227
 30
0.0
 11
523.8802369729019
 21
-671.0535460678511
 31
0.0
  0
LINE
  5
33FE7
330
2678E
100
AcDbEntity
  8
0
100
AcDbLine
 10
528.8802322045303
 20
-666.0535508362227
 30
0.0
 11
578.8802441254593
 21
-666.0535508362227
 31
0.0
  0
LINE
  5
33FE8
330
2678E
100
AcDbEntity
  8
0
100
AcDbLine
 10
523.8802369729019
 20
-671.0535460678511
 30
0.0
 11
528.8802322045303
 21
-666.0535508362227
 31
0.0
  0
LINE
  5
33FE9
330
2678E
100
AcDbEntity
  8
0
100
AcDbLine
 10
-622.1197310790085
 20
378.9464062484331
 30
0.0
 11
-617.1197358473801
 21
383.9464014800615
 31
0.0
  0
LINE
  5
33FEA
330
2678E
100
AcDbEntity
  8
0
100
AcDbLine
 10
-562.1197286948154
 20
258.9464014800615
 30
0.0
 11
-567.1197239264511
 21
253.9464062484331
 31
0.0
  0
LINE
  5
33FEB
330
2678E
100
AcDbEntity
  8
0
100
AcDbLine
 10
-567.1197239264511
 20
253.9464062484331
 30
0.0
 11
-617.1197358473801
 21
253.9464062484331
 31
0.0
  0
LINE
  5
33FEC
330
2678E
100
AcDbEntity
  8
0
100
AcDbLine
 10
-617.1197358473801
 20
253.9464062484331
 30
0.0
 11
-622.1197310790085
 21
258.9464014800615
 31
0.0
  0
LINE
  5
33FED
330
2678E
100
AcDbEntity
  8
0
100
AcDbLine
 10
-622.1197310790085
 20
258.9464014800615
 30
0.0
 11
-622.1197310790085
 21
378.9464062484331
 31
0.0
  0
LINE
  5
33FEE
330
2678E
100
AcDbEntity
  8
0
100
AcDbLine
 10
-562.1197286948154
 20
378.9464062484331
 30
0.0
 11
-562.1197286948154
 21
258.9464014800615
 31
0.0
  0
LINE
  5
33FEF
330
2678E
100
AcDbEntity
  8
0
100
AcDbLine
 10
-567.1197239264511
 20
383.9464014800615
 30
0.0
 11
-562.1197286948154
 21
378.9464062484331
 31
0.0
  0
LINE
  5
33FF0
330
2678E
100
AcDbEntity
  8
0
100
AcDbLine
 10
-617.1197358473801
 20
383.9464014800615
 30
0.0
 11
-567.1197239264511
 21
383.9464014800615
 31
0.0
  0
LINE
  5
33FF1
330
2678E
100
AcDbEntity
  8
0
100
AcDbLine
 10
-607.1197453841159
 20
383.9464014800615
 30
0.0
 11
-607.1197453841159
 21
384.9463886054582
 31
0.0
  0
LINE
  5
33FF2
330
2678E
100
AcDbEntity
  8
0
100
AcDbLine
 10
-577.1197739943527
 20
383.9464014800615
 30
0.0
 11
-577.1197739943527
 21
384.9463886054582
 31
0.0
  0
LINE
  5
33FF3
330
2678E
100
AcDbEntity
  8
0
100
AcDbLine
 10
568.8802536622024
 20
383.9464014800615
 30
0.0
 11
568.8802536622024
 21
384.9463886054582
 31
0.0
  0
LINE
  5
33FF4
330
2678E
100
AcDbEntity
  8
0
100
AcDbLine
 10
538.8802822724319
 20
383.9464014800615
 30
0.0
 11
538.8802822724319
 21
384.9463886054582
 31
0.0
  0
LINE
  5
33FF5
330
2678E
100
AcDbEntity
  8
0
100
AcDbLine
 10
568.8802536622024
 20
-796.0535460678511
 30
0.0
 11
568.8802536622024
 21
-797.0535927978926
 31
0.0
  0
LINE
  5
33FF6
330
2678E
100
AcDbEntity
  8
0
100
AcDbLine
 10
538.8802822724319
 20
-796.0535460678511
 30
0.0
 11
538.8802822724319
 21
-797.0535927978926
 31
0.0
  0
LINE
  5
33FF7
330
2678E
100
AcDbEntity
  8
0
100
AcDbLine
 10
-577.1197739943527
 20
-796.0535460678511
 30
0.0
 11
-577.1197739943527
 21
-797.0535927978926
 31
0.0
  0
LINE
  5
33FF8
330
2678E
100
AcDbEntity
  8
0
100
AcDbLine
 10
-607.1197453841159
 20
-796.0535460678511
 30
0.0
 11
-607.1197453841159
 21
-797.0535927978926
 31
0.0
  0
LINE
  5
33FF9
330
2678E
100
AcDbEntity
  8
0
100
AcDbLine
 10
-607.1197453841159
 20
-665.0536233154707
 30
0.0
 11
-607.1197453841159
 21
-666.0535508362227
 31
0.0
  0
LINE
  5
33FFA
330
2678E
100
AcDbEntity
  8
0
100
AcDbLine
 10
-577.1197739943527
 20
-665.0536233154707
 30
0.0
 11
-577.1197739943527
 21
-666.0535508362227
 31
0.0
  0
LINE
  5
33FFB
330
2678E
100
AcDbEntity
  8
0
100
AcDbLine
 10
538.8802822724319
 20
252.9464191230363
 30
0.0
 11
538.8802822724319
 21
253.9464062484331
 31
0.0
  0
LINE
  5
33FFC
330
2678E
100
AcDbEntity
  8
0
100
AcDbLine
 10
568.8802536622024
 20
252.9464191230363
 30
0.0
 11
568.8802536622024
 21
253.9464062484331
 31
0.0
  0
LINE
  5
33FFD
330
2678E
100
AcDbEntity
  8
0
100
AcDbLine
 10
568.8802536622024
 20
-665.0536233154707
 30
0.0
 11
568.8802536622024
 21
-666.0535508362227
 31
0.0
  0
LINE
  5
33FFE
330
2678E
100
AcDbEntity
  8
0
100
AcDbLine
 10
538.8802822724319
 20
-665.0536233154707
 30
0.0
 11
538.8802822724319
 21
-666.0535508362227
 31
0.0
  0
LINE
  5
33FFF
330
2678E
100
AcDbEntity
  8
0
100
AcDbLine
 10
-607.1197453841159
 20
252.9464191230363
 30
0.0
 11
-607.1197453841159
 21
253.9464062484331
 31
0.0
  0
LINE
  5
34000
330
2678E
100
AcDbEntity
  8
0
100
AcDbLine
 10
-577.1197739943527
 20
252.9464191230363
 30
0.0
 11
-577.1197739943527
 21
253.9464062484331
 31
0.0
  0
LINE
  5
34001
330
2678E
100
AcDbEntity
  8
0
100
AcDbLine
 10
-561.119741569426
 20
252.9464191230363
 30
0.0
 11
-623.1197182043979
 21
252.9464191230363
 31
0.0
  0
ARC
  5
34002
330
2678E
100
AcDbEntity
  8
0
100
AcDbCircle
 10
-560.1197458609531
 20
251.9464009916046
 30
0.0
 40
3.000000000000115
100
AcDbArc
 50
270.0
 51
0.0
  0
LINE
  5
34003
330
2678E
100
AcDbEntity
  8
0
100
AcDbLine
 10
-560.1197544440292
 20
248.9464110168047
 30
0.0
 11
-624.1197649344467
 21
248.9464110168047
 31
0.0
  0
ARC
  5
34004
330
2678E
100
AcDbEntity
  8
0
100
AcDbCircle
 10
-624.1197458609531
 20
251.9464009916046
 30
0.0
 40
2.999999999999547
100
AcDbArc
 50
180.0
 51
270.0
  0
ARC
  5
34005
330
2678E
100
AcDbEntity
  8
0
100
AcDbCircle
 10
-624.1197458609531
 20
385.9464009916046
 30
0.0
 40
3.000000000000115
100
AcDbArc
 50
90.0
 51
180.0
  0
LINE
  5
34006
330
2678E
100
AcDbEntity
  8
0
100
AcDbLine
 10
-624.1197649344467
 20
388.9463967116899
 30
0.0
 11
-560.1197544440292
 21
388.9463967116899
 31
0.0
  0
LINE
  5
34007
330
2678E
100
AcDbEntity
  8
0
100
AcDbLine
 10
-623.1197182043979
 20
384.9463886054582
 30
0.0
 11
-561.119741569426
 21
384.9463886054582
 31
0.0
  0
LINE
  5
34008
330
2678E
100
AcDbEntity
  8
0
100
AcDbLine
 10
-557.1197334631943
 20
385.9463757308549
 30
0.0
 11
-557.1197334631943
 21
251.9463723929948
 31
0.0
  0
LINE
  5
34009
330
2678E
100
AcDbEntity
  8
0
100
AcDbLine
 10
-627.1197263106369
 20
251.9463723929948
 30
0.0
 11
-627.1197263106369
 21
385.9463757308549
 31
0.0
  0
ARC
  5
3400A
330
2678E
100
AcDbEntity
  8
0
100
AcDbCircle
 10
-560.1197458609531
 20
385.9464009916046
 30
0.0
 40
3.000000000000115
100
AcDbArc
 50
0.0
 51
90.0
  0
LINE
  5
3400B
330
2678E
100
AcDbEntity
  8
0
100
AcDbLine
 10
-561.119741569426
 20
384.9463886054582
 30
0.0
 11
-561.119741569426
 21
252.9464191230363
 31
0.0
  0
LINE
  5
3400C
330
2678E
100
AcDbEntity
  8
0
100
AcDbLine
 10
-623.1197182043979
 20
252.9464191230363
 30
0.0
 11
-623.1197182043979
 21
384.9463886054582
 31
0.0
  0
LINE
  5
3400D
330
2678E
100
AcDbEntity
  8
0
100
AcDbLine
 10
584.8802264824844
 20
-797.0535927978926
 30
0.0
 11
522.8802498475052
 21
-797.0535927978926
 31
0.0
  0
LINE
  5
3400E
330
2678E
100
AcDbEntity
  8
0
100
AcDbLine
 10
585.8802732125259
 20
-801.0535412994794
 30
0.0
 11
521.8802627221085
 21
-801.0535412994794
 31
0.0
  0
ARC
  5
3400F
330
2678E
100
AcDbEntity
  8
0
100
AcDbCircle
 10
521.8802541390468
 20
-798.0535990083954
 30
0.0
 40
3.000000000000683
100
AcDbArc
 50
180.0
 51
270.0
  0
ARC
  5
34010
330
2678E
100
AcDbEntity
  8
0
100
AcDbCircle
 10
585.8802541390396
 20
-798.0535990083954
 30
0.0
 40
3.000000000000115
100
AcDbArc
 50
270.0
 51
0.0
  0
ARC
  5
34011
330
2678E
100
AcDbEntity
  8
0
100
AcDbCircle
 10
585.8802541390396
 20
-664.0535990083954
 30
0.0
 40
2.999999999999547
100
AcDbArc
 50
0.0
 51
90.0
  0
ARC
  5
34012
330
2678E
100
AcDbEntity
  8
0
100
AcDbCircle
 10
521.8802541390468
 20
-664.0535990083954
 30
0.0
 40
3.000000000000683
100
AcDbArc
 50
90.0
 51
180.0
  0
LINE
  5
34013
330
2678E
100
AcDbEntity
  8
0
100
AcDbLine
 10
521.8802627221085
 20
-661.0535556045943
 30
0.0
 11
585.8802732125259
 21
-661.0535556045943
 31
0.0
  0
LINE
  5
34014
330
2678E
100
AcDbEntity
  8
0
100
AcDbLine
 10
584.8802264824844
 20
-665.0536233154707
 30
0.0
 11
584.8802264824844
 21
-797.0535927978926
 31
0.0
  0
LINE
  5
34015
330
2678E
100
AcDbEntity
  8
0
100
AcDbLine
 10
522.8802498475052
 20
-665.0536233154707
 30
0.0
 11
584.8802264824844
 21
-665.0536233154707
 31
0.0
  0
LINE
  5
34016
330
2678E
100
AcDbEntity
  8
0
100
AcDbLine
 10
588.8802345887161
 20
-664.0535765854292
 30
0.0
 11
588.8802345887161
 21
-798.0536395279341
 31
0.0
  0
LINE
  5
34017
330
2678E
100
AcDbEntity
  8
0
100
AcDbLine
 10
518.8802417412735
 20
-798.0536395279341
 30
0.0
 11
518.8802417412735
 21
-664.0535765854292
 31
0.0
  0
LINE
  5
34018
330
2678E
100
AcDbEntity
  8
0
100
AcDbLine
 10
522.8802498475052
 20
-797.0535927978926
 30
0.0
 11
522.8802498475052
 21
-665.0536233154707
 31
0.0
  0
LINE
  5
34019
330
2678E
100
AcDbEntity
  8
0
100
AcDbLine
 10
618.8802655831314
 20
758.9464014800687
 30
0.0
 11
618.8802655831314
 21
849.5963937076158
 31
0.0
  0
LINE
  5
3401A
330
2678E
100
AcDbEntity
  8
0
100
AcDbLine
 10
618.8802655831314
 20
898.2963985236784
 30
0.0
 11
618.8802655831314
 21
988.9464056523866
 31
0.0
  0
ARC
  5
3401B
330
2678E
100
AcDbEntity
  8
0
100
AcDbCircle
 10
608.8802541390395
 20
758.9464009916046
 30
0.0
 40
10.0
100
AcDbArc
 50
270.0
 51
0.0
  0
LINE
  5
3401C
330
2678E
100
AcDbEntity
  8
0
100
AcDbLine
 10
498.8802608147598
 20
748.9464110168046
 30
0.0
 11
528.8802322045303
 21
748.9464110168046
 31
0.0
  0
LINE
  5
3401D
330
2678E
100
AcDbEntity
  8
0
100
AcDbLine
 10
578.8802441254593
 20
748.9464110168046
 30
0.0
 11
608.8802751198746
 21
748.9464110168046
 31
0.0
  0
ARC
  5
3401E
330
2678E
100
AcDbEntity
  8
0
100
AcDbCircle
 10
498.8802541390396
 20
758.9464009916046
 30
0.0
 40
10.0
100
AcDbArc
 50
180.0
 51
270.0
  0
LINE
  5
3401F
330
2678E
100
AcDbEntity
  8
0
100
AcDbLine
 10
488.880270351503
 20
988.9464056523866
 30
0.0
 11
488.880270351503
 21
898.2963985236784
 31
0.0
  0
LINE
  5
34020
330
2678E
100
AcDbEntity
  8
0
100
AcDbLine
 10
488.880270351503
 20
849.5963937076158
 30
0.0
 11
488.880270351503
 21
758.9464014800687
 31
0.0
  0
ARC
  5
34021
330
2678E
100
AcDbEntity
  8
0
100
AcDbCircle
 10
608.8802541390395
 20
988.9464009916046
 30
0.0
 40
10.0
100
AcDbArc
 50
0.0
 51
90.0
  0
CIRCLE
  5
34022
330
2678E
100
AcDbEntity
  8
0
100
AcDbCircle
 10
513.8802541390396
 20
773.9464009916046
 30
0.0
 40
6.499999999999776
  0
CIRCLE
  5
34023
330
2678E
100
AcDbEntity
  8
0
100
AcDbCircle
 10
593.8802541390396
 20
973.9464009916046
 30
0.0
 40
6.499999999999776
  0
ARC
  5
34024
330
2678E
100
AcDbEntity
  8
0
100
AcDbCircle
 10
513.8802541390396
 20
976.9464009916045
 30
0.0
 40
6.500000000000913
100
AcDbArc
 50
0.0
 51
180.0
  0
LINE
  5
34025
330
2678E
100
AcDbEntity
  8
0
100
AcDbLine
 10
507.3802407875992
 20
976.9463962348527
 30
0.0
 11
507.3802407875992
 21
970.9463989766664
 31
0.0
  0
ARC
  5
34026
330
2678E
100
AcDbEntity
  8
0
100
AcDbCircle
 10
513.8802541390396
 20
970.9464009916045
 30
0.0
 40
6.500000000000913
100
AcDbArc
 50
180.0
 51
0.0
  0
LINE
  5
34027
330
2678E
100
AcDbEntity
  8
0
100
AcDbLine
 10
520.380252231691
 20
970.9463989766664
 30
0.0
 11
520.380252231691
 21
976.9463962348527
 31
0.0
  0
ARC
  5
34028
330
2678E
100
AcDbEntity
  8
0
100
AcDbCircle
 10
593.8802541390396
 20
770.9464009916046
 30
0.0
 40
6.500000000000913
100
AcDbArc
 50
180.0
 51
0.0
  0
LINE
  5
34029
330
2678E
100
AcDbEntity
  8
0
100
AcDbLine
 10
600.3802355423904
 20
770.9463959964414
 30
0.0
 11
600.3802355423904
 21
776.9464081557889
 31
0.0
  0
ARC
  5
3402A
330
2678E
100
AcDbEntity
  8
0
100
AcDbCircle
 10
593.8802541390396
 20
776.9464009916045
 30
0.0
 40
6.500000000000913
100
AcDbArc
 50
0.0
 51
180.0
  0
LINE
  5
3402B
330
2678E
100
AcDbEntity
  8
0
100
AcDbLine
 10
587.3802837029434
 20
776.9464081557889
 30
0.0
 11
587.3802837029434
 21
770.9463959964414
 31
0.0
  0
ARC
  5
3402C
330
2678E
100
AcDbEntity
  8
0
100
AcDbCircle
 10
498.8802541390396
 20
988.9464009916046
 30
0.0
 40
10.0
100
AcDbArc
 50
90.0
 51
180.0
  0
LINE
  5
3402D
330
2678E
100
AcDbEntity
  8
0
100
AcDbLine
 10
608.8802751198746
 20
998.9463961156435
 30
0.0
 11
498.8802608147598
 21
998.9463961156435
 31
0.0
  0
ARC
  5
3402E
330
2678E
100
AcDbEntity
  8
0
100
AcDbCircle
 10
-537.1197458609494
 20
-846.0535990083954
 30
0.0
 40
10.0
100
AcDbArc
 50
270.0
 51
0.0
  0
LINE
  5
3402F
330
2678E
100
AcDbEntity
  8
0
100
AcDbLine
 10
-647.119766841799
 20
-856.0536080566818
 30
0.0
 11
-537.119752536677
 21
-856.0536080566818
 31
0.0
  0
ARC
  5
34030
330
2678E
100
AcDbEntity
  8
0
100
AcDbCircle
 10
-647.1197458609495
 20
-846.0535990083954
 30
0.0
 40
10.0
100
AcDbArc
 50
180.0
 51
270.0
  0
LINE
  5
34031
330
2678E
100
AcDbEntity
  8
0
100
AcDbLine
 10
-657.1197573050522
 20
-616.0535985199385
 30
0.0
 11
-657.1197573050558
 21
-846.0536175934247
 31
0.0
  0
ARC
  5
34032
330
2678E
100
AcDbEntity
  8
0
100
AcDbCircle
 10
-647.1197458609458
 20
-616.0535990083953
 30
0.0
 40
10.0
100
AcDbArc
 50
90.0
 51
180.0
  0
CIRCLE
  5
34033
330
2678E
100
AcDbEntity
  8
0
100
AcDbCircle
 10
-632.1197458609495
 20
-831.0535990083954
 30
0.0
 40
6.500000000000344
  0
ARC
  5
34034
330
2678E
100
AcDbEntity
  8
0
100
AcDbCircle
 10
-632.1197458609458
 20
-628.0535990083953
 30
0.0
 40
6.499999999999776
100
AcDbArc
 50
0.0
 51
180.0
  0
LINE
  5
34035
330
2678E
100
AcDbEntity
  8
0
100
AcDbLine
 10
-638.6197272643112
 20
-628.0535632339888
 30
0.0
 11
-638.6197272643112
 21
-634.0536051956587
 31
0.0
  0
ARC
  5
34036
330
2678E
100
AcDbEntity
  8
0
100
AcDbCircle
 10
-632.1197458609458
 20
-634.0535990083954
 30
0.0
 40
6.499999999999776
100
AcDbArc
 50
180.0
 51
0.0
  0
LINE
  5
34037
330
2678E
100
AcDbEntity
  8
0
100
AcDbLine
 10
-625.6197754248642
 20
-634.0536051956587
 30
0.0
 11
-625.6197754248642
 21
-628.0535632339888
 31
0.0
  0
ARC
  5
34038
330
2678E
100
AcDbEntity
  8
0
100
AcDbCircle
 10
-552.1197458609495
 20
-834.0535990083953
 30
0.0
 40
6.500000000000344
100
AcDbArc
 50
180.0
 51
0.0
  0
LINE
  5
34039
330
2678E
100
AcDbEntity
  8
0
100
AcDbLine
 10
-545.6197325095236
 20
-834.0536528793744
 30
0.0
 11
-545.6197325095236
 21
-828.0536109177045
 31
0.0
  0
ARC
  5
3403A
330
2678E
100
AcDbEntity
  8
0
100
AcDbCircle
 10
-552.1197458609495
 20
-828.0535990083954
 30
0.0
 40
6.500000000000344
100
AcDbArc
 50
0.0
 51
180.0
  0
LINE
  5
3403B
330
2678E
100
AcDbEntity
  8
0
100
AcDbLine
 10
-558.6197439536081
 20
-828.0536109177045
 30
0.0
 11
-558.6197439536081
 21
-834.0536528793744
 31
0.0
  0
CIRCLE
  5
3403C
330
2678E
100
AcDbEntity
  8
0
100
AcDbCircle
 10
-552.1197458609458
 20
-631.0535990083954
 30
0.0
 40
6.499999999999776
  0
LINE
  5
3403D
330
2678E
100
AcDbEntity
  8
0
100
AcDbLine
 10
-537.1197525366733
 20
-606.0536080566817
 30
0.0
 11
-565.8697549208591
 21
-606.0536080566817
 31
0.0
  0
LINE
  5
3403E
330
2678E
100
AcDbEntity
  8
0
100
AcDbLine
 10
-618.3697644576096
 20
-606.0536080566817
 30
0.0
 11
-647.1197668417953
 21
-606.0536080566817
 31
0.0
  0
LINE
  5
3403F
330
2678E
100
AcDbEntity
  8
0
100
AcDbLine
 10
-527.1197620734274
 20
-846.0536175934247
 30
0.0
 11
-527.1197620734238
 21
-756.0535842148238
 31
0.0
  0
LINE
  5
34040
330
2678E
100
AcDbEntity
  8
0
100
AcDbLine
 10
-527.1197620734238
 20
-706.0536318985396
 30
0.0
 11
-527.1197620734238
 21
-616.0535985199385
 31
0.0
  0
ARC
  5
34041
330
2678E
100
AcDbEntity
  8
0
100
AcDbCircle
 10
-537.1197458609458
 20
-616.0535990083953
 30
0.0
 40
10.00000000000057
100
AcDbArc
 50
0.0
 51
90.0
  0
LINE
  5
34042
330
2678E
100
AcDbEntity
  8
0
100
AcDbLine
 10
-657.1197573050522
 20
433.9464134009904
 30
0.0
 11
-657.1197573050522
 21
203.9463943275041
 31
0.0
  0
LINE
  5
34043
330
2678E
100
AcDbEntity
  8
0
100
AcDbLine
 10
-537.1197525366733
 20
443.9464038642472
 30
0.0
 11
-567.1197239264511
 21
443.9464038642472
 31
0.0
  0
LINE
  5
34044
330
2678E
100
AcDbEntity
  8
0
100
AcDbLine
 10
-617.1197358473801
 20
443.9464038642472
 30
0.0
 11
-647.1197668417953
 21
443.9464038642472
 31
0.0
  0
LINE
  5
34045
330
2678E
100
AcDbEntity
  8
0
100
AcDbLine
 10
-527.1197620734238
 20
203.9463943275041
 30
0.0
 11
-527.1197620734238
 21
293.9464277061052
 31
0.0
  0
LINE
  5
34046
330
2678E
100
AcDbEntity
  8
0
100
AcDbLine
 10
-527.1197620734238
 20
343.9463800223894
 30
0.0
 11
-527.1197620734238
 21
433.9464134009904
 31
0.0
  0
ARC
  5
34047
330
2678E
100
AcDbEntity
  8
0
100
AcDbCircle
 10
-537.1197458609531
 20
203.9464009916046
 30
0.0
 40
10.00000000000057
100
AcDbArc
 50
270.0
 51
0.0
  0
LINE
  5
34048
330
2678E
100
AcDbEntity
  8
0
100
AcDbLine
 10
-647.1197668417953
 20
193.9464038642472
 30
0.0
 11
-627.1197263106369
 21
193.9464038642472
 31
0.0
  0
LINE
  5
34049
330
2678E
100
AcDbEntity
  8
0
100
AcDbLine
 10
-565.8697549208591
 20
193.9464038642472
 30
0.0
 11
-537.1197525366733
 21
193.9464038642472
 31
0.0
  0
ARC
  5
3404A
330
2678E
100
AcDbEntity
  8
0
100
AcDbCircle
 10
-647.119745860953
 20
203.9464009916046
 30
0.0
 40
10.00000000000057
100
AcDbArc
 50
180.0
 51
270.0
  0
CIRCLE
  5
3404B
330
2678E
100
AcDbEntity
  8
0
100
AcDbCircle
 10
-552.1197458609531
 20
418.9464009916118
 30
0.0
 40
6.499999999999776
  0
ARC
  5
3404C
330
2678E
100
AcDbEntity
  8
0
100
AcDbCircle
 10
-632.1197458609531
 20
218.9464009916046
 30
0.0
 40
6.500000000000407
100
AcDbArc
 50
39.71513723194123
 51
320.2848627680588
  0
ARC
  5
3404D
330
2678E
100
AcDbEntity
  8
0
100
AcDbCircle
 10
-552.1197458609531
 20
215.9464009916046
 30
0.0
 40
6.500000000000344
100
AcDbArc
 50
180.0
 51
0.0
  0
LINE
  5
3404E
330
2678E
100
AcDbEntity
  8
0
100
AcDbLine
 10
-545.61973250952
 20
215.9464186461992
 30
0.0
 11
-545.61973250952
 21
221.9464010032243
 31
0.0
  0
ARC
  5
3404F
330
2678E
100
AcDbEntity
  8
0
100
AcDbCircle
 10
-552.1197458609531
 20
221.9464009916046
 30
0.0
 40
6.500000000000344
100
AcDbArc
 50
0.0
 51
180.0
  0
LINE
  5
34050
330
2678E
100
AcDbEntity
  8
0
100
AcDbLine
 10
-558.6197439536045
 20
221.9464010032243
 30
0.0
 11
-558.6197439536045
 21
215.9464186461992
 31
0.0
  0
ARC
  5
34051
330
2678E
100
AcDbEntity
  8
0
100
AcDbCircle
 10
-632.1197458609531
 20
421.9464009916046
 30
0.0
 40
6.500000000000344
100
AcDbArc
 50
0.0
 51
180.0
  0
LINE
  5
34052
330
2678E
100
AcDbEntity
  8
0
100
AcDbLine
 10
-638.6197272643112
 20
421.9463890822953
 30
0.0
 11
-638.6197272643112
 21
415.9464067252701
 31
0.0
  0
ARC
  5
34053
330
2678E
100
AcDbEntity
  8
0
100
AcDbCircle
 10
-632.1197458609531
 20
415.9464009916046
 30
0.0
 40
6.500000000000344
100
AcDbArc
 50
180.0
 51
0.0
  0
LINE
  5
34054
330
2678E
100
AcDbEntity
  8
0
100
AcDbLine
 10
-625.6197754248642
 20
415.9464067252701
 30
0.0
 11
-625.6197754248642
 21
421.9463890822953
 31
0.0
  0
ARC
  5
34055
330
2678E
100
AcDbEntity
  8
0
100
AcDbCircle
 10
-537.1197458609531
 20
433.9464009916119
 30
0.0
 40
10.0
100
AcDbArc
 50
0.0
 51
90.0
  0
ARC
  5
34056
330
2678E
100
AcDbEntity
  8
0
100
AcDbCircle
 10
-647.119745860953
 20
433.9464009916119
 30
0.0
 40
10.0
100
AcDbArc
 50
90.0
 51
180.0
  0
LINE
  5
34057
330
2678E
100
AcDbEntity
  8
0
100
AcDbLine
 10
488.880270351503
 20
433.9464134009904
 30
0.0
 11
488.880270351503
 21
343.9463800223894
 31
0.0
  0
LINE
  5
34058
330
2678E
100
AcDbEntity
  8
0
100
AcDbLine
 10
488.880270351503
 20
293.9464277061052
 30
0.0
 11
488.880270351503
 21
203.9463943275041
 31
0.0
  0
ARC
  5
34059
330
2678E
100
AcDbEntity
  8
0
100
AcDbCircle
 10
608.8802541390395
 20
433.9464009916046
 30
0.0
 40
10.0
100
AcDbArc
 50
0.0
 51
90.0
  0
LINE
  5
3405A
330
2678E
100
AcDbEntity
  8
0
100
AcDbLine
 10
618.8802655831314
 20
203.9463943275041
 30
0.0
 11
618.8802655831314
 21
433.9464134009904
 31
0.0
  0
ARC
  5
3405B
330
2678E
100
AcDbEntity
  8
0
100
AcDbCircle
 10
608.8802541390395
 20
203.9464009916046
 30
0.0
 40
10.0
100
AcDbArc
 50
270.0
 51
0.0
  0
LINE
  5
3405C
330
2678E
100
AcDbEntity
  8
0
100
AcDbLine
 10
498.8802608147598
 20
193.9464038642472
 30
0.0
 11
527.6302631989456
 21
193.9464038642472
 31
0.0
  0
LINE
  5
3405D
330
2678E
100
AcDbEntity
  8
0
100
AcDbLine
 10
588.8802345887161
 20
193.9464038642472
 30
0.0
 11
608.8802751198746
 21
193.9464038642472
 31
0.0
  0
ARC
  5
3405E
330
2678E
100
AcDbEntity
  8
0
100
AcDbCircle
 10
498.8802541390396
 20
203.9464009916046
 30
0.0
 40
10.0
100
AcDbArc
 50
180.0
 51
270.0
  0
CIRCLE
  5
3405F
330
2678E
100
AcDbEntity
  8
0
100
AcDbCircle
 10
593.8802541390396
 20
418.9464009916045
 30
0.0
 40
6.500000000000913
  0
CIRCLE
  5
34060
330
2678E
100
AcDbEntity
  8
0
100
AcDbCircle
 10
513.8802541390396
 20
218.9464009916046
 30
0.0
 40
6.500000000000913
  0
ARC
  5
34061
330
2678E
100
AcDbEntity
  8
0
100
AcDbCircle
 10
593.8802541390396
 20
215.9464009916046
 30
0.0
 40
6.500000000000913
100
AcDbArc
 50
219.7151372319412
 51
0.0
  0
LINE
  5
34062
330
2678E
100
AcDbEntity
  8
0
100
AcDbLine
 10
600.3802355423904
 20
215.9464186461992
 30
0.0
 11
600.3802355423904
 21
221.9464010032243
 31
0.0
  0
ARC
  5
34063
330
2678E
100
AcDbEntity
  8
0
100
AcDbCircle
 10
593.8802541390396
 20
221.9464009916046
 30
0.0
 40
6.500000000000913
100
AcDbArc
 50
0.0
 51
140.2848627680588
  0
ARC
  5
34064
330
2678E
100
AcDbEntity
  8
0
100
AcDbCircle
 10
513.8802541390396
 20
421.9464009916046
 30
0.0
 40
6.500000000000913
100
AcDbArc
 50
0.0
 51
180.0
  0
LINE
  5
34065
330
2678E
100
AcDbEntity
  8
0
100
AcDbLine
 10
507.3802407875992
 20
421.9463890822953
 30
0.0
 11
507.3802407875992
 21
415.9464067252701
 31
0.0
  0
ARC
  5
34066
330
2678E
100
AcDbEntity
  8
0
100
AcDbCircle
 10
513.8802541390396
 20
415.9464009916046
 30
0.0
 40
6.500000000000913
100
AcDbArc
 50
180.0
 51
0.0
  0
LINE
  5
34067
330
2678E
100
AcDbEntity
  8
0
100
AcDbLine
 10
520.380252231691
 20
415.9464067252701
 30
0.0
 11
520.380252231691
 21
421.9463890822953
 31
0.0
  0
LINE
  5
34068
330
2678E
100
AcDbEntity
  8
0
100
AcDbLine
 10
608.8802751198746
 20
443.9464038642472
 30
0.0
 11
578.8802441254593
 21
443.9464038642472
 31
0.0
  0
LINE
  5
34069
330
2678E
100
AcDbEntity
  8
0
100
AcDbLine
 10
528.8802322045303
 20
443.9464038642472
 30
0.0
 11
498.8802608147598
 21
443.9464038642472
 31
0.0
  0
ARC
  5
3406A
330
2678E
100
AcDbEntity
  8
0
100
AcDbCircle
 10
498.8802541390396
 20
433.9464009916046
 30
0.0
 40
10.0
100
AcDbArc
 50
90.0
 51
180.0
  0
LINE
  5
3406B
330
2678E
100
AcDbEntity
  8
0
100
AcDbLine
 10
-527.1197620734238
 20
758.9464014800687
 30
0.0
 11
-527.1197620734238
 21
849.5963937076158
 31
0.0
  0
LINE
  5
3406C
330
2678E
100
AcDbEntity
  8
0
100
AcDbLine
 10
-527.1197620734238
 20
898.2963985236784
 30
0.0
 11
-527.1197620734238
 21
988.9464056523866
 31
0.0
  0
ARC
  5
3406D
330
2678E
100
AcDbEntity
  8
0
100
AcDbCircle
 10
-537.1197458609604
 20
758.9464009916046
 30
0.0
 40
10.0
100
AcDbArc
 50
270.0
 51
0.0
  0
LINE
  5
3406E
330
2678E
100
AcDbEntity
  8
0
100
AcDbLine
 10
-647.1197668417953
 20
748.9464110168046
 30
0.0
 11
-617.1197358473801
 21
748.9464110168046
 31
0.0
  0
LINE
  5
3406F
330
2678E
100
AcDbEntity
  8
0
100
AcDbLine
 10
-567.1197239264511
 20
748.9464110168046
 30
0.0
 11
-537.1197525366733
 21
748.9464110168046
 31
0.0
  0
ARC
  5
34070
330
2678E
100
AcDbEntity
  8
0
100
AcDbCircle
 10
-647.1197458609603
 20
758.9464009916046
 30
0.0
 40
10.0
100
AcDbArc
 50
180.0
 51
270.0
  0
LINE
  5
34071
330
2678E
100
AcDbEntity
  8
0
100
AcDbLine
 10
-657.1197573050522
 20
988.9464056523866
 30
0.0
 11
-657.1197573050522
 21
898.2963985236784
 31
0.0
  0
LINE
  5
34072
330
2678E
100
AcDbEntity
  8
0
100
AcDbLine
 10
-657.1197573050522
 20
849.5963937076158
 30
0.0
 11
-657.1197573050522
 21
758.9464014800687
 31
0.0
  0
ARC
  5
34073
330
2678E
100
AcDbEntity
  8
0
100
AcDbCircle
 10
-537.1197458609604
 20
988.9464009916046
 30
0.0
 40
10.0
100
AcDbArc
 50
0.0
 51
90.0
  0
CIRCLE
  5
34074
330
2678E
100
AcDbEntity
  8
0
100
AcDbCircle
 10
-632.1197458609604
 20
773.9464009916046
 30
0.0
 40
6.499999999999776
  0
CIRCLE
  5
34075
330
2678E
100
AcDbEntity
  8
0
100
AcDbCircle
 10
-552.1197458609604
 20
973.9464009916046
 30
0.0
 40
6.500000000000344
  0
ARC
  5
34076
330
2678E
100
AcDbEntity
  8
0
100
AcDbCircle
 10
-632.1197458609604
 20
976.9464009916045
 30
0.0
 40
6.500000000000344
100
AcDbArc
 50
0.0
 51
180.0
  0
LINE
  5
34077
330
2678E
100
AcDbEntity
  8
0
100
AcDbLine
 10
-638.6197272643112
 20
976.9463962348527
 30
0.0
 11
-638.6197272643112
 21
970.9463989766664
 31
0.0
  0
ARC
  5
34078
330
2678E
100
AcDbEntity
  8
0
100
AcDbCircle
 10
-632.1197458609604
 20
970.9464009916045
 30
0.0
 40
6.500000000000344
100
AcDbArc
 50
180.0
 51
0.0
  0
LINE
  5
34079
330
2678E
100
AcDbEntity
  8
0
100
AcDbLine
 10
-625.6197754248642
 20
970.9463989766664
 30
0.0
 11
-625.6197754248642
 21
976.9463962348527
 31
0.0
  0
ARC
  5
3407A
330
2678E
100
AcDbEntity
  8
0
100
AcDbCircle
 10
-552.1197458609604
 20
770.9464009916046
 30
0.0
 40
6.499999999999776
100
AcDbArc
 50
180.0
 51
0.0
  0
LINE
  5
3407B
330
2678E
100
AcDbEntity
  8
0
100
AcDbLine
 10
-545.61973250952
 20
770.9463959964414
 30
0.0
 11
-545.61973250952
 21
776.9464081557889
 31
0.0
  0
ARC
  5
3407C
330
2678E
100
AcDbEntity
  8
0
100
AcDbCircle
 10
-552.1197458609604
 20
776.9464009916045
 30
0.0
 40
6.499999999999776
100
AcDbArc
 50
0.0
 51
180.0
  0
LINE
  5
3407D
330
2678E
100
AcDbEntity
  8
0
100
AcDbLine
 10
-558.6197439536045
 20
776.9464081557889
 30
0.0
 11
-558.6197439536045
 21
770.9463959964414
 31
0.0
  0
LINE
  5
3407E
330
2678E
100
AcDbEntity
  8
0
100
AcDbLine
 10
-537.1197525366733
 20
998.9463961156435
 30
0.0
 11
-647.1197668417953
 21
998.9463961156435
 31
0.0
  0
ARC
  5
3407F
330
2678E
100
AcDbEntity
  8
0
100
AcDbCircle
 10
-647.1197458609603
 20
988.9464009916046
 30
0.0
 40
10.00000000000114
100
AcDbArc
 50
90.0
 51
180.0
  0
LINE
  5
34080
330
2678E
100
AcDbEntity
  8
0
100
AcDbLine
 10
-557.1197334631943
 20
-676.0535412994795
 30
0.0
 11
-547.1197429999374
 21
-676.0535412994795
 31
0.0
  0
LINE
  5
34081
330
2678E
100
AcDbEntity
  8
0
100
AcDbLine
 10
-557.1197334631943
 20
-666.0535508362227
 30
0.0
 11
-547.1197429999374
 21
-666.0535508362227
 31
0.0
  0
LINE
  5
34082
330
2678E
100
AcDbEntity
  8
0
100
AcDbLine
 10
-547.1197429999374
 20
-796.0535460678511
 30
0.0
 11
-547.1197429999374
 21
-666.0535508362227
 31
0.0
  0
LINE
  5
34083
330
2678E
100
AcDbEntity
  8
0
100
AcDbLine
 10
-557.1197334631943
 20
-796.0535460678511
 30
0.0
 11
-547.1197429999374
 21
-796.0535460678511
 31
0.0
  0
LINE
  5
34084
330
2678E
100
AcDbEntity
  8
0
100
AcDbLine
 10
-557.1197334631943
 20
-786.0535556045943
 30
0.0
 11
-547.1197429999374
 21
-786.0535556045943
 31
0.0
  0
LINE
  5
34085
330
2678E
100
AcDbEntity
  8
0
100
AcDbLine
 10
-557.1197334631943
 20
373.9464110168047
 30
0.0
 11
-547.1197429999374
 21
373.9464110168047
 31
0.0
  0
LINE
  5
34086
330
2678E
100
AcDbEntity
  8
0
100
AcDbLine
 10
-557.1197334631943
 20
383.9464014800615
 30
0.0
 11
-547.1197429999374
 21
383.9464014800615
 31
0.0
  0
LINE
  5
34087
330
2678E
100
AcDbEntity
  8
0
100
AcDbLine
 10
-547.1197429999374
 20
253.9464062484331
 30
0.0
 11
-547.1197429999374
 21
383.9464014800615
 31
0.0
  0
LINE
  5
34088
330
2678E
100
AcDbEntity
  8
0
100
AcDbLine
 10
-557.1197334631943
 20
263.9463967116899
 30
0.0
 11
-547.1197429999374
 21
263.9463967116899
 31
0.0
  0
LINE
  5
34089
330
2678E
100
AcDbEntity
  8
0
100
AcDbLine
 10
-557.1197334631943
 20
253.9464062484331
 30
0.0
 11
-547.1197429999374
 21
253.9464062484331
 31
0.0
  0
LINE
  5
3408A
330
2678E
100
AcDbEntity
  8
0
100
AcDbLine
 10
508.8802512780167
 20
373.9464110168047
 30
0.0
 11
518.8802417412735
 21
373.9464110168047
 31
0.0
  0
LINE
  5
3408B
330
2678E
100
AcDbEntity
  8
0
100
AcDbLine
 10
508.8802512780167
 20
253.9464062484331
 30
0.0
 11
508.8802512780167
 21
383.9464014800615
 31
0.0
  0
LINE
  5
3408C
330
2678E
100
AcDbEntity
  8
0
100
AcDbLine
 10
508.8802512780167
 20
383.9464014800615
 30
0.0
 11
518.8802417412735
 21
383.9464014800615
 31
0.0
  0
LINE
  5
3408D
330
2678E
100
AcDbEntity
  8
0
100
AcDbLine
 10
508.8802512780167
 20
263.9463967116899
 30
0.0
 11
518.8802417412735
 21
263.9463967116899
 31
0.0
  0
LINE
  5
3408E
330
2678E
100
AcDbEntity
  8
0
100
AcDbLine
 10
508.8802512780167
 20
253.9464062484331
 30
0.0
 11
518.8802417412735
 21
253.9464062484331
 31
0.0
  0
LINE
  5
3408F
330
2678E
100
AcDbEntity
  8
0
100
AcDbLine
 10
618.8802655831278
 20
-846.0536175934247
 30
0.0
 11
618.8802655831314
 21
-616.0535985199385
 31
0.0
  0
ARC
  5
34090
330
2678E
100
AcDbEntity
  8
0
100
AcDbCircle
 10
608.8802541390359
 20
-846.0535990083954
 30
0.0
 40
10.0
100
AcDbArc
 50
270.0
 51
0.0
  0
LINE
  5
34091
330
2678E
100
AcDbEntity
  8
0
100
AcDbLine
 10
498.8802608147562
 20
-856.0536080566818
 30
0.0
 11
608.8802751198709
 21
-856.0536080566818
 31
0.0
  0
ARC
  5
34092
330
2678E
100
AcDbEntity
  8
0
100
AcDbCircle
 10
498.8802541390359
 20
-846.0535990083954
 30
0.0
 40
10.0
100
AcDbArc
 50
180.0
 51
270.0
  0
LINE
  5
34093
330
2678E
100
AcDbEntity
  8
0
100
AcDbLine
 10
488.880270351503
 20
-616.0535985199385
 30
0.0
 11
488.880270351503
 21
-706.0536318985396
 31
0.0
  0
LINE
  5
34094
330
2678E
100
AcDbEntity
  8
0
100
AcDbLine
 10
488.880270351503
 20
-756.0535842148238
 30
0.0
 11
488.8802703514993
 21
-846.0536175934247
 31
0.0
  0
ARC
  5
34095
330
2678E
100
AcDbEntity
  8
0
100
AcDbCircle
 10
498.8802541390396
 20
-616.0535990083953
 30
0.0
 40
10.00000000000057
100
AcDbArc
 50
90.0
 51
180.0
  0
ARC
  5
34096
330
2678E
100
AcDbEntity
  8
0
100
AcDbCircle
 10
608.8802541390395
 20
-616.0535990083953
 30
0.0
 40
10.00000000000057
100
AcDbArc
 50
0.0
 51
90.0
  0
CIRCLE
  5
34097
330
2678E
100
AcDbEntity
  8
0
100
AcDbCircle
 10
513.880254139036
 20
-831.0535990083954
 30
0.0
 40
6.499999999999776
  0
CIRCLE
  5
34098
330
2678E
100
AcDbEntity
  8
0
100
AcDbCircle
 10
593.8802541390396
 20
-631.0535990083954
 30
0.0
 40
6.499999999999776
  0
ARC
  5
34099
330
2678E
100
AcDbEntity
  8
0
100
AcDbCircle
 10
513.8802541390396
 20
-628.0535990083953
 30
0.0
 40
6.499999999999776
100
AcDbArc
 50
0.0
 51
180.0
  0
LINE
  5
3409A
330
2678E
100
AcDbEntity
  8
0
100
AcDbLine
 10
507.3802407875992
 20
-628.0535632339888
 30
0.0
 11
507.3802407875992
 21
-634.0536051956587
 31
0.0
  0
ARC
  5
3409B
330
2678E
100
AcDbEntity
  8
0
100
AcDbCircle
 10
513.8802541390396
 20
-634.0535990083954
 30
0.0
 40
6.499999999999776
100
AcDbArc
 50
180.0
 51
0.0
  0
LINE
  5
3409C
330
2678E
100
AcDbEntity
  8
0
100
AcDbLine
 10
520.380252231691
 20
-634.0536051956587
 30
0.0
 11
520.380252231691
 21
-628.0535632339888
 31
0.0
  0
ARC
  5
3409D
330
2678E
100
AcDbEntity
  8
0
100
AcDbCircle
 10
593.880254139036
 20
-834.0535990083953
 30
0.0
 40
6.499999999999776
100
AcDbArc
 50
180.0
 51
0.0
  0
LINE
  5
3409E
330
2678E
100
AcDbEntity
  8
0
100
AcDbLine
 10
600.3802355423868
 20
-834.0536528793744
 30
0.0
 11
600.3802355423868
 21
-828.0536109177045
 31
0.0
  0
ARC
  5
3409F
330
2678E
100
AcDbEntity
  8
0
100
AcDbCircle
 10
593.880254139036
 20
-828.0535990083954
 30
0.0
 40
6.499999999999776
100
AcDbArc
 50
0.0
 51
180.0
  0
LINE
  5
340A0
330
2678E
100
AcDbEntity
  8
0
100
AcDbLine
 10
587.3802837029398
 20
-828.0536109177045
 30
0.0
 11
587.3802837029398
 21
-834.0536528793744
 31
0.0
  0
LINE
  5
340A1
330
2678E
100
AcDbEntity
  8
0
100
AcDbLine
 10
608.8802751198746
 20
-606.0536080566817
 30
0.0
 11
580.1302727356888
 21
-606.0536080566817
 31
0.0
  0
LINE
  5
340A2
330
2678E
100
AcDbEntity
  8
0
100
AcDbLine
 10
527.6302631989456
 20
-606.0536080566817
 30
0.0
 11
498.8802608147598
 21
-606.0536080566817
 31
0.0
  0
LINE
  5
340A3
330
2678E
100
AcDbEntity
  8
0
100
AcDbLine
 10
508.8802512780167
 20
-676.0535412994795
 30
0.0
 11
518.8802417412735
 21
-676.0535412994795
 31
0.0
  0
LINE
  5
340A4
330
2678E
100
AcDbEntity
  8
0
100
AcDbLine
 10
508.8802512780167
 20
-666.0535508362227
 30
0.0
 11
518.8802417412735
 21
-666.0535508362227
 31
0.0
  0
LINE
  5
340A5
330
2678E
100
AcDbEntity
  8
0
100
AcDbLine
 10
508.8802512780167
 20
-796.0535460678511
 30
0.0
 11
508.8802512780167
 21
-666.0535508362227
 31
0.0
  0
LINE
  5
340A6
330
2678E
100
AcDbEntity
  8
0
100
AcDbLine
 10
508.8802512780167
 20
-786.0535556045943
 30
0.0
 11
518.8802417412735
 21
-786.0535556045943
 31
0.0
  0
LINE
  5
340A7
330
2678E
100
AcDbEntity
  8
0
100
AcDbLine
 10
508.8802512780167
 20
-796.0535460678511
 30
0.0
 11
518.8802417412735
 21
-796.0535460678511
 31
0.0
  0
LINE
  5
340A8
330
2678E
100
AcDbEntity
  8
0
100
AcDbLine
 10
-767.1197716101596
 20
-426.803606149333
 30
0.0
 11
-767.1197716101596
 21
-485.0535565582686
 31
0.0
  0
LINE
  5
340A9
330
2678E
100
AcDbEntity
  8
0
100
AcDbLine
 10
-767.1197716101596
 20
-470.8036357132368
 30
0.0
 11
-772.1197668417953
 21
-470.8036357132368
 31
0.0
  0
LINE
  5
340AA
330
2678E
100
AcDbEntity
  8
0
100
AcDbLine
 10
-767.1197716101596
 20
-440.8035451141768
 30
0.0
 11
-772.1197668417953
 21
-440.8035451141768
 31
0.0
  0
LINE
  5
340AB
330
2678E
100
AcDbEntity
  8
0
100
AcDbLine
 10
-772.1197668417953
 20
-485.0535565582686
 30
0.0
 11
-772.1197668417953
 21
-426.803606149333
 31
0.0
  0
LINE
  5
340AC
330
2678E
100
AcDbEntity
  8
0
100
AcDbLine
 10
728.8802798882461
 20
-440.8035451141768
 30
0.0
 11
733.8802751198746
 21
-440.8035451141768
 31
0.0
  0
LINE
  5
340AD
330
2678E
100
AcDbEntity
  8
0
100
AcDbLine
 10
728.8802798882461
 20
-470.8036357132368
 30
0.0
 11
733.8802751198746
 21
-470.8036357132368
 31
0.0
  0
LINE
  5
340AE
330
2678E
100
AcDbEntity
  8
0
100
AcDbLine
 10
728.8802798882461
 20
-485.0535565582686
 30
0.0
 11
728.8802798882461
 21
-426.803606149333
 31
0.0
  0
LINE
  5
340AF
330
2678E
100
AcDbEntity
  8
0
100
AcDbLine
 10
733.8802751198746
 20
-426.803606149333
 30
0.0
 11
733.8802751198746
 21
-485.0535565582686
 31
0.0
  0
LINE
  5
340B0
330
2678E
100
AcDbEntity
  8
0
100
AcDbLine
 10
673.8802727356888
 20
1143.946401256544
 30
0.0
 11
673.8802727356888
 21
1133.946400991612
 31
0.0
  0
LINE
  5
340B1
330
2678E
100
AcDbEntity
  8
0
100
AcDbLine
 10
683.8802631989456
 20
1143.946401256544
 30
0.0
 11
683.8802631989456
 21
1061.800380650384
 31
0.0
  0
LINE
  5
340B2
330
2678E
100
AcDbEntity
  8
0
100
AcDbLine
 10
493.8802655831314
 20
1143.946401256544
 30
0.0
 11
493.8802655831314
 21
1133.946400991612
 31
0.0
  0
LINE
  5
340B3
330
2678E
100
AcDbEntity
  8
0
100
AcDbLine
 10
483.8802751198746
 20
1143.946401256544
 30
0.0
 11
483.8802751198746
 21
898.2963985236784
 31
0.0
  0
LINE
  5
340B4
330
2678E
100
AcDbEntity
  8
0
100
AcDbLine
 10
683.8802631989456
 20
1133.946400991612
 30
0.0
 11
483.8802751198746
 21
1133.946400991612
 31
0.0
  0
LINE
  5
340B5
330
2678E
100
AcDbEntity
  8
0
100
AcDbLine
 10
683.8802631989456
 20
1143.946401256544
 30
0.0
 11
483.8802751198746
 21
1143.946401256544
 31
0.0
  0
ARC
  5
340B6
330
2678E
100
AcDbEntity
  8
0
100
AcDbCircle
 10
657.1302541390395
 20
1081.800382625581
 30
0.0
 40
6.499999999999776
100
AcDbArc
 50
270.0
 51
90.0
  0
LINE
  5
340B7
330
2678E
100
AcDbEntity
  8
0
100
AcDbLine
 10
657.1302350655533
 20
1088.300382200104
 30
0.0
 11
650.6302293435074
 21
1088.300382200104
 31
0.0
  0
ARC
  5
340B8
330
2678E
100
AcDbEntity
  8
0
100
AcDbCircle
 10
650.6302541390469
 20
1081.800382625581
 30
0.0
 40
6.499999999999776
100
AcDbArc
 50
90.0
 51
270.0
  0
LINE
  5
340B9
330
2678E
100
AcDbEntity
  8
0
100
AcDbLine
 10
650.6302293435074
 20
1075.300381931891
 30
0.0
 11
657.1302350655533
 21
1075.300381931891
 31
0.0
  0
ARC
  5
340BA
330
2678E
100
AcDbEntity
  8
0
100
AcDbCircle
 10
673.8802541390396
 20
1061.800382625581
 30
0.0
 40
10.0
100
AcDbArc
 50
270.0
 51
0.0
  0
LINE
  5
340BB
330
2678E
100
AcDbEntity
  8
0
100
AcDbLine
 10
623.8802608147598
 20
1051.800382736546
 30
0.0
 11
673.8802727356888
 21
1051.800382736546
 31
0.0
  0
LINE
  5
340BC
330
2678E
100
AcDbEntity
  8
0
100
AcDbLine
 10
-712.1197644576132
 20
-973.5536748138839
 30
0.0
 11
-712.1197644576132
 21
-963.5536843506198
 31
0.0
  0
LINE
  5
340BD
330
2678E
100
AcDbEntity
  8
0
100
AcDbLine
 10
-722.1197549208627
 20
-963.5536843506198
 30
0.0
 11
-622.5206915244089
 21
-963.5536843506198
 31
0.0
  0
LINE
  5
340BE
330
2678E
100
AcDbEntity
  8
0
100
AcDbLine
 10
-722.1197549208627
 20
-973.5536748138839
 30
0.0
 11
-619.3848315581381
 21
-973.5536748138839
 31
0.0
  0
ARC
  5
340BF
330
2678E
100
AcDbEntity
  8
0
100
AcDbCircle
 10
-695.3697458609568
 20
-911.4075806423644
 30
0.0
 40
6.500000000000344
100
AcDbArc
 50
90.0
 51
270.0
  0
LINE
  5
340C0
330
2678E
100
AcDbEntity
  8
0
100
AcDbLine
 10
-695.3697267874777
 20
-917.9074937073165
 30
0.0
 11
-688.8697210654318
 21
-917.9074937073165
 31
0.0
  0
ARC
  5
340C1
330
2678E
100
AcDbEntity
  8
0
100
AcDbCircle
 10
-688.8697458609567
 20
-911.4075806423644
 30
0.0
 40
6.500000000000344
100
AcDbArc
 50
270.0
 51
90.0
  0
LINE
  5
340C2
330
2678E
100
AcDbEntity
  8
0
100
AcDbLine
 10
-688.8697210654318
 20
-904.9074822632174
 30
0.0
 11
-695.3697267874777
 21
-904.9074822632174
 31
0.0
  0
LINE
  5
340C3
330
2678E
100
AcDbEntity
  8
0
100
AcDbLine
 10
-722.1197549208627
 20
-891.4075070587569
 30
0.0
 11
-722.1197549208627
 21
-973.5536748138839
 31
0.0
  0
ARC
  5
340C4
330
2678E
100
AcDbEntity
  8
0
100
AcDbCircle
 10
-712.1197458609567
 20
-891.4075806423642
 30
0.0
 40
10.0
100
AcDbArc
 50
90.0
 51
180.0
  0
LINE
  5
340C5
330
2678E
100
AcDbEntity
  8
0
100
AcDbLine
 10
-662.1197525366842
 20
-881.4075165955001
 30
0.0
 11
-712.1197644576132
 21
-881.4075165955001
 31
0.0
  0
LINE
  5
340C6
330
2678E
100
AcDbEntity
  8
0
100
AcDbLine
 10
-712.1197644576096
 20
1143.946401256544
 30
0.0
 11
-712.1197644576096
 21
1133.946400991612
 31
0.0
  0
LINE
  5
340C7
330
2678E
100
AcDbEntity
  8
0
100
AcDbLine
 10
-532.1197573050522
 20
1143.946401256544
 30
0.0
 11
-532.1197573050522
 21
1133.946400991612
 31
0.0
  0
LINE
  5
340C8
330
2678E
100
AcDbEntity
  8
0
100
AcDbLine
 10
-522.1197668417953
 20
1143.946401256544
 30
0.0
 11
-522.1197668417953
 21
898.2963985236784
 31
0.0
  0
LINE
  5
340C9
330
2678E
100
AcDbEntity
  8
0
100
AcDbLine
 10
-722.1197549208591
 20
1143.946401256544
 30
0.0
 11
-722.1197549208591
 21
1061.800380650384
 31
0.0
  0
LINE
  5
340CA
330
2678E
100
AcDbEntity
  8
0
100
AcDbLine
 10
-522.1197668417953
 20
1143.946401256544
 30
0.0
 11
-722.1197549208591
 21
1143.946401256544
 31
0.0
  0
LINE
  5
340CB
330
2678E
100
AcDbEntity
  8
0
100
AcDbLine
 10
-522.1197668417953
 20
1133.946400991612
 30
0.0
 11
-722.1197549208591
 21
1133.946400991612
 31
0.0
  0
LINE
  5
340CC
330
2678E
100
AcDbEntity
  8
0
100
AcDbLine
 10
-712.1197644576096
 20
1051.800382736546
 30
0.0
 11
-662.1197525366806
 21
1051.800382736546
 31
0.0
  0
ARC
  5
340CD
330
2678E
100
AcDbEntity
  8
0
100
AcDbCircle
 10
-712.1197458609531
 20
1061.800382625581
 30
0.0
 40
10.0
100
AcDbArc
 50
180.0
 51
270.0
  0
ARC
  5
340CE
330
2678E
100
AcDbEntity
  8
0
100
AcDbCircle
 10
-695.3697458609531
 20
1081.800382625581
 30
0.0
 40
6.500000000000913
100
AcDbArc
 50
90.0
 51
270.0
  0
LINE
  5
340CF
330
2678E
100
AcDbEntity
  8
0
100
AcDbLine
 10
-695.3697267874741
 20
1075.300381931891
 30
0.0
 11
-688.8697210654282
 21
1075.300381931891
 31
0.0
  0
ARC
  5
340D0
330
2678E
100
AcDbEntity
  8
0
100
AcDbCircle
 10
-688.8697458609531
 20
1081.800382625581
 30
0.0
 40
6.500000000000913
100
AcDbArc
 50
270.0
 51
90.0
  0
LINE
  5
340D1
330
2678E
100
AcDbEntity
  8
0
100
AcDbLine
 10
-688.8697210654282
 20
1088.300382200104
 30
0.0
 11
-695.3697267874741
 21
1088.300382200104
 31
0.0
  0
LINE
  5
340D2
330
2678E
100
AcDbEntity
  8
0
100
AcDbLine
 10
673.8802727356851
 20
-973.5536748138839
 30
0.0
 11
673.8802727356851
 21
-963.5536843506198
 31
0.0
  0
LINE
  5
340D3
330
2678E
100
AcDbEntity
  8
0
100
AcDbLine
 10
581.1646517411173
 20
-973.5536748138839
 30
0.0
 11
683.880263198942
 21
-973.5536748138839
 31
0.0
  0
LINE
  5
340D4
330
2678E
100
AcDbEntity
  8
0
100
AcDbLine
 10
584.2803057328165
 20
-963.5536843506198
 30
0.0
 11
683.880263198942
 21
-963.5536843506198
 31
0.0
  0
LINE
  5
340D5
330
2678E
100
AcDbEntity
  8
0
100
AcDbLine
 10
673.8802727356851
 20
-881.4075165955001
 30
0.0
 11
623.8802608147562
 21
-881.4075165955001
 31
0.0
  0
ARC
  5
340D6
330
2678E
100
AcDbEntity
  8
0
100
AcDbCircle
 10
673.8802541390359
 20
-891.4075806423642
 30
0.0
 40
10.0
100
AcDbArc
 50
0.0
 51
90.0
  0
LINE
  5
340D7
330
2678E
100
AcDbEntity
  8
0
100
AcDbLine
 10
683.880263198942
 20
-973.5536748138839
 30
0.0
 11
683.880263198942
 21
-891.4075070587569
 31
0.0
  0
ARC
  5
340D8
330
2678E
100
AcDbEntity
  8
0
100
AcDbCircle
 10
657.1302541390359
 20
-911.4075806423644
 30
0.0
 40
6.500000000000344
100
AcDbArc
 50
270.0
 51
90.0
  0
LINE
  5
340D9
330
2678E
100
AcDbEntity
  8
0
100
AcDbLine
 10
657.1302350655496
 20
-904.9074822632174
 30
0.0
 11
650.6302293435037
 21
-904.9074822632174
 31
0.0
  0
ARC
  5
340DA
330
2678E
100
AcDbEntity
  8
0
100
AcDbCircle
 10
650.6302541390432
 20
-911.4075806423644
 30
0.0
 40
6.500000000000344
100
AcDbArc
 50
90.0
 51
270.0
  0
LINE
  5
340DB
330
2678E
100
AcDbEntity
  8
0
100
AcDbLine
 10
650.6302293435037
 20
-917.9074937073165
 30
0.0
 11
657.1302350655496
 21
-917.9074937073165
 31
0.0
  0
LINE
  5
340DC
330
2678E
100
AcDbEntity
  8
0
100
AcDbLine
 10
589.8802813187576
 20
-700.5535536972456
 30
0.0
 11
589.8802813187576
 21
-681.5536195007735
 31
0.0
  0
CIRCLE
  5
340DD
330
2678E
100
AcDbEntity
  8
0
100
AcDbCircle
 10
-632.1197458609677
 20
773.9464009916046
 30
0.0
 40
5.099999999999843
  0
CIRCLE
  5
340DE
330
2678E
100
AcDbEntity
  8
0
100
AcDbCircle
 10
-632.1197458609495
 20
-831.0535990084026
 30
0.0
 40
5.099999999999901
  0
CIRCLE
  5
340DF
330
2678E
100
AcDbEntity
  8
0
100
AcDbCircle
 10
-552.1197458609495
 20
-831.0535990084026
 30
0.0
 40
5.100000000000331
  0
ARC
  5
340E0
330
2678E
100
AcDbEntity
  8
0
100
AcDbCircle
 10
-632.1197458609604
 20
218.9464009915973
 30
0.0
 40
5.100000000000252
100
AcDbArc
 50
11.36487696748404
 51
348.6351166261808
  0
CIRCLE
  5
340E1
330
2678E
100
AcDbEntity
  8
0
100
AcDbCircle
 10
-632.1197458609604
 20
418.9464009915973
 30
0.0
 40
5.099999999999506
  0
CIRCLE
  5
340E2
330
2678E
100
AcDbEntity
  8
0
100
AcDbCircle
 10
-632.1197458609677
 20
973.9464009916046
 30
0.0
 40
5.099999999999994
  0
CIRCLE
  5
340E3
330
2678E
100
AcDbEntity
  8
0
100
AcDbCircle
 10
-632.1197458609458
 20
-631.0535990084026
 30
0.0
 40
5.100000000000331
  0
CIRCLE
  5
340E4
330
2678E
100
AcDbEntity
  8
0
100
AcDbCircle
 10
-552.1197458609604
 20
218.9464009915973
 30
0.0
 40
5.100000000000252
  0
LINE
  5
340E5
330
2678E
100
AcDbEntity
  8
0
100
AcDbLine
 10
589.8802813187576
 20
-761.5535432068281
 30
0.0
 11
589.8802813187576
 21
-780.5535966125899
 31
0.0
  0
CIRCLE
  5
340E6
330
2678E
100
AcDbEntity
  8
0
100
AcDbCircle
 10
-552.1197458609458
 20
-631.0535990084026
 30
0.0
 40
5.09999999999996
  0
CIRCLE
  5
340E7
330
2678E
100
AcDbEntity
  8
0
100
AcDbCircle
 10
-552.1197458609458
 20
973.9464009915973
 30
0.0
 40
5.099999999999994
  0
CIRCLE
  5
340E8
330
2678E
100
AcDbEntity
  8
0
100
AcDbCircle
 10
513.8802541390504
 20
-831.0535990083808
 30
0.0
 40
5.100000000001275
  0
CIRCLE
  5
340E9
330
2678E
100
AcDbEntity
  8
0
100
AcDbCircle
 10
513.8802541390396
 20
773.9464009915973
 30
0.0
 40
5.100000000000537
  0
CIRCLE
  5
340EA
330
2678E
100
AcDbEntity
  8
0
100
AcDbCircle
 10
513.8802541390541
 20
-631.0535990083881
 30
0.0
 40
5.100000000000993
  0
CIRCLE
  5
340EB
330
2678E
100
AcDbEntity
  8
0
100
AcDbCircle
 10
593.8802541390505
 20
-831.0535990083808
 30
0.0
 40
5.100000000000289
  0
CIRCLE
  5
340EC
330
2678E
100
AcDbEntity
  8
0
100
AcDbCircle
 10
513.8802541390396
 20
973.9464009916192
 30
0.0
 40
5.100000000000356
  0
CIRCLE
  5
340ED
330
2678E
100
AcDbEntity
  8
0
100
AcDbCircle
 10
593.8802541390542
 20
-631.0535990083808
 30
0.0
 40
5.100000000001275
  0
CIRCLE
  5
340EE
330
2678E
100
AcDbEntity
  8
0
100
AcDbCircle
 10
593.8802541390396
 20
773.9464009915973
 30
0.0
 40
5.099999999999416
  0
CIRCLE
  5
340EF
330
2678E
100
AcDbEntity
  8
0
100
AcDbCircle
 10
593.8802541390542
 20
973.9464009916192
 30
0.0
 40
5.100000000000356
  0
CIRCLE
  5
340F0
330
2678E
100
AcDbEntity
  8
0
100
AcDbCircle
 10
-552.1197458609458
 20
773.9464009915973
 30
0.0
 40
5.09999999999996
  0
CIRCLE
  5
340F1
330
2678E
100
AcDbEntity
  8
0
100
AcDbCircle
 10
-552.1197458609531
 20
418.9464009915973
 30
0.0
 40
5.100000000000514
  0
CIRCLE
  5
340F2
330
2678E
100
AcDbEntity
  8
0
100
AcDbCircle
 10
593.8802541390323
 20
418.9464009916191
 30
0.0
 40
5.100000000000957
  0
CIRCLE
  5
340F3
330
2678E
100
AcDbEntity
  8
0
100
AcDbCircle
 10
513.8802541390541
 20
418.9464009916118
 30
0.0
 40
5.09999999999993
  0
LINE
  5
340F4
330
2678E
100
AcDbEntity
  8
0
100
AcDbLine
 10
589.8802813187576
 20
368.4463924201555
 30
0.0
 11
589.8802813187576
 21
349.4463986190385
 31
0.0
  0
ARC
  5
340F5
330
2678E
100
AcDbEntity
  8
0
100
AcDbCircle
 10
593.8802541390396
 20
218.9464009916191
 30
0.0
 40
5.100000000000289
100
AcDbArc
 50
191.3648769678927
 51
168.6350791783723
  0
CIRCLE
  5
340F6
330
2678E
100
AcDbEntity
  8
0
100
AcDbCircle
 10
513.8802541390541
 20
218.9464009916119
 30
0.0
 40
5.100000000000005
  0
LINE
  5
340F7
330
2678E
100
AcDbEntity
  8
0
100
AcDbLine
 10
589.8802813187576
 20
288.446409109456
 30
0.0
 11
589.8802813187576
 21
269.4464153083391
 31
0.0
  0
LINE
  5
340F8
330
2678E
100
AcDbEntity
  8
0
100
AcDbLine
 10
-628.1197730406784
 20
349.4463986190385
 30
0.0
 11
-628.1197730406784
 21
368.4463924201555
 31
0.0
  0
LINE
  5
340F9
330
2678E
100
AcDbEntity
  8
0
100
AcDbLine
 10
-628.1197730406784
 20
269.4464153083391
 30
0.0
 11
-628.1197730406784
 21
288.446409109456
 31
0.0
  0
LINE
  5
340FA
330
2678E
100
AcDbEntity
  8
0
100
AcDbLine
 10
-628.1197730406784
 20
-700.5535536972456
 30
0.0
 11
-628.1197730406784
 21
-681.5536195007735
 31
0.0
  0
LINE
  5
340FB
330
2678E
100
AcDbEntity
  8
0
100
AcDbLine
 10
-628.1197730406784
 20
-780.5535966125899
 30
0.0
 11
-628.1197730406784
 21
-761.5535432068281
 31
0.0
  0
CIRCLE
  5
340FC
330
2678E
100
AcDbEntity
  8
0
100
AcDbCircle
 10
553.8802541390396
 20
1083.946400991612
 30
0.0
 40
32.16173798455057
  0
CIRCLE
  5
340FD
330
2678E
100
AcDbEntity
  8
0
100
AcDbCircle
 10
553.8802541390396
 20
1083.946400991612
 30
0.0
 40
33.32019391523013
  0
CIRCLE
  5
340FE
330
2678E
100
AcDbEntity
  8
0
100
AcDbCircle
 10
553.8802541390396
 20
1083.946400991612
 30
0.0
 40
34.30500166824187
  0
CIRCLE
  5
340FF
330
2678E
100
AcDbEntity
  8
0
100
AcDbCircle
 10
553.8802541390396
 20
1083.946400991612
 30
0.0
 40
27.0911534819259
  0
CIRCLE
  5
34100
330
2678E
100
AcDbEntity
  8
0
100
AcDbCircle
 10
553.8802541390396
 20
1083.946400991612
 30
0.0
 40
26.99999999999951
  0
CIRCLE
  5
34101
330
2678E
100
AcDbEntity
  8
0
100
AcDbCircle
 10
-592.1197458609531
 20
1083.946400991612
 30
0.0
 40
32.1617379845502
  0
CIRCLE
  5
34102
330
2678E
100
AcDbEntity
  8
0
100
AcDbCircle
 10
-592.1197458609531
 20
1083.946400991612
 30
0.0
 40
33.3201939152297
  0
CIRCLE
  5
34103
330
2678E
100
AcDbEntity
  8
0
100
AcDbCircle
 10
-592.1197458609531
 20
1083.946400991612
 30
0.0
 40
34.30500166824226
  0
CIRCLE
  5
34104
330
2678E
100
AcDbEntity
  8
0
100
AcDbCircle
 10
-592.1197458609531
 20
1083.946400991612
 30
0.0
 40
27.09115348192707
  0
CIRCLE
  5
34105
330
2678E
100
AcDbEntity
  8
0
100
AcDbCircle
 10
-592.1197458609531
 20
1083.946400991612
 30
0.0
 40
27.00000000000016
  0
LINE
  5
34106
330
2678E
100
AcDbEntity
  8
0
100
AcDbLine
 10
-622.1197310790085
 20
-642.0536214081221
 30
0.0
 11
-622.1197310790085
 21
-650.5536013809614
 31
0.0
  0
LINE
  5
34107
330
2678E
100
AcDbEntity
  8
0
100
AcDbLine
 10
-562.1197286948154
 20
-642.0536214081221
 30
0.0
 11
-562.1197286948154
 21
-650.5536013809614
 31
0.0
  0
LINE
  5
34108
330
2678E
100
AcDbEntity
  8
0
100
AcDbLine
 10
523.8802369729019
 20
-642.0536214081221
 30
0.0
 11
523.8802369729019
 21
-650.5536013809614
 31
0.0
  0
LINE
  5
34109
330
2678E
100
AcDbEntity
  8
0
100
AcDbLine
 10
583.8802393570877
 20
-642.0536214081221
 30
0.0
 11
583.8802393570877
 21
-650.5536013809614
 31
0.0
  0
LINE
  5
3410A
330
2678E
100
AcDbEntity
  8
0
100
AcDbLine
 10
-525.1197282179892
 20
-942.6272088257247
 30
0.0
 11
-525.1197282179855
 21
-756.0535842148238
 31
0.0
  0
LINE
  5
3410B
330
2678E
100
AcDbEntity
  8
0
100
AcDbLine
 10
-525.1197282179855
 20
-706.0536318985396
 30
0.0
 11
-525.1197282179855
 21
-157.7808266107458
 31
0.0
  0
LINE
  5
3410C
330
2678E
100
AcDbEntity
  8
0
100
AcDbLine
 10
-525.1197282179855
 20
-127.7808266107458
 30
0.0
 11
-525.1197282179855
 21
293.9464277061052
 31
0.0
  0
LINE
  5
3410D
330
2678E
100
AcDbEntity
  8
0
100
AcDbLine
 10
-525.1197282179855
 20
343.9463800223894
 30
0.0
 11
-525.1197282179855
 21
849.5963937076158
 31
0.0
  0
LINE
  5
3410E
330
2678E
100
AcDbEntity
  8
0
100
AcDbLine
 10
-525.1197282179855
 20
898.2963985236784
 30
0.0
 11
-525.1197282179855
 21
1133.946400991612
 31
0.0
  0
LINE
  5
3410F
330
2678E
100
AcDbEntity
  8
0
100
AcDbLine
 10
-659.119731555842
 20
-963.5536843506198
 30
0.0
 11
-659.1197315558384
 21
-468.3035784927779
 31
0.0
  0
LINE
  5
34110
330
2678E
100
AcDbEntity
  8
0
100
AcDbLine
 10
-659.1197315558384
 20
-443.3036023346358
 30
0.0
 11
-659.1197315558384
 21
-218.3035784927779
 31
0.0
  0
LINE
  5
34111
330
2678E
100
AcDbEntity
  8
0
100
AcDbLine
 10
-659.1197315558384
 20
-193.3036023346358
 30
0.0
 11
-659.1197315558384
 21
-157.7808266107458
 31
0.0
  0
LINE
  5
34112
330
2678E
100
AcDbEntity
  8
0
100
AcDbLine
 10
-659.1197315558384
 20
-127.7808266107458
 30
0.0
 11
-659.1197315558384
 21
31.69642150722211
 31
0.0
  0
LINE
  5
34113
330
2678E
100
AcDbEntity
  8
0
100
AcDbLine
 10
-659.1197315558384
 20
56.6963976653642
 30
0.0
 11
-659.1197315558384
 21
849.5963937076158
 31
0.0
  0
LINE
  5
34114
330
2678E
100
AcDbEntity
  8
0
100
AcDbLine
 10
-659.1197315558384
 20
898.2963985236784
 30
0.0
 11
-659.1197315558384
 21
1133.946400991612
 31
0.0
  0
LINE
  5
34115
330
2678E
100
AcDbEntity
  8
0
100
AcDbLine
 10
486.8802364960611
 20
-942.5642663208419
 30
0.0
 11
486.8802364960647
 21
-756.0535842148238
 31
0.0
  0
LINE
  5
34116
330
2678E
100
AcDbEntity
  8
0
100
AcDbLine
 10
486.8802364960647
 20
-706.0536318985396
 30
0.0
 11
486.8802364960647
 21
-157.7808266107458
 31
0.0
  0
LINE
  5
34117
330
2678E
100
AcDbEntity
  8
0
100
AcDbLine
 10
486.8802364960647
 20
-127.7808266107458
 30
0.0
 11
486.8802364960647
 21
293.9464277061052
 31
0.0
  0
LINE
  5
34118
330
2678E
100
AcDbEntity
  8
0
100
AcDbLine
 10
486.8802364960647
 20
343.9463800223894
 30
0.0
 11
486.8802364960647
 21
849.5963937076158
 31
0.0
  0
LINE
  5
34119
330
2678E
100
AcDbEntity
  8
0
100
AcDbLine
 10
486.8802364960647
 20
898.2963985236784
 30
0.0
 11
486.8802364960647
 21
1133.946400991612
 31
0.0
  0
LINE
  5
3411A
330
2678E
100
AcDbEntity
  8
0
100
AcDbLine
 10
620.8802398339212
 20
-963.5536843506198
 30
0.0
 11
620.8802398339249
 21
-468.3035784927779
 31
0.0
  0
LINE
  5
3411B
330
2678E
100
AcDbEntity
  8
0
100
AcDbLine
 10
620.8802398339249
 20
-443.3036023346358
 30
0.0
 11
620.8802398339249
 21
-218.3035784927779
 31
0.0
  0
LINE
  5
3411C
330
2678E
100
AcDbEntity
  8
0
100
AcDbLine
 10
620.8802398339249
 20
-193.3036023346358
 30
0.0
 11
620.8802398339321
 21
-157.7808266107458
 31
0.0
  0
LINE
  5
3411D
330
2678E
100
AcDbEntity
  8
0
100
AcDbLine
 10
620.8802398339321
 20
-127.7808266107458
 30
0.0
 11
620.8802398339249
 21
31.69642150722211
 31
0.0
  0
LINE
  5
3411E
330
2678E
100
AcDbEntity
  8
0
100
AcDbLine
 10
620.8802398339249
 20
56.6963976653642
 30
0.0
 11
620.8802398339249
 21
849.5963937076158
 31
0.0
  0
LINE
  5
3411F
330
2678E
100
AcDbEntity
  8
0
100
AcDbLine
 10
620.8802398339249
 20
898.2963985236784
 30
0.0
 11
620.8802398339249
 21
1133.946400991612
 31
0.0
  0
LINE
  5
34120
330
2678E
100
AcDbEntity
  8
0
100
AcDbLine
 10
562.8802713051773
 20
-804.0535622803144
 30
0.0
 11
544.8802646294571
 21
-804.0535622803144
 31
0.0
  0
LINE
  5
34121
330
2678E
100
AcDbEntity
  8
0
100
AcDbLine
 10
-583.1197563513779
 20
-804.0535622803144
 30
0.0
 11
-601.1197630270981
 21
-804.0535622803144
 31
0.0
  0
LINE
  5
34122
330
2678E
100
AcDbEntity
  8
0
100
AcDbLine
 10
-640.1197377547287
 20
911.9463986190458
 30
0.0
 11
-640.1197377547287
 21
835.9463936122484
 31
0.0
  0
LINE
  5
34123
330
2678E
100
AcDbEntity
  8
0
100
AcDbLine
 10
-619.1197697028183
 20
911.9463986190458
 30
0.0
 11
-619.1197697028183
 21
835.9463936122484
 31
0.0
  0
LINE
  5
34124
330
2678E
100
AcDbEntity
  8
0
100
AcDbLine
 10
-544.1197220190952
 20
835.9463936122484
 30
0.0
 11
-544.1197220190952
 21
911.9463986190458
 31
0.0
  0
LINE
  5
34125
330
2678E
100
AcDbEntity
  8
0
100
AcDbLine
 10
-565.1197496756577
 20
835.9463936122484
 30
0.0
 11
-565.1197496756577
 21
911.9463986190458
 31
0.0
  0
LINE
  5
34126
330
2678E
100
AcDbEntity
  8
0
100
AcDbLine
 10
526.8802579537369
 20
911.9463986190458
 30
0.0
 11
526.8802579537369
 21
835.9463936122484
 31
0.0
  0
LINE
  5
34127
330
2678E
100
AcDbEntity
  8
0
100
AcDbLine
 10
505.8802302971817
 20
911.9463986190458
 30
0.0
 11
505.8802302971817
 21
835.9463936122484
 31
0.0
  0
LINE
  5
34128
330
2678E
100
AcDbEntity
  8
0
100
AcDbLine
 10
580.8802779808975
 20
835.9463936122484
 30
0.0
 11
580.8802779808975
 21
911.9463986190458
 31
0.0
  0
LINE
  5
34129
330
2678E
100
AcDbEntity
  8
0
100
AcDbLine
 10
601.8802460328079
 20
835.9463936122484
 30
0.0
 11
601.8802460328079
 21
911.9463986190458
 31
0.0
  0
LINE
  5
3412A
330
2678E
100
AcDbEntity
  8
0
100
AcDbLine
 10
-621.1197439536118
 20
227.6964014800615
 30
0.0
 11
-621.1197439536118
 21
224.0343517097063
 31
0.0
  0
LINE
  5
3412B
330
2678E
100
AcDbEntity
  8
0
100
AcDbLine
 10
-621.1197439536118
 20
185.1434534820146
 30
0.0
 11
-621.1197439536118
 21
182.8453964026994
 31
0.0
  0
LINE
  5
3412C
330
2678E
100
AcDbEntity
  8
0
100
AcDbLine
 10
582.880252231691
 20
182.8453964026994
 30
0.0
 11
582.880252231691
 21
185.1434534820146
 31
0.0
  0
LINE
  5
3412D
330
2678E
100
AcDbEntity
  8
0
100
AcDbLine
 10
582.880252231691
 20
224.0343517097063
 30
0.0
 11
582.880252231691
 21
227.6964014800615
 31
0.0
  0
LINE
  5
3412E
330
2678E
100
AcDbEntity
  8
0
100
AcDbLine
 10
-627.1197263106369
 20
396.1964076789445
 30
0.0
 11
-624.6197286948227
 21
396.1964076789445
 31
0.0
  0
ARC
  5
3412F
330
2678E
100
AcDbEntity
  8
0
100
AcDbCircle
 10
-560.681690762889
 20
385.1964009916192
 30
0.0
 40
10.99999999999974
100
AcDbArc
 50
0.0
 51
84.46001157731748
  0
LINE
  5
34130
330
2678E
100
AcDbEntity
  8
0
100
AcDbLine
 10
-560.6817070349716
 20
404.1964238914078
 30
0.0
 11
-567.1197239264511
 21
404.1964238914078
 31
0.0
  0
ARC
  5
34131
330
2678E
100
AcDbEntity
  8
0
100
AcDbCircle
 10
-560.681690762889
 20
252.6964009916191
 30
0.0
 40
11.00000000000023
100
AcDbArc
 50
275.5399884226825
 51
0.0
  0
LINE
  5
34132
330
2678E
100
AcDbEntity
  8
0
100
AcDbLine
 10
-567.1197239264511
 20
233.6963838370866
 30
0.0
 11
-560.6817070349716
 21
233.6963838370866
 31
0.0
  0
LINE
  5
34133
330
2678E
100
AcDbEntity
  8
0
100
AcDbLine
 10
-622.1197310790085
 20
238.9464205535478
 30
0.0
 11
-622.1197310790085
 21
232.6963967116899
 31
0.0
  0
LINE
  5
34134
330
2678E
100
AcDbEntity
  8
0
100
AcDbLine
 10
-560.6817070349716
 20
238.9464205535478
 30
0.0
 11
-560.6817070349716
 21
232.6963967116899
 31
0.0
  0
LINE
  5
34135
330
2678E
100
AcDbEntity
  8
0
100
AcDbLine
 10
-624.6197286948227
 20
241.69640004955
 30
0.0
 11
-627.1197263106369
 21
241.69640004955
 31
0.0
  0
LINE
  5
34136
330
2678E
100
AcDbEntity
  8
0
100
AcDbLine
 10
-541.6817132338547
 20
252.6963776382036
 30
0.0
 11
-541.6817132338547
 21
293.9464277061052
 31
0.0
  0
LINE
  5
34137
330
2678E
100
AcDbEntity
  8
0
100
AcDbLine
 10
-541.6817132338547
 20
343.9463800223894
 30
0.0
 11
-541.6817132338547
 21
385.196430090291
 31
0.0
  0
LINE
  5
34138
330
2678E
100
AcDbEntity
  8
0
100
AcDbLine
 10
-549.6816698416733
 20
385.196430090291
 30
0.0
 11
-549.6816698416733
 21
383.9464014800615
 31
0.0
  0
LINE
  5
34139
330
2678E
100
AcDbEntity
  8
0
100
AcDbLine
 10
-549.6816698416733
 20
253.9464062484331
 30
0.0
 11
-549.6816698416733
 21
252.6963776382036
 31
0.0
  0
LINE
  5
3413A
330
2678E
100
AcDbEntity
  8
0
100
AcDbLine
 10
588.8802345887161
 20
404.1964238914078
 30
0.0
 11
578.8802441254593
 21
404.1964238914078
 31
0.0
  0
LINE
  5
3413B
330
2678E
100
AcDbEntity
  8
0
100
AcDbLine
 10
528.8802322045303
 20
404.1964238914078
 30
0.0
 11
522.4422153130508
 21
404.1964238914078
 31
0.0
  0
LINE
  5
3413C
330
2678E
100
AcDbEntity
  8
0
100
AcDbLine
 10
586.3802369729019
 20
396.1964076789445
 30
0.0
 11
588.8802345887161
 21
396.1964076789445
 31
0.0
  0
ARC
  5
3413D
330
2678E
100
AcDbEntity
  8
0
100
AcDbCircle
 10
522.4421990409755
 20
385.1964009916119
 30
0.0
 40
11.00000000000024
100
AcDbArc
 50
95.53998842268255
 51
180.0
  0
LINE
  5
3413E
330
2678E
100
AcDbEntity
  8
0
100
AcDbLine
 10
503.4422215119339
 20
385.196430090291
 30
0.0
 11
503.4422215119339
 21
343.9463800223894
 31
0.0
  0
LINE
  5
3413F
330
2678E
100
AcDbEntity
  8
0
100
AcDbLine
 10
503.4422215119339
 20
293.9464277061052
 30
0.0
 11
503.4422215119339
 21
252.6963776382036
 31
0.0
  0
LINE
  5
34140
330
2678E
100
AcDbEntity
  8
0
100
AcDbLine
 10
511.4421781197525
 20
252.6963776382036
 30
0.0
 11
511.4421781197525
 21
253.9464062484331
 31
0.0
  0
LINE
  5
34141
330
2678E
100
AcDbEntity
  8
0
100
AcDbLine
 10
511.4421781197525
 20
383.9464014800615
 30
0.0
 11
511.4421781197525
 21
385.196430090291
 31
0.0
  0
ARC
  5
34142
330
2678E
100
AcDbEntity
  8
0
100
AcDbCircle
 10
522.4421990409755
 20
252.6964009916119
 30
0.0
 40
11.00000000000023
100
AcDbArc
 50
180.0
 51
264.4600115773175
  0
LINE
  5
34143
330
2678E
100
AcDbEntity
  8
0
100
AcDbLine
 10
522.4422153130508
 20
232.6963967116899
 30
0.0
 11
522.4422153130508
 21
238.9464205535478
 31
0.0
  0
LINE
  5
34144
330
2678E
100
AcDbEntity
  8
0
100
AcDbLine
 10
588.8802345887161
 20
241.69640004955
 30
0.0
 11
586.3802369729019
 21
241.69640004955
 31
0.0
  0
LINE
  5
34145
330
2678E
100
AcDbEntity
  8
0
100
AcDbLine
 10
522.4422153130508
 20
233.6963838370866
 30
0.0
 11
528.8802322045303
 21
233.6963838370866
 31
0.0
  0
LINE
  5
34146
330
2678E
100
AcDbEntity
  8
0
100
AcDbLine
 10
578.8802441254593
 20
233.6963838370866
 30
0.0
 11
588.8802345887161
 21
233.6963838370866
 31
0.0
  0
LINE
  5
34147
330
2678E
100
AcDbEntity
  8
0
100
AcDbLine
 10
583.8802393570877
 20
238.9464205535478
 30
0.0
 11
583.8802393570877
 21
232.6963967116899
 31
0.0
  0
LINE
  5
34148
330
2678E
100
AcDbEntity
  8
0
100
AcDbLine
 10
-433.1197503909134
 20
851.4464026721617
 30
0.0
 11
-433.1197503909134
 21
852.2103256019255
 31
0.0
  0
LINE
  5
34149
330
2678E
100
AcDbEntity
  8
0
100
AcDbLine
 10
-433.1197503909134
 20
895.6824666293687
 30
0.0
 11
-433.1197503909134
 21
896.4464044602937
 31
0.0
  0
LINE
  5
3414A
330
2678E
100
AcDbEntity
  8
0
100
AcDbLine
 10
-889.1197506293247
 20
896.4464044602937
 30
0.0
 11
-889.1197506293247
 21
851.4464026721617
 31
0.0
  0
LINE
  5
3414B
330
2678E
100
AcDbEntity
  8
0
100
AcDbLine
 10
394.8802586689926
 20
896.4464044602937
 30
0.0
 11
394.8802586689926
 21
895.6824666293687
 31
0.0
  0
LINE
  5
3414C
330
2678E
100
AcDbEntity
  8
0
100
AcDbLine
 10
394.8802586689926
 20
852.2103256019255
 30
0.0
 11
394.8802586689926
 21
851.4464026721617
 31
0.0
  0
LINE
  5
3414D
330
2678E
100
AcDbEntity
  8
0
100
AcDbLine
 10
850.8802589074111
 20
851.4464026721617
 30
0.0
 11
850.8802589074111
 21
896.4464044602937
 31
0.0
  0
LINE
  5
3414E
330
2678E
100
AcDbEntity
  8
0
100
AcDbLine
 10
-273.1197539671848
 20
-545.0536185470991
 30
0.0
 11
-273.1197539671848
 21
-577.0535641876631
 31
0.0
  0
LINE
  5
3414F
330
2678E
100
AcDbEntity
  8
0
100
AcDbLine
 10
331.8802651062942
 20
-642.0536214081221
 30
0.0
 11
299.8802598610928
 21
-642.0536214081221
 31
0.0
  0
LINE
  5
34150
330
2678E
100
AcDbEntity
  8
0
100
AcDbLine
 10
-370.1197568282077
 20
-642.0536214081221
 30
0.0
 11
-338.1197515830063
 21
-642.0536214081221
 31
0.0
  0
LINE
  5
34151
330
2678E
100
AcDbEntity
  8
0
100
AcDbLine
 10
299.8802598610928
 20
-759.0536051956587
 30
0.0
 11
331.8802651062942
 21
-759.0536051956587
 31
0.0
  0
LINE
  5
34152
330
2678E
100
AcDbEntity
  8
0
100
AcDbLine
 10
-370.1197568282077
 20
-759.0536051956587
 30
0.0
 11
-338.1197515830063
 21
-759.0536051956587
 31
0.0
  0
LWPOLYLINE
  5
34153
330
2678E
100
AcDbEntity
  8
0
100
AcDbPolyline
 90
       12
 70
   128
 43
0.0
 10
-381.7251983985006
 20
-958.5535699097091
 10
-381.6789451941549
 20
-960.9382325378756
 10
-381.5412286623941
 20
-963.2697278229171
 10
-381.3150886401236
 20
-965.4958420959884
 10
-381.0056213244497
 20
-967.5667458740646
 10
-380.6197408541666
 20
-969.436424371379
 10
-380.1660302981436
 20
-971.0629159180099
 10
-379.6546522482931
 20
-972.4099808899337
 10
-379.0969911917673
 20
-973.4475785461837
 10
-378.5055641039835
 20
-974.1523438660079
 10
-377.8935436114298
 20
-974.5087796417648
 10
-377.5840762957559
 20
-974.5536023346359
  0
LWPOLYLINE
  5
34154
330
2678E
100
AcDbEntity
  8
0
100
AcDbPolyline
 90
       12
 70
   128
 43
0.0
 10
-377.5840762957559
 20
-942.5535374847823
 10
-377.8935436114298
 20
-942.5983601776534
 10
-378.5055641039835
 20
-942.9547959534103
 10
-379.0969911917673
 20
-943.6595612732345
 10
-379.6546522482931
 20
-944.6971589294772
 10
-380.1660302981436
 20
-946.044223901401
 10
-380.6197408541666
 20
-947.6709538666183
 10
-381.0056213244497
 20
-949.5403939453536
 10
-381.3150886401236
 20
-951.6115361420089
 10
-381.5412286623941
 20
-953.8374119965011
 10
-381.6789451941549
 20
-956.1689072815353
 10
-381.7251983985006
 20
-958.5535699097091
  0
LINE
  5
34155
330
2678E
100
AcDbEntity
  8
0
100
AcDbLine
 10
-356.6197518214212
 20
-942.5535374847823
 30
0.0
 11
-356.6197518214212
 21
-974.5536023346359
 31
0.0
  0
LINE
  5
34156
330
2678E
100
AcDbEntity
  8
0
100
AcDbLine
 10
318.3802600995004
 20
-942.5535374847823
 30
0.0
 11
318.3802600995004
 21
-974.5536023346359
 31
0.0
  0
LWPOLYLINE
  5
34157
330
2678E
100
AcDbEntity
  8
0
100
AcDbPolyline
 90
       12
 70
   128
 43
0.0
 10
343.4857066765726
 20
-958.5535699097091
 10
343.4394534722269
 20
-960.9382325378756
 10
343.3017369404806
 20
-963.2697278229171
 10
343.0755969182028
 20
-965.4958420959884
 10
342.7661296025217
 20
-967.5667458740646
 10
342.3802491322531
 20
-969.436424371379
 10
341.9265385762155
 20
-971.0629159180099
 10
341.4151605263723
 20
-972.4099808899337
 10
340.8574994698465
 20
-973.4475785461837
 10
340.2660723820627
 20
-974.1523438660079
 10
339.654051889509
 20
-974.5087796417648
 10
339.3445845738352
 20
-974.5536023346359
  0
LWPOLYLINE
  5
34158
330
2678E
100
AcDbEntity
  8
0
100
AcDbPolyline
 90
       12
 70
   128
 43
0.0
 10
339.3445845738352
 20
-942.5535374847823
 10
339.654051889509
 20
-942.5983601776534
 10
340.2660723820627
 20
-942.9547959534103
 10
340.8574994698465
 20
-943.6595612732345
 10
341.4151605263723
 20
-944.6971589294772
 10
341.9265385762155
 20
-946.044223901401
 10
342.3802491322531
 20
-947.6709538666183
 10
342.7661296025217
 20
-949.5403939453536
 10
343.0755969182028
 20
-951.6115361420089
 10
343.3017369404806
 20
-953.8374119965011
 10
343.4394534722269
 20
-956.1689072815353
 10
343.4857066765726
 20
-958.5535699097091
  0
LWPOLYLINE
  5
34159
330
2678E
100
AcDbEntity
  8
0
100
AcDbPolyline
 90
       12
 70
   128
 43
0.0
 10
583.0352839127481
 20
-958.5535699097091
 10
582.9890307084024
 20
-956.1689072815353
 10
582.8513439789713
 20
-953.8374119965011
 10
582.6252039566934
 20
-951.6115361420089
 10
582.3157366410196
 20
-949.5403939453536
 10
581.9298561707437
 20
-947.6709538666183
 10
581.4761456147135
 20
-946.044223901401
 10
580.9647377625406
 20
-944.6971589294772
 10
580.4071363106668
 20
-943.6595612732345
 10
579.8156794205606
 20
-942.9547959534103
 10
579.2036589280069
 20
-942.5983601776534
 10
578.8941916123331
 20
-942.5535374847823
  0
LWPOLYLINE
  5
3415A
330
2678E
100
AcDbEntity
  8
0
100
AcDbPolyline
 90
       12
 70
   128
 43
0.0
 10
578.8941916123331
 20
-974.5536023346359
 10
579.2036589280069
 20
-974.5087796417648
 10
579.8156794205606
 20
-974.1523438660079
 10
580.4071363106668
 20
-973.4475785461837
 10
580.9647377625406
 20
-972.4099808899337
 10
581.4761456147135
 20
-971.0629159180099
 10
581.9298561707437
 20
-969.436424371379
 10
582.3157366410196
 20
-967.5667458740646
 10
582.6252039566934
 20
-965.4958420959884
 10
582.8513439789713
 20
-963.2697278229171
 10
582.9890307084024
 20
-960.9382325378756
 10
583.0352839127481
 20
-958.5535699097091
  0
LWPOLYLINE
  5
3415B
330
2678E
100
AcDbEntity
  8
0
100
AcDbPolyline
 90
       12
 70
   128
 43
0.0
 10
-621.2747756346762
 20
-958.5535699097091
 10
-621.2285224303305
 20
-960.9382325378756
 10
-621.0908357008993
 20
-963.2697278229171
 10
-620.8646956786215
 20
-965.4958420959884
 10
-620.5552283629404
 20
-967.5667458740646
 10
-620.1693478926718
 20
-969.436424371379
 10
-619.7156373366415
 20
-971.0629159180099
 10
-619.2042294844687
 20
-972.4099808899337
 10
-618.6466280325949
 20
-973.4475785461837
 10
-618.0551711424887
 20
-974.1523438660079
 10
-617.443150649935
 20
-974.5087796417648
 10
-617.1336833342611
 20
-974.5536023346359
  0
LWPOLYLINE
  5
3415C
330
2678E
100
AcDbEntity
  8
0
100
AcDbPolyline
 90
       12
 70
   128
 43
0.0
 10
-617.1336833342611
 20
-942.5535374847823
 10
-617.443150649935
 20
-942.5983601776534
 10
-618.0551711424887
 20
-942.9547959534103
 10
-618.6466280325949
 20
-943.6595612732345
 10
-619.2042294844687
 20
-944.6971589294772
 10
-619.7156373366415
 20
-946.044223901401
 10
-620.1693478926718
 20
-947.6709538666183
 10
-620.5552283629404
 20
-949.5403939453536
 10
-620.8646956786215
 20
-951.6115361420089
 10
-621.0908357008993
 20
-953.8374119965011
 10
-621.2285224303305
 20
-956.1689072815353
 10
-621.2747756346762
 20
-958.5535699097091
  0
LINE
  5
3415D
330
2678E
100
AcDbEntity
  8
0
100
AcDbLine
 10
146.8802478209545
 20
-703.0536109177046
 30
0.0
 11
114.880257476907
 21
-703.0536109177046
 31
0.0
  0
LINE
  5
3415E
330
2678E
100
AcDbEntity
  8
0
100
AcDbLine
 10
-153.1197491988205
 20
-703.0536109177046
 30
0.0
 11
-185.119739542868
 21
-703.0536109177046
 31
0.0
  0
LINE
  5
3415F
330
2678E
100
AcDbEntity
  8
0
100
AcDbLine
 10
-582.1197692259739
 20
383.9464014800615
 30
0.0
 11
-582.1197692259739
 21
384.9463886054582
 31
0.0
  0
LINE
  5
34160
330
2678E
100
AcDbEntity
  8
0
100
AcDbLine
 10
-602.1197501524948
 20
383.9464014800615
 30
0.0
 11
-602.1197501524948
 21
384.9463886054582
 31
0.0
  0
LINE
  5
34161
330
2678E
100
AcDbEntity
  8
0
100
AcDbLine
 10
563.880258430574
 20
383.9464014800615
 30
0.0
 11
563.880258430574
 21
384.9463886054582
 31
0.0
  0
LINE
  5
34162
330
2678E
100
AcDbEntity
  8
0
100
AcDbLine
 10
543.8802775040604
 20
383.9464014800615
 30
0.0
 11
543.8802775040604
 21
384.9463886054582
 31
0.0
  0
LINE
  5
34163
330
2678E
100
AcDbEntity
  8
0
100
AcDbLine
 10
563.880258430574
 20
-796.0535460678511
 30
0.0
 11
563.880258430574
 21
-797.0535927978926
 31
0.0
  0
LINE
  5
34164
330
2678E
100
AcDbEntity
  8
0
100
AcDbLine
 10
543.8802775040604
 20
-796.0535460678511
 30
0.0
 11
543.8802775040604
 21
-797.0535927978926
 31
0.0
  0
LINE
  5
34165
330
2678E
100
AcDbEntity
  8
0
100
AcDbLine
 10
-582.1197692259739
 20
-796.0535460678511
 30
0.0
 11
-582.1197692259739
 21
-797.0535927978926
 31
0.0
  0
LINE
  5
34166
330
2678E
100
AcDbEntity
  8
0
100
AcDbLine
 10
-602.1197501524948
 20
-796.0535460678511
 30
0.0
 11
-602.1197501524948
 21
-797.0535927978926
 31
0.0
  0
LINE
  5
34167
330
2678E
100
AcDbEntity
  8
0
100
AcDbLine
 10
-602.1197501524948
 20
-665.0536233154707
 30
0.0
 11
-602.1197501524948
 21
-666.0535508362227
 31
0.0
  0
LINE
  5
34168
330
2678E
100
AcDbEntity
  8
0
100
AcDbLine
 10
-582.1197692259739
 20
-665.0536233154707
 30
0.0
 11
-582.1197692259739
 21
-666.0535508362227
 31
0.0
  0
LINE
  5
34169
330
2678E
100
AcDbEntity
  8
0
100
AcDbLine
 10
543.8802775040604
 20
252.9464191230363
 30
0.0
 11
543.8802775040604
 21
253.9464062484331
 31
0.0
  0
LINE
  5
3416A
330
2678E
100
AcDbEntity
  8
0
100
AcDbLine
 10
563.880258430574
 20
252.9464191230363
 30
0.0
 11
563.880258430574
 21
253.9464062484331
 31
0.0
  0
LINE
  5
3416B
330
2678E
100
AcDbEntity
  8
0
100
AcDbLine
 10
563.880258430574
 20
-665.0536233154707
 30
0.0
 11
563.880258430574
 21
-666.0535508362227
 31
0.0
  0
LINE
  5
3416C
330
2678E
100
AcDbEntity
  8
0
100
AcDbLine
 10
543.8802775040604
 20
-665.0536233154707
 30
0.0
 11
543.8802775040604
 21
-666.0535508362227
 31
0.0
  0
LINE
  5
3416D
330
2678E
100
AcDbEntity
  8
0
100
AcDbLine
 10
-582.1197692259739
 20
252.9464191230363
 30
0.0
 11
-582.1197692259739
 21
253.9464062484331
 31
0.0
  0
LINE
  5
3416E
330
2678E
100
AcDbEntity
  8
0
100
AcDbLine
 10
-602.1197501524948
 20
252.9464191230363
 30
0.0
 11
-602.1197501524948
 21
253.9464062484331
 31
0.0
  0
LINE
  5
3416F
330
2678E
100
AcDbEntity
  8
0
100
AcDbLine
 10
-768.1197587355637
 20
-486.0536032883101
 30
0.0
 11
-768.1197587355637
 21
-425.8035594192915
 31
0.0
  0
LINE
  5
34170
330
2678E
100
AcDbEntity
  8
0
100
AcDbLine
 10
-771.1197201117538
 20
-425.8035594192915
 30
0.0
 11
-771.1197201117538
 21
-486.0536032883101
 31
0.0
  0
LINE
  5
34171
330
2678E
100
AcDbEntity
  8
0
100
AcDbLine
 10
732.8802283898331
 20
-486.0536032883101
 30
0.0
 11
732.8802283898331
 21
-425.8035594192915
 31
0.0
  0
LINE
  5
34172
330
2678E
100
AcDbEntity
  8
0
100
AcDbLine
 10
729.8802670136429
 20
-425.8035594192915
 30
0.0
 11
729.8802670136429
 21
-486.0536032883101
 31
0.0
  0
LINE
  5
34173
330
2678E
100
AcDbEntity
  8
0
100
AcDbLine
 10
623.8802608147598
 20
1128.946401126159
 30
0.0
 11
683.8802631989456
 21
1128.946401126159
 31
0.0
  0
LINE
  5
34174
330
2678E
100
AcDbEntity
  8
0
100
AcDbLine
 10
-662.1197525366842
 20
-958.5535699097091
 30
0.0
 11
-722.1197549208627
 21
-958.5535699097091
 31
0.0
  0
LINE
  5
34175
330
2678E
100
AcDbEntity
  8
0
100
AcDbLine
 10
-662.1197525366806
 20
1128.946401126159
 30
0.0
 11
-722.1197549208591
 21
1128.946401126159
 31
0.0
  0
LINE
  5
34176
330
2678E
100
AcDbEntity
  8
0
100
AcDbLine
 10
623.8802608147562
 20
-958.5535699097091
 30
0.0
 11
683.880263198942
 21
-958.5535699097091
 31
0.0
  0
LINE
  5
34177
330
2678E
100
AcDbEntity
  8
0
100
AcDbLine
 10
-719.8447458609589
 20
-157.7808266107458
 30
0.0
 11
681.6052541390454
 21
-157.7808266107458
 31
0.0
  0
LINE
  5
34178
330
2678E
100
AcDbEntity
  8
0
100
AcDbLine
 10
681.6052541390454
 20
-127.7808266107458
 30
0.0
 11
-719.8447458609589
 21
-127.7808266107458
 31
0.0
  0
LINE
  5
34179
330
2678E
100
AcDbEntity
  8
0
100
AcDbLine
 10
-1162.844745860951
 20
-118.3870081193236
 30
0.0
 11
-1008.878635940156
 21
-118.3870081193236
 31
0.0
  0
LINE
  5
3417A
330
2678E
100
AcDbEntity
  8
0
100
AcDbLine
 10
-1008.878635940156
 20
-168.3870081193236
 30
0.0
 11
-1162.844745860951
 21
-168.3870081193236
 31
0.0
  0
LINE
  5
3417B
330
2678E
100
AcDbEntity
  8
0
100
AcDbLine
 10
-1162.844745860951
 20
-118.3870081193236
 30
0.0
 11
-1162.844745860951
 21
-168.3870081193236
 31
0.0
  0
LINE
  5
3417C
330
2678E
100
AcDbEntity
  8
0
100
AcDbLine
 10
-1007.878635940156
 20
-107.3870081193308
 30
0.0
 11
-927.8786359401564
 21
-107.3870081193308
 31
0.0
  0
LINE
  5
3417D
330
2678E
100
AcDbEntity
  8
0
100
AcDbLine
 10
-927.8786359401564
 20
-179.3870081193308
 30
0.0
 11
-1007.878635940156
 21
-179.3870081193308
 31
0.0
  0
LINE
  5
3417E
330
2678E
100
AcDbEntity
  8
0
100
AcDbLine
 10
-1008.878635940156
 20
-108.3870081193308
 30
0.0
 11
-1008.878635940156
 21
-178.3870081193308
 31
0.0
  0
LINE
  5
3417F
330
2678E
100
AcDbEntity
  8
0
100
AcDbLine
 10
-1008.878635940156
 20
-108.3870081193308
 30
0.0
 11
-1007.878635940156
 21
-107.3870081193308
 31
0.0
  0
LINE
  5
34180
330
2678E
100
AcDbEntity
  8
0
100
AcDbLine
 10
-1007.878635940156
 20
-179.3870081193308
 30
0.0
 11
-1008.878635940156
 21
-178.3870081193308
 31
0.0
  0
LINE
  5
34181
330
2678E
100
AcDbEntity
  8
0
100
AcDbLine
 10
-927.8786359401564
 20
-107.3870081193308
 30
0.0
 11
-926.8786359401564
 21
-108.3870081193308
 31
0.0
  0
LINE
  5
34182
330
2678E
100
AcDbEntity
  8
0
100
AcDbLine
 10
-926.8786359401564
 20
-178.3870081193308
 30
0.0
 11
-927.8786359401564
 21
-179.3870081193308
 31
0.0
  0
LINE
  5
34183
330
2678E
100
AcDbEntity
  8
0
100
AcDbLine
 10
-722.8447458609589
 20
-105.3870081193308
 30
0.0
 11
-754.8447458609589
 21
-105.3870081193308
 31
0.0
  0
LINE
  5
34184
330
2678E
100
AcDbEntity
  8
0
100
AcDbLine
 10
-754.8447458609589
 20
-181.3870081193308
 30
0.0
 11
-722.8447458609589
 21
-181.3870081193308
 31
0.0
  0
ARC
  5
34185
330
2678E
100
AcDbEntity
  8
0
100
AcDbCircle
 10
-754.8447458609589
 20
-108.3870081193308
 30
0.0
 40
3.0
100
AcDbArc
 50
90.0
 51
180.0
  0
ARC
  5
34186
330
2678E
100
AcDbEntity
  8
0
100
AcDbCircle
 10
-754.8447458609589
 20
-178.3870081193308
 30
0.0
 40
3.000000000000056
100
AcDbArc
 50
180.0
 51
270.0
  0
LINE
  5
34187
330
2678E
100
AcDbEntity
  8
0
100
AcDbLine
 10
-719.8447458609589
 20
-108.3870081193308
 30
0.0
 11
-719.8447458609589
 21
-178.3870081193308
 31
0.0
  0
ARC
  5
34188
330
2678E
100
AcDbEntity
  8
0
100
AcDbCircle
 10
-722.8447458609589
 20
-108.3870081193308
 30
0.0
 40
3.000000000000227
100
AcDbArc
 50
0.0
 51
90.0
  0
ARC
  5
34189
330
2678E
100
AcDbEntity
  8
0
100
AcDbCircle
 10
-722.8447458609589
 20
-178.3870081193308
 30
0.0
 40
3.000000000000227
100
AcDbArc
 50
270.0
 51
0.0
  0
LINE
  5
3418A
330
2678E
100
AcDbEntity
  8
0
100
AcDbLine
 10
-796.3198099578148
 20
80.69340131989156
 30
0.0
 11
-767.8447458609589
 21
80.69340131989156
 31
0.0
  0
ARC
  5
3418B
330
2678E
100
AcDbEntity
  8
0
100
AcDbCircle
 10
-767.8447458609589
 20
70.69340131989156
 30
0.0
 40
10.0
100
AcDbArc
 50
0.0
 51
90.0
  0
LINE
  5
3418C
330
2678E
100
AcDbEntity
  8
0
100
AcDbLine
 10
-757.8447458609589
 20
70.69340131989156
 30
0.0
 11
-757.8447458609589
 21
-357.4674175585533
 31
0.0
  0
ARC
  5
3418D
330
2678E
100
AcDbEntity
  8
0
100
AcDbCircle
 10
-767.8447458609589
 20
-357.4674175585533
 30
0.0
 40
10.0
100
AcDbArc
 50
270.0
 51
0.0
  0
LINE
  5
3418E
330
2678E
100
AcDbEntity
  8
0
100
AcDbLine
 10
-767.8447458609589
 20
-367.4674175585533
 30
0.0
 11
-796.3198099578148
 21
-367.4674175585533
 31
0.0
  0
ARC
  5
3418F
330
2678E
100
AcDbEntity
  8
0
100
AcDbCircle
 10
-796.3198099578148
 20
-357.4674175585533
 30
0.0
 40
10.0
100
AcDbArc
 50
180.0
 51
270.0
  0
LINE
  5
34190
330
2678E
100
AcDbEntity
  8
0
100
AcDbLine
 10
-806.3198099578148
 20
-357.4674175585533
 30
0.0
 11
-806.3198099578148
 21
70.69340131989156
 31
0.0
  0
ARC
  5
34191
330
2678E
100
AcDbEntity
  8
0
100
AcDbCircle
 10
-796.3198099578148
 20
70.69340131989156
 30
0.0
 40
10.0
100
AcDbArc
 50
90.0
 51
180.0
  0
LINE
  5
34192
330
2678E
100
AcDbEntity
  8
0
100
AcDbLine
 10
-844.7948740546708
 20
80.69340131989156
 30
0.0
 11
-816.3198099578149
 21
80.69340131989156
 31
0.0
  0
ARC
  5
34193
330
2678E
100
AcDbEntity
  8
0
100
AcDbCircle
 10
-816.3198099578149
 20
70.69340131989156
 30
0.0
 40
10.0
100
AcDbArc
 50
0.0
 51
90.0
  0
ARC
  5
34194
330
2678E
100
AcDbEntity
  8
0
100
AcDbCircle
 10
-816.3198099578149
 20
-357.4674175585533
 30
0.0
 40
10.0
100
AcDbArc
 50
270.0
 51
0.0
  0
LINE
  5
34195
330
2678E
100
AcDbEntity
  8
0
100
AcDbLine
 10
-816.3198099578149
 20
-367.4674175585533
 30
0.0
 11
-844.7948740546708
 21
-367.4674175585533
 31
0.0
  0
ARC
  5
34196
330
2678E
100
AcDbEntity
  8
0
100
AcDbCircle
 10
-844.7948740546708
 20
-357.4674175585533
 30
0.0
 40
10.0
100
AcDbArc
 50
180.0
 51
270.0
  0
LINE
  5
34197
330
2678E
100
AcDbEntity
  8
0
100
AcDbLine
 10
-854.7948740546708
 20
-357.4674175585533
 30
0.0
 11
-854.7948740546708
 21
70.69340131989156
 31
0.0
  0
ARC
  5
34198
330
2678E
100
AcDbEntity
  8
0
100
AcDbCircle
 10
-844.7948740546708
 20
70.69340131989156
 30
0.0
 40
10.0
100
AcDbArc
 50
90.0
 51
180.0
  0
LINE
  5
34199
330
2678E
100
AcDbEntity
  8
0
100
AcDbLine
 10
-884.7964509436932
 20
42.50736071671417
 30
0.0
 11
-864.7948740546707
 21
42.50736071671417
 31
0.0
  0
ARC
  5
3419A
330
2678E
100
AcDbEntity
  8
0
100
AcDbCircle
 10
-864.7948740546707
 20
32.50736071671417
 30
0.0
 40
10.0
100
AcDbArc
 50
0.0
 51
90.0
  0
ARC
  5
3419B
330
2678E
100
AcDbEntity
  8
0
100
AcDbCircle
 10
-864.7948740546707
 20
-319.2813769553613
 30
0.0
 40
10.0
100
AcDbArc
 50
270.0
 51
0.0
  0
LINE
  5
3419C
330
2678E
100
AcDbEntity
  8
0
100
AcDbLine
 10
-864.7948740546707
 20
-329.2813769553613
 30
0.0
 11
-884.7964509436932
 21
-329.2813769553613
 31
0.0
  0
ARC
  5
3419D
330
2678E
100
AcDbEntity
  8
0
100
AcDbCircle
 10
-884.7964509436932
 20
-319.2813769553613
 30
0.0
 40
10.0
100
AcDbArc
 50
180.0
 51
270.0
  0
LINE
  5
3419E
330
2678E
100
AcDbEntity
  8
0
100
AcDbLine
 10
-894.7964509436934
 20
-319.2813769553613
 30
0.0
 11
-894.7964509436934
 21
32.50736071671417
 31
0.0
  0
ARC
  5
3419F
330
2678E
100
AcDbEntity
  8
0
100
AcDbCircle
 10
-884.7964509436932
 20
32.50736071671417
 30
0.0
 40
10.0
100
AcDbArc
 50
90.0
 51
180.0
  0
LINE
  5
341A0
330
2678E
100
AcDbEntity
  8
0
100
AcDbLine
 10
-916.8786359401565
 20
-23.76957527144259
 30
0.0
 11
-904.7964509436933
 21
-23.76957527143531
 31
0.0
  0
ARC
  5
341A1
330
2678E
100
AcDbEntity
  8
0
100
AcDbCircle
 10
-904.7964509436933
 20
-33.76957527143531
 30
0.0
 40
10.0
100
AcDbArc
 50
0.0
 51
90.0
  0
ARC
  5
341A2
330
2678E
100
AcDbEntity
  8
0
100
AcDbCircle
 10
-904.7964509436933
 20
-253.0044409672119
 30
0.0
 40
10.0
100
AcDbArc
 50
270.0
 51
0.0
  0
LINE
  5
341A3
330
2678E
100
AcDbEntity
  8
0
100
AcDbLine
 10
-904.7964509436861
 20
-263.0044409672119
 30
0.0
 11
-916.8786359401565
 21
-263.0044409672191
 31
0.0
  0
ARC
  5
341A4
330
2678E
100
AcDbEntity
  8
0
100
AcDbCircle
 10
-916.8786359401565
 20
-253.0044409672191
 30
0.0
 40
10.0
100
AcDbArc
 50
180.0
 51
270.0
  0
LINE
  5
341A5
330
2678E
100
AcDbEntity
  8
0
100
AcDbLine
 10
-926.8786359401564
 20
-253.0044409672191
 30
0.0
 11
-926.8786359401564
 21
-33.76957527144259
 31
0.0
  0
ARC
  5
341A6
330
2678E
100
AcDbEntity
  8
0
100
AcDbCircle
 10
-916.8786359401565
 20
-33.76957527144259
 30
0.0
 40
10.0
100
AcDbArc
 50
90.0
 51
180.0
  0
LINE
  5
341A7
330
2678E
100
AcDbEntity
  8
0
100
AcDbLine
 10
1124.605254139038
 20
-118.3870081193236
 30
0.0
 11
970.6391442182431
 21
-118.3870081193236
 31
0.0
  0
LINE
  5
341A8
330
2678E
100
AcDbEntity
  8
0
100
AcDbLine
 10
970.6391442182431
 20
-168.3870081193236
 30
0.0
 11
1124.605254139038
 21
-168.3870081193236
 31
0.0
  0
LINE
  5
341A9
330
2678E
100
AcDbEntity
  8
0
100
AcDbLine
 10
1124.605254139038
 20
-118.3870081193236
 30
0.0
 11
1124.605254139038
 21
-168.3870081193236
 31
0.0
  0
LINE
  5
341AA
330
2678E
100
AcDbEntity
  8
0
100
AcDbLine
 10
969.6391442182429
 20
-107.3870081193308
 30
0.0
 11
889.639144218243
 21
-107.3870081193308
 31
0.0
  0
LINE
  5
341AB
330
2678E
100
AcDbEntity
  8
0
100
AcDbLine
 10
889.639144218243
 20
-179.3870081193308
 30
0.0
 11
969.6391442182429
 21
-179.3870081193308
 31
0.0
  0
LINE
  5
341AC
330
2678E
100
AcDbEntity
  8
0
100
AcDbLine
 10
970.6391442182431
 20
-108.3870081193308
 30
0.0
 11
970.6391442182431
 21
-178.3870081193308
 31
0.0
  0
LINE
  5
341AD
330
2678E
100
AcDbEntity
  8
0
100
AcDbLine
 10
970.6391442182431
 20
-108.3870081193308
 30
0.0
 11
969.6391442182429
 21
-107.3870081193308
 31
0.0
  0
LINE
  5
341AE
330
2678E
100
AcDbEntity
  8
0
100
AcDbLine
 10
969.6391442182429
 20
-179.3870081193308
 30
0.0
 11
970.6391442182431
 21
-178.3870081193308
 31
0.0
  0
LINE
  5
341AF
330
2678E
100
AcDbEntity
  8
0
100
AcDbLine
 10
889.639144218243
 20
-107.3870081193308
 30
0.0
 11
888.639144218243
 21
-108.3870081193308
 31
0.0
  0
LINE
  5
341B0
330
2678E
100
AcDbEntity
  8
0
100
AcDbLine
 10
888.639144218243
 20
-178.3870081193308
 30
0.0
 11
889.639144218243
 21
-179.3870081193308
 31
0.0
  0
LINE
  5
341B1
330
2678E
100
AcDbEntity
  8
0
100
AcDbLine
 10
684.6052541390454
 20
-105.3870081193308
 30
0.0
 11
716.6052541390454
 21
-105.3870081193308
 31
0.0
  0
LINE
  5
341B2
330
2678E
100
AcDbEntity
  8
0
100
AcDbLine
 10
716.6052541390454
 20
-181.3870081193308
 30
0.0
 11
684.6052541390454
 21
-181.3870081193308
 31
0.0
  0
ARC
  5
341B3
330
2678E
100
AcDbEntity
  8
0
100
AcDbCircle
 10
716.6052541390454
 20
-108.3870081193308
 30
0.0
 40
3.0
100
AcDbArc
 50
0.0
 51
90.0
  0
ARC
  5
341B4
330
2678E
100
AcDbEntity
  8
0
100
AcDbCircle
 10
716.6052541390454
 20
-178.3870081193308
 30
0.0
 40
3.000000000000056
100
AcDbArc
 50
270.0
 51
0.0
  0
LINE
  5
341B5
330
2678E
100
AcDbEntity
  8
0
100
AcDbLine
 10
681.6052541390454
 20
-108.3870081193308
 30
0.0
 11
681.6052541390454
 21
-178.3870081193308
 31
0.0
  0
ARC
  5
341B6
330
2678E
100
AcDbEntity
  8
0
100
AcDbCircle
 10
684.6052541390454
 20
-108.3870081193308
 30
0.0
 40
3.000000000000227
100
AcDbArc
 50
90.0
 51
180.0
  0
ARC
  5
341B7
330
2678E
100
AcDbEntity
  8
0
100
AcDbCircle
 10
684.6052541390454
 20
-178.3870081193308
 30
0.0
 40
3.000000000000227
100
AcDbArc
 50
180.0
 51
270.0
  0
LINE
  5
341B8
330
2678E
100
AcDbEntity
  8
0
100
AcDbLine
 10
758.0803182359013
 20
80.69340131989156
 30
0.0
 11
729.6052541390454
 21
80.69340131989156
 31
0.0
  0
ARC
  5
341B9
330
2678E
100
AcDbEntity
  8
0
100
AcDbCircle
 10
729.6052541390454
 20
70.69340131989156
 30
0.0
 40
10.0
100
AcDbArc
 50
90.0
 51
180.0
  0
LINE
  5
341BA
330
2678E
100
AcDbEntity
  8
0
100
AcDbLine
 10
719.6052541390454
 20
70.69340131989156
 30
0.0
 11
719.6052541390454
 21
-357.4674175585533
 31
0.0
  0
ARC
  5
341BB
330
2678E
100
AcDbEntity
  8
0
100
AcDbCircle
 10
729.6052541390454
 20
-357.4674175585533
 30
0.0
 40
10.0
100
AcDbArc
 50
180.0
 51
270.0
  0
LINE
  5
341BC
330
2678E
100
AcDbEntity
  8
0
100
AcDbLine
 10
729.6052541390454
 20
-367.4674175585533
 30
0.0
 11
758.0803182359013
 21
-367.4674175585533
 31
0.0
  0
ARC
  5
341BD
330
2678E
100
AcDbEntity
  8
0
100
AcDbCircle
 10
758.0803182359013
 20
-357.4674175585533
 30
0.0
 40
10.0
100
AcDbArc
 50
270.0
 51
0.0
  0
ARC
  5
341BE
330
2678E
100
AcDbEntity
  8
0
100
AcDbCircle
 10
758.0803182359013
 20
70.69340131989156
 30
0.0
 40
10.0
100
AcDbArc
 50
0.0
 51
90.0
  0
LINE
  5
341BF
330
2678E
100
AcDbEntity
  8
0
100
AcDbLine
 10
806.5553823327572
 20
80.69340131989156
 30
0.0
 11
778.0803182359013
 21
80.69340131989156
 31
0.0
  0
ARC
  5
341C0
330
2678E
100
AcDbEntity
  8
0
100
AcDbCircle
 10
778.0803182359013
 20
70.69340131989156
 30
0.0
 40
10.0
100
AcDbArc
 50
90.0
 51
180.0
  0
LINE
  5
341C1
330
2678E
100
AcDbEntity
  8
0
100
AcDbLine
 10
768.0803182359014
 20
70.69340131989156
 30
0.0
 11
768.0803182359014
 21
-357.4674175585533
 31
0.0
  0
ARC
  5
341C2
330
2678E
100
AcDbEntity
  8
0
100
AcDbCircle
 10
778.0803182359013
 20
-357.4674175585533
 30
0.0
 40
10.0
100
AcDbArc
 50
180.0
 51
270.0
  0
LINE
  5
341C3
330
2678E
100
AcDbEntity
  8
0
100
AcDbLine
 10
778.0803182359013
 20
-367.4674175585533
 30
0.0
 11
806.5553823327572
 21
-367.4674175585533
 31
0.0
  0
ARC
  5
341C4
330
2678E
100
AcDbEntity
  8
0
100
AcDbCircle
 10
806.5553823327572
 20
-357.4674175585533
 30
0.0
 40
10.0
100
AcDbArc
 50
270.0
 51
0.0
  0
LINE
  5
341C5
330
2678E
100
AcDbEntity
  8
0
100
AcDbLine
 10
816.5553823327572
 20
-357.4674175585533
 30
0.0
 11
816.5553823327572
 21
70.69340131989156
 31
0.0
  0
ARC
  5
341C6
330
2678E
100
AcDbEntity
  8
0
100
AcDbCircle
 10
806.5553823327572
 20
70.69340131989156
 30
0.0
 40
10.0
100
AcDbArc
 50
0.0
 51
90.0
  0
LINE
  5
341C7
330
2678E
100
AcDbEntity
  8
0
100
AcDbLine
 10
846.5569592217798
 20
42.50736071671417
 30
0.0
 11
826.5553823327573
 21
42.50736071671417
 31
0.0
  0
ARC
  5
341C8
330
2678E
100
AcDbEntity
  8
0
100
AcDbCircle
 10
826.5553823327573
 20
32.50736071671417
 30
0.0
 40
10.0
100
AcDbArc
 50
90.0
 51
180.0
  0
ARC
  5
341C9
330
2678E
100
AcDbEntity
  8
0
100
AcDbCircle
 10
826.5553823327573
 20
-319.2813769553613
 30
0.0
 40
10.0
100
AcDbArc
 50
180.0
 51
270.0
  0
LINE
  5
341CA
330
2678E
100
AcDbEntity
  8
0
100
AcDbLine
 10
826.5553823327573
 20
-329.2813769553613
 30
0.0
 11
846.5569592217798
 21
-329.2813769553613
 31
0.0
  0
ARC
  5
341CB
330
2678E
100
AcDbEntity
  8
0
100
AcDbCircle
 10
846.5569592217798
 20
-319.2813769553613
 30
0.0
 40
10.0
100
AcDbArc
 50
270.0
 51
0.0
  0
LINE
  5
341CC
330
2678E
100
AcDbEntity
  8
0
100
AcDbLine
 10
856.5569592217798
 20
-319.2813769553613
 30
0.0
 11
856.5569592217798
 21
32.50736071671417
 31
0.0
  0
ARC
  5
341CD
330
2678E
100
AcDbEntity
  8
0
100
AcDbCircle
 10
846.5569592217798
 20
32.50736071671417
 30
0.0
 40
10.0
100
AcDbArc
 50
0.0
 51
90.0
  0
LINE
  5
341CE
330
2678E
100
AcDbEntity
  8
0
100
AcDbLine
 10
878.6391442182431
 20
-23.76957527144259
 30
0.0
 11
866.5569592217797
 21
-23.76957527143531
 31
0.0
  0
ARC
  5
341CF
330
2678E
100
AcDbEntity
  8
0
100
AcDbCircle
 10
866.5569592217797
 20
-33.76957527143531
 30
0.0
 40
10.0
100
AcDbArc
 50
90.0
 51
180.0
  0
ARC
  5
341D0
330
2678E
100
AcDbEntity
  8
0
100
AcDbCircle
 10
866.5569592217797
 20
-253.0044409672119
 30
0.0
 40
10.00000000000023
100
AcDbArc
 50
180.0
 51
270.0
  0
LINE
  5
341D1
330
2678E
100
AcDbEntity
  8
0
100
AcDbLine
 10
866.5569592217725
 20
-263.0044409672119
 30
0.0
 11
878.6391442182431
 21
-263.0044409672191
 31
0.0
  0
ARC
  5
341D2
330
2678E
100
AcDbEntity
  8
0
100
AcDbCircle
 10
878.6391442182431
 20
-253.0044409672191
 30
0.0
 40
10.0
100
AcDbArc
 50
270.0
 51
0.0
  0
LINE
  5
341D3
330
2678E
100
AcDbEntity
  8
0
100
AcDbLine
 10
888.639144218243
 20
-253.0044409672191
 30
0.0
 11
888.639144218243
 21
-33.76957527144259
 31
0.0
  0
ARC
  5
341D4
330
2678E
100
AcDbEntity
  8
0
100
AcDbCircle
 10
878.6391442182431
 20
-33.76957527144259
 30
0.0
 40
9.999999999999886
100
AcDbArc
 50
0.0
 51
90.0
  0
LINE
  5
341D5
330
2678E
100
AcDbEntity
  8
0
100
AcDbLine
 10
234.8802541390396
 20
-545.0535990083953
 30
0.0
 11
234.8802541390396
 21
-577.0535990083954
 31
0.0
  0
ATTDEF
  5
341D6
102
{ACAD_XDICTIONARY
360
341D7
102
}
330
2678E
100
AcDbEntity
  8
0
100
AcDbText
 10
-174.2939783091606
 20
-1370.346842114475
 30
0.0
 40
100.0
  1
867H
  7
Annotative
 72
     1
 11
-7.308985130443033
 21
-1320.346842114475
 31
0.0
100
AcDbAttributeDefinition
280
     0
  3
Tag Number?
  2
867H
 70
     0
 74
     2
280
     1
1001
AcadAnnotative
1000
AnnotativeData
1002
{
1070
     1
1070
     1
1002
}
1001
AcadAnnoPO
1070
     1
  0
ENDBLK
  5
26790
330
2678E
100
AcDbEntity
  8
0
100
AcDbBlockEnd
  0
ENDSEC
  0
SECTION
  2
ENTITIES
  0
INSERT
  5
26BF7
330
1F
100
AcDbEntity
  8
0
100
AcDbBlockReference
 66
     1
  2
867H - Full Rack
 10
25890.56281702845
 20
4508.604239719774
 30
0.0
  0
ATTRIB
  5
26BF9
102
{ACAD_XDICTIONARY
360
26BFA
102
}
330
26BF7
100
AcDbEntity
  8
0
100
AcDbText
 10
25716.26883871929
 20
3138.257397605299
 30
0.0
 40
100.0
  1
867H
  7
Annotative
 72
     1
 11
25883.253831898
 21
3188.257397605299
 31
0.0
100
AcDbAttribute
280
     0
  2
XXX
 70
     0
 74
     2
280
     1
1001
AcadAnnotative
1000
AnnotativeData
1002
{
1070
     1
1070
     1
1002
}
1001
AcadAnnoPO
1070
     1
  0
SEQEND
  5
26BF8
330
26BF7
100
AcDbEntity
  8
0
  0
VIEWPORT
  5
27942
102
{ACAD_XDICTIONARY
360
27943
102
}
330
D2
100
AcDbEntity
 67
     1
  8
0
100
AcDbViewport
 10
132.9126456575008
 20
79.43971249921216
 30
0.0
 40
59.17324646995997
 41
34.90838257121704
 68
     1
 69
     1
 12
132.9126456575008
 22
79.43971249921216
 13
0.0
 23
0.0
 14
10.0
 24
10.0
 15
10.0
 25
10.0
 16
0.0
 26
0.0
 36
1.0
 17
0.0
 27
0.0
 37
0.0
 42
50.0
 43
0.0
 44
0.0
 45
34.90838257121704
 50
0.0
 51
0.0
 72
  1000
 90
   557088
  1

281
     0
 71
     1
 74
     0
110
0.0
120
0.0
130
0.0
111
1.0
121
0.0
131
0.0
112
0.0
122
1.0
132
0.0
 79
     0
146
0.0
170
     0
 61
     5
348
F5
292
     1
282
     1
141
0.0
142
0.0
 63
   250
421
  3355443
  0
VIEWPORT
  5
27946
102
{ACAD_XDICTIONARY
360
27947
102
}
330
D2
100
AcDbEntity
 67
     1
  8
0
100
AcDbViewport
 10
128.5
 20
97.5
 30
0.0
 40
205.6
 41
156.0
 68
     2
 69
     2
 12
24354.21263936498
 22
7931.021756414132
 13
0.0
 23
0.0
 14
10.0
 24
10.0
 15
10.0
 25
10.0
 16
0.0
 26
0.0
 36
1.0
 17
0.0
 27
0.0
 37
0.0
 42
50.0
 43
0.0
 44
0.0
 45
40739.08749714598
 50
0.0
 51
0.0
 72
  1000
 90
   819808
  1

281
     0
 71
     1
 74
     0
110
0.0
120
0.0
130
0.0
111
1.0
121
0.0
131
0.0
112
0.0
122
1.0
132
0.0
 79
     0
146
0.0
170
     0
 61
     5
348
F5
292
     1
282
     1
141
0.0
142
0.0
 63
   250
421
  3355443
  0
ENDSEC
  0
SECTION
  2
OBJECTS
  0
DICTIONARY
  5
C
330
0
100
AcDbDictionary
281
     1
  3
ACAD_CIP_PREVIOUS_PRODUCT_INFO
350
216
  3
ACAD_COLOR
350
6B
  3
ACAD_DETAILVIEWSTYLE
350
21B
  3
ACAD_GROUP
350
D
  3
ACAD_LAST_SAVED_VERSION_INFO
350
11342
  3
ACAD_LAYOUT
350
1A
  3
ACAD_MATERIAL
350
6A
  3
ACAD_MLEADERSTYLE
350
12D
  3
ACAD_MLINESTYLE
350
17
  3
ACAD_PLOTSETTINGS
350
19
  3
ACAD_PLOTSTYLENAME
350
E
  3
ACAD_SCALELIST
350
10C
  3
ACAD_SECTIONVIEWSTYLE
350
219
  3
ACAD_TABLESTYLE
350
7E
  3
ACAD_VISUALSTYLE
350
EF
  3
ACDB_RECOMPOSE_DATA
350
352BB
  3
AcDbVariableDictionary
350
5E
  0
DICTIONARY
  5
1FF
330
2
100
AcDbDictionary
280
     1
281
     1
  3
ACAD_LAYERSTATES
360
200
  0
DICTIONARY
  5
13C
330
10
100
AcDbDictionary
280
     1
281
     1
  0
DICTIONARY
  5
1CE
330
1F
100
AcDbDictionary
280
     1
281
     1
  3
ACAD_SORTENTS
360
10C81
  0
DICTIONARY
  5
341DB
330
2678E
100
AcDbDictionary
280
     1
281
     1
  0
DICTIONARY
  5
341D7
330
341D6
100
AcDbDictionary
280
     1
281
     1
  3
AcDbContextDataManager
360
341D8
  0
DICTIONARY
  5
26BFA
330
26BF9
100
AcDbDictionary
280
     1
281
     1
  3
AcDbContextDataManager
360
26BFB
  0
DICTIONARY
  5
27943
330
27942
100
AcDbDictionary
280
     1
281
     1
  3
ASDK_XREC_ANNOTATION_SCALE_INFO
360
27944
  0
DICTIONARY
  5
27947
330
27946
100
AcDbDictionary
280
     1
281
     1
  3
ASDK_XREC_ANNOTATION_SCALE_INFO
360
27948
  0
XRECORD
  5
216
102
{ACAD_REACTORS
330
C
102
}
330
C
100
AcDbXrecord
280
     1
300
ACDLT
300
2019
300
ACDLT_F_S
  0
DICTIONARY
  5
6B
102
{ACAD_REACTORS
330
C
102
}
330
C
100
AcDbDictionary
281
     1
  0
DICTIONARY
  5
21B
102
{ACAD_REACTORS
330
C
102
}
330
C
100
AcDbDictionary
281
     1
  3
Metric50
350
21C
  0
DICTIONARY
  5
D
102
{ACAD_REACTORS
330
C
102
}
330
C
100
AcDbDictionary
281
     1
  0
XRECORD
  5
11342
102
{ACAD_REACTORS
330
C
102
}
330
C
100
AcDbXrecord
280
     1
300
{3D74595D-0D62-CC42-A1C3-C6954A981475}
301
{999202B2-484E-9C47-848E-DA00BEB8D0DD}
302
{3D74595D-0D62-CC42-A1C3-C6954A981475}
303

  0
DICTIONARY
  5
1A
102
{ACAD_REACTORS
330
C
102
}
330
C
100
AcDbDictionary
281
     1
  3
Layout1
350
D3
  3
Layout2
350
D7
  3
Model
350
22
  0
DICTIONARY
  5
6A
102
{ACAD_REACTORS
330
C
102
}
330
C
100
AcDbDictionary
281
     1
  3
ByBlock
350
ED
  3
ByLayer
350
EC
  3
Global
350
EE
  0
DICTIONARY
  5
12D
102
{ACAD_REACTORS
330
C
102
}
330
C
100
AcDbDictionary
281
     1
  3
Standard
350
12E
  0
DICTIONARY
  5
17
102
{ACAD_REACTORS
330
C
102
}
330
C
100
AcDbDictionary
281
     1
  3
Standard
350
18
  0
DICTIONARY
  5
19
102
{ACAD_REACTORS
330
C
102
}
330
C
100
AcDbDictionary
281
     1
  0
ACDBDICTIONARYWDFLT
  5
E
102
{ACAD_REACTORS
330
C
102
}
330
C
100
AcDbDictionary
281
     1
  3
Normal
350
F
100
AcDbDictionaryWithDefault
340
F
  0
DICTIONARY
  5
10C
102
{ACAD_REACTORS
330
C
102
}
330
C
100
AcDbDictionary
281
     1
  3
A0
350
10D
  3
A1
350
1BE
  3
A2
350
1BF
  3
A3
350
1C0
  3
A4
350
1C1
  3
A5
350
1C2
  3
A6
350
1C3
  3
A7
350
1C4
  3
A8
350
1C5
  3
A9
350
1C6
  3
B0
350
1C7
  3
B1
350
1C8
  3
B2
350
1C9
  3
B3
350
1CA
  3
B4
350
1CB
  3
B5
350
1CC
  3
B6
350
1CD
  0
DICTIONARY
  5
219
102
{ACAD_REACTORS
330
C
102
}
330
C
100
AcDbDictionary
281
     1
  3
Metric50
350
21A
  0
DICTIONARY
  5
7E
102
{ACAD_REACTORS
330
C
102
}
330
C
100
AcDbDictionary
281
     1
  3
Standard
350
7F
  0
DICTIONARY
  5
EF
102
{ACAD_REACTORS
330
C
102
}
330
C
100
AcDbDictionary
281
     1
  3
2dWireframe
350
F5
  3
Basic
350
F4
  3
Brighten
350
FB
  3
ColorChange
350
FF
  3
Conceptual
350
F8
  3
Dim
350
FA
  3
EdgeColorOff
350
1E6
  3
Facepattern
350
FE
  3
Flat
350
F0
  3
FlatWithEdges
350
F1
  3
Gouraud
350
F2
  3
GouraudWithEdges
350
F3
  3
Hidden
350
F7
  3
JitterOff
350
1E4
  3
Linepattern
350
FD
  3
OverhangOff
350
1E5
  3
Realistic
350
F9
  3
Shaded
350
1F3
  3
Shaded with edges
350
1F2
  3
Shades of Gray
350
1EF
  3
Sketchy
350
1F0
  3
Thicken
350
FC
  3
Wireframe
350
F6
  3
X-Ray
350
1F1
  0
XRECORD
  5
352BB
102
{ACAD_REACTORS
330
C
102
}
330
C
100
AcDbXrecord
280
     1
 90
        1
330
7F
  0
DICTIONARY
  5
5E
102
{ACAD_REACTORS
330
C
102
}
330
C
100
AcDbDictionary
281
     1
  3
CANNOSCALE
350
146
  3
CENTEREXE
350
259
  3
CENTERLTYPEFILE
350
25A
  3
CMLEADERSTYLE
350
145
  3
CTABLESTYLE
350
84
  3
CVIEWDETAILSTYLE
350
227
  3
CVIEWSECTIONSTYLE
350
228
  3
DIMASSOC
350
5F
  3
HIDETEXT
350
63
  3
HPCOLOR
350
1FFCA
  3
HPTRANSPARENCY
350
1FFC9
  3
LAYEREVAL
350
1AE
  3
LAYERNOTIFY
350
1AF
  0
DICTIONARY
  5
200
102
{ACAD_REACTORS
330
1FF
102
}
330
1FF
100
AcDbDictionary
281
     1
  0
SORTENTSTABLE
  5
10C81
102
{ACAD_REACTORS
330
1CE
102
}
330
1CE
100
AcDbSortentsTable
330
1F
331
26BF7
  5
2962F
  0
DICTIONARY
  5
341D8
102
{ACAD_REACTORS
330
341D7
102
}
330
341D7
100
AcDbDictionary
281
     1
  3
ACDB_ANNOTATIONSCALES
350
341D9
  0
DICTIONARY
  5
26BFB
102
{ACAD_REACTORS
330
26BFA
102
}
330
26BFA
100
AcDbDictionary
281
     1
  3
ACDB_ANNOTATIONSCALES
350
26BFC
  0
XRECORD
  5
27944
102
{ACAD_REACTORS
330
27943
102
}
330
27943
100
AcDbXrecord
280
     1
 90
        1
340
10D
  0
XRECORD
  5
27948
102
{ACAD_REACTORS
330
27947
102
}
330
27947
100
AcDbXrecord
280
     1
 90
        1
340
10D
  0
ACDBDETAILVIEWSTYLE
  5
21C
102
{ACAD_REACTORS
330
21B
102
}
330
21B
100
AcDbModelDocViewStyle
 70
     0
  3
Metric50
290
     0
300
Metric50
 90
        0
100
AcDbDetailViewStyle
 70
     0
 71
     0
 90
        3
 71
     1
340
11
 62
   256
 40
5.0
340
0
 62
   256
 40
5.0
300

 40
0.0
280
     1
 71
     2
340
16
 90
       25
 62
   256
 71
     3
340
11
 62
   256
 40
5.0
 90
        0
 40
15.0
 90
        1
300
%<\AcVar ViewDetailId>% (%<\AcVar ViewScale \f "%sn">%)
 71
     4
340
16
 90
       25
 62
   256
340
16
 90
       25
 62
   256
280
     0
  0
LAYOUT
  5
D3
102
{ACAD_REACTORS
330
1A
102
}
330
1A
100
AcDbPlotSettings
  1

  2
none_device
  4
ISO_A4_(210.00_x_297.00_MM)
  6

 40
7.5
 41
20.0
 42
7.5
 43
20.0
 44
210.0
 45
297.0
 46
0.0
 47
0.0
 48
0.0
 49
0.0
140
0.0
141
0.0
142
1.0
143
1.0
 70
   688
 72
     1
 73
     1
 74
     5
  7

 75
    16
147
1.0
 76
     0
 77
     2
 78
   300
148
0.0
149
0.0
100
AcDbLayout
  1
Layout1
 70
     1
 71
     1
 10
-20.0
 20
-7.5
 11
277.0
 21
202.5
 12
0.0
 22
0.0
 32
0.0
 14
25.69999999999999
 24
19.5
 34
0.0
 15
231.3
 25
175.5
 35
0.0
146
0.0
 13
0.0
 23
0.0
 33
0.0
 16
1.0
 26
0.0
 36
0.0
 17
0.0
 27
1.0
 37
0.0
 76
     0
330
D2
331
27942
1001
ACAD_PSEXT
1000
None
1000
None
1000
Not applicable
1000
The layout will not be plotted unless a new plotter configuration name is selected.
1070
     0
  0
LAYOUT
  5
D7
102
{ACAD_REACTORS
330
1A
102
}
330
1A
100
AcDbPlotSettings
  1

  2
C:\Documents and Settings\basas\Application Data\Autodesk\AutoCAD 2005\R16.1\enu\plotters\Default Windows System Printer.pc3
  4

  6

 40
0.0
 41
0.0
 42
0.0
 43
0.0
 44
0.0
 45
0.0
 46
0.0
 47
0.0
 48
0.0
 49
0.0
140
0.0
141
0.0
142
1.0
143
1.0
 70
   688
 72
     0
 73
     0
 74
     5
  7

 75
    16
147
1.0
 76
     0
 77
     2
 78
   300
148
0.0
149
0.0
100
AcDbLayout
  1
Layout2
 70
     1
 71
     2
 10
0.0
 20
0.0
 11
12.0
 21
9.0
 12
0.0
 22
0.0
 32
0.0
 14
0.0
 24
0.0
 34
0.0
 15
0.0
 25
0.0
 35
0.0
146
0.0
 13
0.0
 23
0.0
 33
0.0
 16
1.0
 26
0.0
 36
0.0
 17
0.0
 27
1.0
 37
0.0
 76
     0
330
D6
  0
LAYOUT
  5
22
102
{ACAD_XDICTIONARY
360
205
102
}
102
{ACAD_REACTORS
330
1A
102
}
330
1A
100
AcDbPlotSettings
  1

  2
none_device
  4
ISO_A4_(210.00_x_297.00_MM)
  6

 40
7.5
 41
20.0
 42
7.5
 43
20.0
 44
210.0
 45
297.0
 46
11.54999923706054
 47
-13.65000009536743
 48
0.0
 49
0.0
140
0.0
141
0.0
142
1.0
143
8.704084754739808
 70
 11952
 72
     1
 73
     0
 74
     0
  7

 75
     0
147
0.1148885871608098
 76
     0
 77
     2
 78
   300
148
0.0
149
0.0
100
AcDbLayout
  1
Model
 70
     1
 71
     0
 10
0.0
 20
0.0
 11
12.0
 21
9.0
 12
0.0
 22
0.0
 32
0.0
 14
0.0
 24
0.0
 34
0.0
 15
0.0
 25
0.0
 35
0.0
146
0.0
 13
0.0
 23
0.0
 33
0.0
 16
1.0
 26
0.0
 36
0.0
 17
0.0
 27
1.0
 37
0.0
 76
     0
330
1F
331
EA
1001
ACAD_PSEXT
1000
None
1000
None
1000
Not applicable
1000
The layout will not be plotted unless a new plotter configuration name is selected.
1070
     0
  0
MATERIAL
  5
ED
102
{ACAD_XDICTIONARY
360
1F9
102
}
102
{ACAD_REACTORS
330
6A
102
}
330
6A
100
AcDbMaterial
  1
ByBlock
 94
       63
  0
MATERIAL
  5
EC
102
{ACAD_XDICTIONARY
360
1F7
102
}
102
{ACAD_REACTORS
330
6A
102
}
330
6A
100
AcDbMaterial
  1
ByLayer
 94
       63
  0
MATERIAL
  5
EE
102
{ACAD_XDICTIONARY
360
173
102
}
102
{ACAD_REACTORS
330
6A
102
}
330
6A
100
AcDbMaterial
  1
Global
 43
0.0007999999797903
 43
0.0
 43
0.0
 43
0.0
 43
0.0
 43
0.0007999999797903
 43
0.0
 43
0.0
 43
0.0
 43
0.0
 43
1.0
 43
0.0
 43
0.0
 43
0.0
 43
0.0
 43
1.0
 49
0.0007999999797903
 49
0.0
 49
0.0
 49
0.0
 49
0.0
 49
0.0007999999797903
 49
0.0
 49
0.0
 49
0.0
 49
0.0
 49
1.0
 49
0.0
 49
0.0
 49
0.0
 49
0.0
 49
1.0
142
0.0007999999797903
142
0.0
142
0.0
142
0.0
142
0.0
142
0.0007999999797903
142
0.0
142
0.0
142
0.0
142
0.0
142
1.0
142
0.0
142
0.0
142
0.0
142
0.0
142
1.0
144
0.0007999999797903
144
0.0
144
0.0
144
0.0
144
0.0
144
0.0007999999797903
144
0.0
144
0.0
144
0.0
144
0.0
144
1.0
144
0.0
144
0.0
144
0.0
144
0.0
144
1.0
 94
       63
1001
ACAD
1070
    -1
1070
     3
1070
     0
1000

1071
        0
1070
     0
  0
MLEADERSTYLE
  5
12E
102
{ACAD_REACTORS
330
12D
102
}
330
12D
100
AcDbMLeaderStyle
179
     2
170
     2
171
     1
172
     0
 90
        2
 40
0.0
 41
0.0
173
     1
 91
-1056964608
340
14
 92
       -2
290
     1
 42
2.0
291
     1
 43
8.0
  3
Standard
 44
4.0
300

342
11
174
     1
178
     1
175
     1
176
     0
 93
-1056964608
 45
4.0
292
     0
297
     0
 46
4.0
 94
-1056964608
 47
1.0
 49
1.0
140
1.0
293
     1
141
0.0
294
     1
177
     0
142
1.0
295
     0
296
     0
143
3.75
271
     0
272
     9
273
     9
298
     0
  0
MLINESTYLE
  5
18
102
{ACAD_REACTORS
330
17
102
}
330
17
100
AcDbMlineStyle
  2
STANDARD
 70
     0
  3

 62
   256
 51
90.0
 52
90.0
 71
     2
 49
0.5
 62
   256
  6
BYLAYER
 49
-0.5
 62
   256
  6
BYLAYER
  0
ACDBPLACEHOLDER
  5
F
102
{ACAD_REACTORS
330
E
102
}
330
E
  0
SCALE
  5
10D
102
{ACAD_REACTORS
330
10C
102
}
330
10C
100
AcDbScale
 70
     0
300
1:1
140
1.0
141
1.0
290
     1
  0
SCALE
  5
1BE
102
{ACAD_REACTORS
330
10C
102
}
330
10C
100
AcDbScale
 70
     0
300
1:2
140
1.0
141
2.0
290
     0
  0
SCALE
  5
1BF
102
{ACAD_REACTORS
330
10C
102
}
330
10C
100
AcDbScale
 70
     0
300
1:4
140
1.0
141
4.0
290
     0
  0
SCALE
  5
1C0
102
{ACAD_REACTORS
330
10C
102
}
330
10C
100
AcDbScale
 70
     0
300
1:5
140
1.0
141
5.0
290
     0
  0
SCALE
  5
1C1
102
{ACAD_REACTORS
330
10C
102
}
330
10C
100
AcDbScale
 70
     0
300
1:8
140
1.0
141
8.0
290
     0
  0
SCALE
  5
1C2
102
{ACAD_REACTORS
330
10C
102
}
330
10C
100
AcDbScale
 70
     0
300
1:10
140
1.0
141
10.0
290
     0
  0
SCALE
  5
1C3
102
{ACAD_REACTORS
330
10C
102
}
330
10C
100
AcDbScale
 70
     0
300
1:16
140
1.0
141
16.0
290
     0
  0
SCALE
  5
1C4
102
{ACAD_REACTORS
330
10C
102
}
330
10C
100
AcDbScale
 70
     0
300
1:20
140
1.0
141
20.0
290
     0
  0
SCALE
  5
1C5
102
{ACAD_REACTORS
330
10C
102
}
330
10C
100
AcDbScale
 70
     0
300
1:30
140
1.0
141
30.0
290
     0
  0
SCALE
  5
1C6
102
{ACAD_REACTORS
330
10C
102
}
330
10C
100
AcDbScale
 70
     0
300
1:40
140
1.0
141
40.0
290
     0
  0
SCALE
  5
1C7
102
{ACAD_REACTORS
330
10C
102
}
330
10C
100
AcDbScale
 70
     0
300
1:50
140
1.0
141
50.0
290
     0
  0
SCALE
  5
1C8
102
{ACAD_REACTORS
330
10C
102
}
330
10C
100
AcDbScale
 70
     0
300
1:100
140
1.0
141
100.0
290
     0
  0
SCALE
  5
1C9
102
{ACAD_REACTORS
330
10C
102
}
330
10C
100
AcDbScale
 70
     0
300
2:1
140
2.0
141
1.0
290
     0
  0
SCALE
  5
1CA
102
{ACAD_REACTORS
330
10C
102
}
330
10C
100
AcDbScale
 70
     0
300
4:1
140
4.0
141
1.0
290
     0
  0
SCALE
  5
1CB
102
{ACAD_REACTORS
330
10C
102
}
330
10C
100
AcDbScale
 70
     0
300
8:1
140
8.0
141
1.0
290
     0
  0
SCALE
  5
1CC
102
{ACAD_REACTORS
330
10C
102
}
330
10C
100
AcDbScale
 70
     0
300
10:1
140
10.0
141
1.0
290
     0
  0
SCALE
  5
1CD
102
{ACAD_REACTORS
330
10C
102
}
330
10C
100
AcDbScale
 70
     0
300
100:1
140
100.0
141
1.0
290
     0
  0
ACDBSECTIONVIEWSTYLE
  5
21A
102
{ACAD_REACTORS
330
219
102
}
330
219
100
AcDbModelDocViewStyle
 70
     0
  3
Metric50
290
     0
300
Metric50
 90
        0
100
AcDbSectionViewStyle
 70
     0
 71
     0
 90
      102
 71
     1
340
11
 62
   256
 40
5.0
340
0
340
0
 62
   256
 40
5.0
300
I, O, Q, S, X, Z
 40
10.0
 90
        0
 40
2.5
 90
        0
 71
     2
340
16
 90
       25
 62
   256
340
16
 90
       50
 62
   256
 40
5.0
 40
2.5
 40
5.0
 71
     3
340
11
 62
   256
 40
5.0
 90
        0
 40
15.0
 90
        1
300
%<\AcVar ViewSectionStartId>%-%<\AcVar ViewSectionEndId>% (%<\AcVar ViewScale \f "%sn">%)
 71
     4
 62
   256
 62
   257
300
ANSI31
 40
1.0
 90
        0
290
     0
290
     0
 90
        6
 40
0.0
 40
1.570796326794896
 40
0.2617993877991494
 40
1.308996938995747
 40
-0.2617993877991494
 40
1.832595714594046
  0
TABLESTYLE
  5
7F
102
{ACAD_XDICTIONARY
360
162
102
}
102
{ACAD_REACTORS
330
7E
102
}
330
7E
100
AcDbTableStyle
280
     0
  3
Standard
 70
     0
 71
     0
 40
1.5
 41
1.5
280
     0
281
     0
  7
Standard
140
4.5
170
     2
 62
     0
 63
     7
283
     0
 90
      512
 91
        0
  1

274
    -2
284
     1
 64
     0
275
    -2
285
     1
 65
     0
276
    -2
286
     1
 66
     0
277
    -2
287
     1
 67
     0
278
    -2
288
     1
 68
     0
279
    -2
289
     1
 69
     0
  7
Standard
140
6.0
170
     5
 62
     0
 63
     7
283
     0
 90
      512
 91
        0
  1

274
    -2
284
     1
 64
     0
275
    -2
285
     1
 65
     0
276
    -2
286
     1
 66
     0
277
    -2
287
     1
 67
     0
278
    -2
288
     1
 68
     0
279
    -2
289
     1
 69
     0
  7
Standard
140
4.5
170
     5
 62
     0
 63
     7
283
     0
 90
      512
 91
        0
  1

274
    -2
284
     1
 64
     0
275
    -2
285
     1
 65
     0
276
    -2
286
     1
 66
     0
277
    -2
287
     1
 67
     0
278
    -2
288
     1
 68
     0
279
    -2
289
     1
 69
     0
  0
VISUALSTYLE
  5
F5
102
{ACAD_REACTORS
330
EF
102
}
330
EF
100
AcDbVisualStyle
  2
2dWireframe
 70
     4
177
     3
291
     0
 70
    58
 90
        0
176
     1
 90
        2
176
     1
 90
        1
176
     1
 90
        0
176
     1
 40
0.6
176
     1
 40
30.0
176
     1
 62
     7
420
 16777215
176
     1
 90
        1
176
     1
 90
        4
176
     1
 62
     7
176
     1
 62
   257
176
     1
 90
        1
176
     1
 90
        1
176
     1
 40
1.0
176
     1
 90
        0
176
     1
 62
   257
176
     1
 40
1.0
176
     1
 90
        1
176
     1
 90
        6
176
     1
 90
        2
176
     1
 62
     7
176
     1
 90
        5
176
     1
 90
        0
176
     1
 90
        0
176
     1
290
     0
176
     1
 90
        1
176
     1
 40
0.0
176
     1
 90
        0
176
     1
290
     1
176
     1
290
     1
176
     1
290
     0
176
     1
290
     0
176
     1
290
     0
176
     1
290
     0
176
     1
290
     0
176
     1
290
     0
176
     1
290
     0
176
     1
 90
       50
176
     1
 40
0.0
176
     1
 40
1.0
176
     1
 90
        0
176
     1
 62
    18
420
        0
176
     1
 90
       50
176
     1
 90
        3
176
     1
 62
     5
420
      255
176
     1
290
     0
176
     1
 90
       50
176
     1
 90
       50
176
     1
 90
       50
176
     1
290
     0
176
     1
 90
       50
176
     1
 62
   256
176
     0
 40
1.0
176
     0
 90
        2
176
     1
  1
strokes_ogs.tif
176
     1
290
     0
176
     1
 40
1.0
176
     1
 40
1.0
176
     1
  0
VISUALSTYLE
  5
F4
102
{ACAD_REACTORS
330
EF
102
}
330
EF
100
AcDbVisualStyle
  2
Basic
 70
     7
177
     3
291
     1
 70
    58
 90
        1
176
     1
 90
        0
176
     1
 90
        1
176
     1
 90
        0
176
     1
 40
0.6
176
     1
 40
30.0
176
     1
 62
     7
420
 16777215
176
     1
 90
        0
176
     1
 90
        4
176
     1
 62
     7
176
     1
 62
   257
176
     1
 90
        1
176
     1
 90
        1
176
     1
 40
1.0
176
     1
 90
        8
176
     1
 62
     7
176
     1
 40
1.0
176
     1
 90
        1
176
     1
 90
        6
176
     1
 90
        2
176
     1
 62
     7
176
     1
 90
        5
176
     1
 90
        0
176
     1
 90
        0
176
     1
290
     0
176
     1
 90
        1
176
     1
 40
0.0
176
     1
 90
        0
176
     1
290
     0
176
     1
290
     1
176
     1
290
     1
176
     1
290
     0
176
     1
290
     0
176
     1
290
     0
176
     1
290
     0
176
     1
290
     0
176
     1
290
     0
176
     1
 90
       50
176
     1
 40
0.0
176
     1
 40
1.0
176
     1
 90
        0
176
     1
 62
    18
420
        0
176
     1
 90
       50
176
     1
 90
        3
176
     1
 62
     5
420
      255
176
     1
290
     0
176
     1
 90
       50
176
     1
 90
       50
176
     1
 90
       50
176
     1
290
     0
176
     1
 90
       50
176
     1
 62
   256
176
     0
 40
1.0
176
     0
 90
        2
176
     1
  1
strokes_ogs.tif
176
     1
290
     0
176
     1
 40
1.0
176
     1
 40
1.0
176
     1
  0
VISUALSTYLE
  5
FB
102
{ACAD_REACTORS
330
EF
102
}
330
EF
100
AcDbVisualStyle
  2
Brighten
 70
    12
177
     3
291
     1
 70
    58
 90
        2
176
     1
 90
        2
176
     1
 90
        1
176
     1
 90
        0
176
     1
 40
0.6
176
     1
 40
30.0
176
     1
 62
     7
420
 16777215
176
     1
 90
        1
176
     1
 90
        4
176
     1
 62
     7
176
     1
 62
   257
176
     1
 90
        1
176
     1
 90
        1
176
     1
 40
1.0
176
     1
 90
        8
176
     1
 62
     7
176
     1
 40
1.0
176
     1
 90
        1
176
     1
 90
        6
176
     1
 90
        2
176
     1
 62
     7
176
     1
 90
        5
176
     1
 90
        0
176
     1
 90
        0
176
     1
290
     0
176
     1
 90
        1
176
     1
 40
50.0
176
     1
 90
        0
176
     1
290
     0
176
     1
290
     1
176
     1
290
     1
176
     1
290
     0
176
     1
290
     0
176
     1
290
     0
176
     1
290
     0
176
     1
290
     0
176
     1
290
     0
176
     1
 90
       50
176
     1
 40
0.0
176
     1
 40
1.0
176
     1
 90
        0
176
     1
 62
    18
420
        0
176
     1
 90
       50
176
     1
 90
        3
176
     1
 62
     5
420
      255
176
     1
290
     0
176
     1
 90
       50
176
     1
 90
       50
176
     1
 90
       50
176
     1
290
     0
176
     1
 90
       50
176
     1
 62
   256
176
     0
 40
1.0
176
     0
 90
        2
176
     1
  1
strokes_ogs.tif
176
     1
290
     0
176
     1
 40
1.0
176
     1
 40
1.0
176
     1
  0
VISUALSTYLE
  5
FF
102
{ACAD_REACTORS
330
EF
102
}
330
EF
100
AcDbVisualStyle
  2
ColorChange
 70
    16
177
     3
291
     1
 70
    58
 90
        2
176
     1
 90
        2
176
     1
 90
        3
176
     1
 90
        0
176
     1
 40
0.6
176
     1
 40
30.0
176
     1
 62
     8
420
  8421504
176
     1
 90
        1
176
     1
 90
        4
176
     1
 62
     7
176
     1
 62
   257
176
     1
 90
        1
176
     1
 90
        1
176
     1
 40
1.0
176
     1
 90
        8
176
     1
 62
     8
420
  8421504
176
     1
 40
1.0
176
     1
 90
        1
176
     1
 90
        6
176
     1
 90
        2
176
     1
 62
     7
176
     1
 90
        5
176
     1
 90
        0
176
     1
 90
        0
176
     1
290
     0
176
     1
 90
        1
176
     1
 40
0.0
176
     1
 90
        0
176
     1
290
     0
176
     1
290
     1
176
     1
290
     1
176
     1
290
     0
176
     1
290
     0
176
     1
290
     0
176
     1
290
     0
176
     1
290
     0
176
     1
290
     0
176
     1
 90
       50
176
     1
 40
0.0
176
     1
 40
1.0
176
     1
 90
        0
176
     1
 62
    18
420
        0
176
     1
 90
       50
176
     1
 90
        3
176
     1
 62
     5
420
      255
176
     1
290
     0
176
     1
 90
       50
176
     1
 90
       50
176
     1
 90
       50
176
     1
290
     0
176
     1
 90
       50
176
     1
 62
   256
176
     0
 40
1.0
176
     0
 90
        2
176
     1
  1
strokes_ogs.tif
176
     1
290
     0
176
     1
 40
1.0
176
     1
 40
1.0
176
     1
  0
VISUALSTYLE
  5
F8
102
{ACAD_REACTORS
330
EF
102
}
330
EF
100
AcDbVisualStyle
  2
Conceptual
 70
     9
177
     3
291
     0
 70
    58
 90
        3
176
     1
 90
        2
176
     1
 90
        1
176
     1
 90
        0
176
     1
 40
0.6
176
     1
 40
30.0
176
     1
 62
     7
420
 16777215
176
     1
 90
        2
176
     1
 90
        2
176
     1
 62
     7
176
     1
 62
   257
176
     1
 90
        1
176
     1
 90
        1
176
     1
 40
40.0
176
     1
 90
        8
176
     1
 62
     7
176
     1
 40
1.0
176
     1
 90
        1
176
     1
 90
        6
176
     1
 90
        2
176
     1
 62
     7
176
     1
 90
        3
176
     1
 90
        0
176
     1
 90
        0
176
     1
290
     0
176
     1
 90
        1
176
     1
 40
0.0
176
     1
 90
        0
176
     1
290
     0
176
     1
290
     1
176
     1
290
     1
176
     1
290
     0
176
     1
290
     0
176
     1
290
     0
176
     1
290
     0
176
     1
290
     0
176
     1
290
     0
176
     1
 90
       50
176
     1
 40
0.0
176
     1
 40
1.0
176
     1
 90
        0
176
     1
 62
    18
420
        0
176
     1
 90
       50
176
     1
 90
        3
176
     1
 62
     5
420
      255
176
     1
290
     0
176
     1
 90
       50
176
     1
 90
       50
176
     1
 90
       50
176
     1
290
     0
176
     1
 90
       50
176
     1
 62
   256
176
     0
 40
1.0
176
     0
 90
        2
176
     1
  1
strokes_ogs.tif
176
     1
290
     0
176
     1
 40
1.0
176
     1
 40
1.0
176
     1
  0
VISUALSTYLE
  5
FA
102
{ACAD_REACTORS
330
EF
102
}
330
EF
100
AcDbVisualStyle
  2
Dim
 70
    11
177
     3
291
     1
 70
    58
 90
        2
176
     1
 90
        2
176
     1
 90
        1
176
     1
 90
        0
176
     1
 40
0.6
176
     1
 40
30.0
176
     1
 62
     7
420
 16777215
176
     1
 90
        1
176
     1
 90
        4
176
     1
 62
     7
176
     1
 62
   257
176
     1
 90
        1
176
     1
 90
        1
176
     1
 40
1.0
176
     1
 90
        8
176
     1
 62
     7
176
     1
 40
1.0
176
     1
 90
        1
176
     1
 90
        6
176
     1
 90
        2
176
     1
 62
     7
176
     1
 90
        5
176
     1
 90
        0
176
     1
 90
        0
176
     1
290
     0
176
     1
 90
        1
176
     1
 40
-50.0
176
     1
 90
        0
176
     1
290
     0
176
     1
290
     1
176
     1
290
     1
176
     1
290
     0
176
     1
290
     0
176
     1
290
     0
176
     1
290
     0
176
     1
290
     0
176
     1
290
     0
176
     1
 90
       50
176
     1
 40
0.0
176
     1
 40
1.0
176
     1
 90
        0
176
     1
 62
    18
420
        0
176
     1
 90
       50
176
     1
 90
        3
176
     1
 62
     5
420
      255
176
     1
290
     0
176
     1
 90
       50
176
     1
 90
       50
176
     1
 90
       50
176
     1
290
     0
176
     1
 90
       50
176
     1
 62
   256
176
     0
 40
1.0
176
     0
 90
        2
176
     1
  1
strokes_ogs.tif
176
     1
290
     0
176
     1
 40
1.0
176
     1
 40
1.0
176
     1
  0
VISUALSTYLE
  5
1E6
102
{ACAD_REACTORS
330
EF
102
}
330
EF
100
AcDbVisualStyle
  2
EdgeColorOff
 70
    22
177
     3
291
     1
 70
    58
 90
        2
176
     0
 90
        2
176
     0
 90
        0
176
     0
 90
        0
176
     0
 40
0.6
176
     0
 40
30.0
176
     0
 62
     7
420
 16777215
176
     0
 90
        1
176
     0
 90
        4
176
     0
 62
     7
176
     0
 62
   257
176
     0
 90
        1
176
     0
 90
        1
176
     0
 40
1.0
176
     0
 90
        8
176
     2
 62
     7
176
     0
 40
1.0
176
     0
 90
        1
176
     0
 90
        6
176
     0
 90
        2
176
     0
 62
     7
176
     0
 90
        5
176
     0
 90
        0
176
     0
 90
        0
176
     0
290
     0
176
     0
 90
        1
176
     0
 40
0.0
176
     0
 90
        0
176
     0
290
     0
176
     1
290
     1
176
     1
290
     1
176
     1
290
     0
176
     1
290
     0
176
     1
290
     0
176
     1
290
     0
176
     1
290
     0
176
     1
290
     0
176
     1
 90
       50
176
     1
 40
0.0
176
     1
 40
1.0
176
     1
 90
        0
176
     1
 62
    18
420
        0
176
     1
 90
       50
176
     1
 90
        3
176
     1
 62
     5
420
      255
176
     1
290
     0
176
     1
 90
       50
176
     1
 90
       50
176
     1
 90
       50
176
     1
290
     0
176
     1
 90
       50
176
     1
 62
   256
176
     0
 40
1.0
176
     0
 90
        2
176
     1
  1
strokes_ogs.tif
176
     1
290
     0
176
     1
 40
1.0
176
     1
 40
1.0
176
     1
  0
VISUALSTYLE
  5
FE
102
{ACAD_REACTORS
330
EF
102
}
330
EF
100
AcDbVisualStyle
  2
Facepattern
 70
    15
177
     3
291
     1
 70
    58
 90
        2
176
     1
 90
        2
176
     1
 90
        1
176
     1
 90
        0
176
     1
 40
0.6
176
     1
 40
30.0
176
     1
 62
     7
420
 16777215
176
     1
 90
        1
176
     1
 90
        4
176
     1
 62
     7
176
     1
 62
   257
176
     1
 90
        1
176
     1
 90
        1
176
     1
 40
1.0
176
     1
 90
        8
176
     1
 62
     7
176
     1
 40
1.0
176
     1
 90
        1
176
     1
 90
        6
176
     1
 90
        2
176
     1
 62
     7
176
     1
 90
        5
176
     1
 90
        0
176
     1
 90
        0
176
     1
290
     0
176
     1
 90
        1
176
     1
 40
0.0
176
     1
 90
        0
176
     1
290
     0
176
     1
290
     1
176
     1
290
     1
176
     1
290
     0
176
     1
290
     0
176
     1
290
     0
176
     1
290
     0
176
     1
290
     0
176
     1
290
     0
176
     1
 90
       50
176
     1
 40
0.0
176
     1
 40
1.0
176
     1
 90
        0
176
     1
 62
    18
420
        0
176
     1
 90
       50
176
     1
 90
        3
176
     1
 62
     5
420
      255
176
     1
290
     0
176
     1
 90
       50
176
     1
 90
       50
176
     1
 90
       50
176
     1
290
     0
176
     1
 90
       50
176
     1
 62
   256
176
     0
 40
1.0
176
     0
 90
        2
176
     1
  1
strokes_ogs.tif
176
     1
290
     0
176
     1
 40
1.0
176
     1
 40
1.0
176
     1
  0
VISUALSTYLE
  5
F0
102
{ACAD_REACTORS
330
EF
102
}
330
EF
100
AcDbVisualStyle
  2
Flat
 70
     0
177
     3
291
     1
 70
    58
 90
        2
176
     1
 90
        1
176
     1
 90
        1
176
     1
 90
        2
176
     1
 40
0.6
176
     1
 40
30.0
176
     1
 62
     7
420
 16777215
176
     1
 90
        0
176
     1
 90
        0
176
     1
 62
     7
176
     1
 62
   257
176
     1
 90
        1
176
     1
 90
        1
176
     1
 40
1.0
176
     1
 90
        8
176
     1
 62
     7
176
     1
 40
1.0
176
     1
 90
        1
176
     1
 90
        6
176
     1
 90
        2
176
     1
 62
     7
176
     1
 90
        5
176
     1
 90
        0
176
     1
 90
        0
176
     1
290
     0
176
     1
 90
       13
176
     1
 40
0.0
176
     1
 90
        0
176
     1
290
     0
176
     1
290
     1
176
     1
290
     1
176
     1
290
     0
176
     1
290
     0
176
     1
290
     0
176
     1
290
     0
176
     1
290
     0
176
     1
290
     0
176
     1
 90
       50
176
     1
 40
0.0
176
     1
 40
1.0
176
     1
 90
        0
176
     1
 62
    18
420
        0
176
     1
 90
       50
176
     1
 90
        3
176
     1
 62
     5
420
      255
176
     1
290
     0
176
     1
 90
       50
176
     1
 90
       50
176
     1
 90
       50
176
     1
290
     0
176
     1
 90
       50
176
     1
 62
   256
176
     0
 40
1.0
176
     0
 90
        2
176
     1
  1
strokes_ogs.tif
176
     1
290
     0
176
     1
 40
1.0
176
     1
 40
1.0
176
     1
  0
VISUALSTYLE
  5
F1
102
{ACAD_REACTORS
330
EF
102
}
330
EF
100
AcDbVisualStyle
  2
FlatWithEdges
 70
     1
177
     3
291
     1
 70
    58
 90
        2
176
     1
 90
        1
176
     1
 90
        1
176
     1
 90
        2
176
     1
 40
0.6
176
     1
 40
30.0
176
     1
 62
     7
420
 16777215
176
     1
 90
        1
176
     1
 90
        0
176
     1
 62
     7
176
     1
 62
   257
176
     1
 90
        1
176
     1
 90
        1
176
     1
 40
1.0
176
     1
 90
        0
176
     1
 62
   257
176
     1
 40
1.0
176
     1
 90
        1
176
     1
 90
        6
176
     1
 90
        2
176
     1
 62
     7
176
     1
 90
        5
176
     1
 90
        0
176
     1
 90
        0
176
     1
290
     0
176
     1
 90
       13
176
     1
 40
0.0
176
     1
 90
        0
176
     1
290
     0
176
     1
290
     1
176
     1
290
     1
176
     1
290
     0
176
     1
290
     0
176
     1
290
     0
176
     1
290
     0
176
     1
290
     0
176
     1
290
     0
176
     1
 90
       50
176
     1
 40
0.0
176
     1
 40
1.0
176
     1
 90
        0
176
     1
 62
    18
420
        0
176
     1
 90
       50
176
     1
 90
        3
176
     1
 62
     5
420
      255
176
     1
290
     0
176
     1
 90
       50
176
     1
 90
       50
176
     1
 90
       50
176
     1
290
     0
176
     1
 90
       50
176
     1
 62
   256
176
     0
 40
1.0
176
     0
 90
        2
176
     1
  1
strokes_ogs.tif
176
     1
290
     0
176
     1
 40
1.0
176
     1
 40
1.0
176
     1
  0
VISUALSTYLE
  5
F2
102
{ACAD_REACTORS
330
EF
102
}
330
EF
100
AcDbVisualStyle
  2
Gouraud
 70
     2
177
     3
291
     1
 70
    58
 90
        2
176
     1
 90
        2
176
     1
 90
        1
176
     1
 90
        2
176
     1
 40
0.6
176
     1
 40
30.0
176
     1
 62
     7
420
 16777215
176
     1
 90
        0
176
     1
 90
        0
176
     1
 62
     7
176
     1
 62
   257
176
     1
 90
        1
176
     1
 90
        1
176
     1
 40
1.0
176
     1
 90
        0
176
     1
 62
     7
176
     1
 40
1.0
176
     1
 90
        1
176
     1
 90
        6
176
     1
 90
        2
176
     1
 62
     7
176
     1
 90
        5
176
     1
 90
        0
176
     1
 90
        0
176
     1
290
     0
176
     1
 90
       13
176
     1
 40
0.0
176
     1
 90
        0
176
     1
290
     0
176
     1
290
     1
176
     1
290
     1
176
     1
290
     0
176
     1
290
     0
176
     1
290
     0
176
     1
290
     0
176
     1
290
     0
176
     1
290
     0
176
     1
 90
       50
176
     1
 40
0.0
176
     1
 40
1.0
176
     1
 90
        0
176
     1
 62
    18
420
        0
176
     1
 90
       50
176
     1
 90
        3
176
     1
 62
     5
420
      255
176
     1
290
     0
176
     1
 90
       50
176
     1
 90
       50
176
     1
 90
       50
176
     1
290
     0
176
     1
 90
       50
176
     1
 62
   256
176
     0
 40
1.0
176
     0
 90
        2
176
     1
  1
strokes_ogs.tif
176
     1
290
     0
176
     1
 40
1.0
176
     1
 40
1.0
176
     1
  0
VISUALSTYLE
  5
F3
102
{ACAD_REACTORS
330
EF
102
}
330
EF
100
AcDbVisualStyle
  2
GouraudWithEdges
 70
     3
177
     3
291
     1
 70
    58
 90
        2
176
     1
 90
        2
176
     1
 90
        1
176
     1
 90
        2
176
     1
 40
0.6
176
     1
 40
30.0
176
     1
 62
     7
420
 16777215
176
     1
 90
        1
176
     1
 90
        0
176
     1
 62
     7
176
     1
 62
   257
176
     1
 90
        1
176
     1
 90
        1
176
     1
 40
1.0
176
     1
 90
        0
176
     1
 62
   257
176
     1
 40
1.0
176
     1
 90
        1
176
     1
 90
        6
176
     1
 90
        2
176
     1
 62
     7
176
     1
 90
        5
176
     1
 90
        0
176
     1
 90
        0
176
     1
290
     0
176
     1
 90
       13
176
     1
 40
0.0
176
     1
 90
        0
176
     1
290
     0
176
     1
290
     1
176
     1
290
     1
176
     1
290
     0
176
     1
290
     0
176
     1
290
     0
176
     1
290
     0
176
     1
290
     0
176
     1
290
     0
176
     1
 90
       50
176
     1
 40
0.0
176
     1
 40
1.0
176
     1
 90
        0
176
     1
 62
    18
420
        0
176
     1
 90
       50
176
     1
 90
        3
176
     1
 62
     5
420
      255
176
     1
290
     0
176
     1
 90
       50
176
     1
 90
       50
176
     1
 90
       50
176
     1
290
     0
176
     1
 90
       50
176
     1
 62
   256
176
     0
 40
1.0
176
     0
 90
        2
176
     1
  1
strokes_ogs.tif
176
     1
290
     0
176
     1
 40
1.0
176
     1
 40
1.0
176
     1
  0
VISUALSTYLE
  5
F7
102
{ACAD_REACTORS
330
EF
102
}
330
EF
100
AcDbVisualStyle
  2
Hidden
 70
     6
177
     3
291
     0
 70
    58
 90
        1
176
     1
 90
        2
176
     1
 90
        2
176
     1
 90
        0
176
     1
 40
0.6
176
     1
 40
30.0
176
     1
 62
     7
420
 16777215
176
     1
 90
        2
176
     1
 90
        2
176
     1
 62
     7
176
     1
 62
   257
176
     1
 90
        2
176
     1
 90
        1
176
     1
 40
40.0
176
     1
 90
        0
176
     1
 62
   257
176
     1
 40
1.0
176
     1
 90
        1
176
     1
 90
        6
176
     1
 90
        2
176
     1
 62
     7
176
     1
 90
        3
176
     1
 90
        0
176
     1
 90
        0
176
     1
290
     0
176
     1
 90
        1
176
     1
 40
0.0
176
     1
 90
        0
176
     1
290
     0
176
     1
290
     1
176
     1
290
     1
176
     1
290
     0
176
     1
290
     0
176
     1
290
     0
176
     1
290
     0
176
     1
290
     0
176
     1
290
     0
176
     1
 90
       50
176
     1
 40
0.0
176
     1
 40
1.0
176
     1
 90
        0
176
     1
 62
    18
420
        0
176
     1
 90
       50
176
     1
 90
        3
176
     1
 62
     5
420
      255
176
     1
290
     0
176
     1
 90
       50
176
     1
 90
       50
176
     1
 90
       50
176
     1
290
     0
176
     1
 90
       50
176
     1
 62
   256
176
     0
 40
1.0
176
     0
 90
        2
176
     1
  1
strokes_ogs.tif
176
     1
290
     0
176
     1
 40
1.0
176
     1
 40
1.0
176
     1
  0
VISUALSTYLE
  5
1E4
102
{ACAD_REACTORS
330
EF
102
}
330
EF
100
AcDbVisualStyle
  2
JitterOff
 70
    20
177
     3
291
     1
 70
    58
 90
        2
176
     0
 90
        2
176
     0
 90
        0
176
     0
 90
        0
176
     0
 40
0.6
176
     0
 40
30.0
176
     0
 62
     7
420
 16777215
176
     0
 90
        1
176
     0
 90
        4
176
     0
 62
     7
176
     0
 62
   257
176
     0
 90
        1
176
     0
 90
        1
176
     0
 40
1.0
176
     0
 90
       10
176
     2
 62
     7
176
     0
 40
1.0
176
     0
 90
        1
176
     0
 90
        6
176
     0
 90
        2
176
     0
 62
     7
176
     0
 90
        5
176
     0
 90
        0
176
     0
 90
        0
176
     0
290
     0
176
     0
 90
        1
176
     0
 40
0.0
176
     0
 90
        0
176
     0
290
     0
176
     1
290
     1
176
     1
290
     1
176
     1
290
     0
176
     1
290
     0
176
     1
290
     0
176
     1
290
     0
176
     1
290
     0
176
     1
290
     0
176
     1
 90
       50
176
     1
 40
0.0
176
     1
 40
1.0
176
     1
 90
        0
176
     1
 62
    18
420
        0
176
     1
 90
       50
176
     1
 90
        3
176
     1
 62
     5
420
      255
176
     1
290
     0
176
     1
 90
       50
176
     1
 90
       50
176
     1
 90
       50
176
     1
290
     0
176
     1
 90
       50
176
     1
 62
   256
176
     0
 40
1.0
176
     0
 90
        2
176
     1
  1
strokes_ogs.tif
176
     1
290
     0
176
     1
 40
1.0
176
     1
 40
1.0
176
     1
  0
VISUALSTYLE
  5
FD
102
{ACAD_REACTORS
330
EF
102
}
330
EF
100
AcDbVisualStyle
  2
Linepattern
 70
    14
177
     3
291
     1
 70
    58
 90
        2
176
     1
 90
        2
176
     1
 90
        1
176
     1
 90
        0
176
     1
 40
0.6
176
     1
 40
30.0
176
     1
 62
     7
420
 16777215
176
     1
 90
        1
176
     1
 90
        4
176
     1
 62
     7
176
     1
 62
   257
176
     1
 90
        7
176
     1
 90
        7
176
     1
 40
1.0
176
     1
 90
        8
176
     1
 62
     7
176
     1
 40
1.0
176
     1
 90
        1
176
     1
 90
        6
176
     1
 90
        2
176
     1
 62
     7
176
     1
 90
        5
176
     1
 90
        0
176
     1
 90
        0
176
     1
290
     0
176
     1
 90
        1
176
     1
 40
0.0
176
     1
 90
        0
176
     1
290
     0
176
     1
290
     1
176
     1
290
     1
176
     1
290
     0
176
     1
290
     0
176
     1
290
     0
176
     1
290
     0
176
     1
290
     0
176
     1
290
     0
176
     1
 90
       50
176
     1
 40
0.0
176
     1
 40
1.0
176
     1
 90
        0
176
     1
 62
    18
420
        0
176
     1
 90
       50
176
     1
 90
        3
176
     1
 62
     5
420
      255
176
     1
290
     0
176
     1
 90
       50
176
     1
 90
       50
176
     1
 90
       50
176
     1
290
     0
176
     1
 90
       50
176
     1
 62
   256
176
     0
 40
1.0
176
     0
 90
        2
176
     1
  1
strokes_ogs.tif
176
     1
290
     0
176
     1
 40
1.0
176
     1
 40
1.0
176
     1
  0
VISUALSTYLE
  5
1E5
102
{ACAD_REACTORS
330
EF
102
}
330
EF
100
AcDbVisualStyle
  2
OverhangOff
 70
    21
177
     3
291
     1
 70
    58
 90
        2
176
     0
 90
        2
176
     0
 90
        0
176
     0
 90
        0
176
     0
 40
0.6
176
     0
 40
30.0
176
     0
 62
     7
420
 16777215
176
     0
 90
        1
176
     0
 90
        4
176
     0
 62
     7
176
     0
 62
   257
176
     0
 90
        1
176
     0
 90
        1
176
     0
 40
1.0
176
     0
 90
        9
176
     2
 62
     7
176
     0
 40
1.0
176
     0
 90
        1
176
     0
 90
        6
176
     0
 90
        2
176
     0
 62
     7
176
     0
 90
        5
176
     0
 90
        0
176
     0
 90
        0
176
     0
290
     0
176
     0
 90
        1
176
     0
 40
0.0
176
     0
 90
        0
176
     0
290
     0
176
     1
290
     1
176
     1
290
     1
176
     1
290
     0
176
     1
290
     0
176
     1
290
     0
176
     1
290
     0
176
     1
290
     0
176
     1
290
     0
176
     1
 90
       50
176
     1
 40
0.0
176
     1
 40
1.0
176
     1
 90
        0
176
     1
 62
    18
420
        0
176
     1
 90
       50
176
     1
 90
        3
176
     1
 62
     5
420
      255
176
     1
290
     0
176
     1
 90
       50
176
     1
 90
       50
176
     1
 90
       50
176
     1
290
     0
176
     1
 90
       50
176
     1
 62
   256
176
     0
 40
1.0
176
     0
 90
        2
176
     1
  1
strokes_ogs.tif
176
     1
290
     0
176
     1
 40
1.0
176
     1
 40
1.0
176
     1
  0
VISUALSTYLE
  5
F9
102
{ACAD_REACTORS
330
EF
102
}
330
EF
100
AcDbVisualStyle
  2
Realistic
 70
     8
177
     3
291
     0
 70
    58
 90
        2
176
     1
 90
        3
176
     1
 90
        0
176
     1
 90
        2
176
     1
 40
0.6
176
     1
 40
30.0
176
     1
 62
     7
420
 16777215
176
     1
 90
        0
176
     1
 90
        0
176
     1
 62
     7
176
     1
 62
   257
176
     1
 90
        1
176
     1
 90
        1
176
     1
 40
1.0
176
     1
 90
        8
176
     1
 62
   257
176
     1
 40
1.0
176
     1
 90
        1
176
     1
 90
        6
176
     1
 90
        2
176
     1
 62
     7
176
     1
 90
        3
176
     1
 90
        0
176
     1
 90
        0
176
     1
290
     0
176
     1
 90
       13
176
     1
 40
0.0
176
     1
 90
        0
176
     1
290
     0
176
     1
290
     1
176
     1
290
     1
176
     1
290
     0
176
     1
290
     0
176
     1
290
     0
176
     1
290
     0
176
     1
290
     0
176
     1
290
     0
176
     1
 90
       50
176
     1
 40
0.0
176
     1
 40
1.0
176
     1
 90
        0
176
     1
 62
    18
420
        0
176
     1
 90
       50
176
     1
 90
        3
176
     1
 62
     5
420
      255
176
     1
290
     0
176
     1
 90
       50
176
     1
 90
       50
176
     1
 90
       50
176
     1
290
     0
176
     1
 90
       50
176
     1
 62
   256
176
     0
 40
1.0
176
     0
 90
        2
176
     1
  1
strokes_ogs.tif
176
     1
290
     0
176
     1
 40
1.0
176
     1
 40
1.0
176
     1
  0
VISUALSTYLE
  5
1F3
102
{ACAD_REACTORS
330
EF
102
}
330
EF
100
AcDbVisualStyle
  2
Shaded
 70
    27
177
     3
291
     0
 70
    58
 90
        2
176
     1
 90
        2
176
     1
 90
        1
176
     1
 90
        2
176
     1
 40
0.6
176
     1
 40
30.0
176
     1
 62
     7
420
 16777215
176
     1
 90
        0
176
     1
 90
        4
176
     1
 62
     7
176
     1
 62
   257
176
     1
 90
        1
176
     1
 90
        1
176
     1
 40
1.0
176
     1
 90
        8
176
     1
 62
   257
176
     1
 40
1.0
176
     1
 90
        1
176
     1
 90
        6
176
     1
 90
        2
176
     1
 62
     8
420
  7895160
176
     1
 90
        3
176
     1
 90
        0
176
     1
 90
        0
176
     1
290
     0
176
     1
 90
        5
176
     1
 40
0.0
176
     1
 90
        0
176
     1
290
     0
176
     1
290
     1
176
     1
290
     1
176
     1
290
     0
176
     1
290
     0
176
     1
290
     0
176
     1
290
     0
176
     1
290
     0
176
     1
290
     0
176
     1
 90
       50
176
     1
 40
0.0
176
     1
 40
1.0
176
     1
 90
        0
176
     1
 62
    18
420
        0
176
     1
 90
       50
176
     1
 90
        3
176
     1
 62
     5
420
      255
176
     1
290
     0
176
     1
 90
       50
176
     1
 90
       50
176
     1
 90
       50
176
     1
290
     0
176
     1
 90
       50
176
     1
 62
   256
176
     0
 40
1.0
176
     0
 90
        2
176
     1
  1
strokes_ogs.tif
176
     1
290
     0
176
     1
 40
1.0
176
     1
 40
1.0
176
     1
  0
VISUALSTYLE
  5
1F2
102
{ACAD_REACTORS
330
EF
102
}
330
EF
100
AcDbVisualStyle
  2
Shaded with edges
 70
    26
177
     3
291
     0
 70
    58
 90
        2
176
     1
 90
        2
176
     1
 90
        1
176
     1
 90
        2
176
     1
 40
0.6
176
     1
 40
30.0
176
     1
 62
     7
420
 16777215
176
     1
 90
        1
176
     1
 90
        2
176
     1
 62
     7
176
     1
 62
   257
176
     1
 90
        2
176
     1
 90
        1
176
     1
 40
1.0
176
     1
 90
        8
176
     1
 62
   257
176
     1
 40
1.0
176
     1
 90
        1
176
     1
 90
        6
176
     1
 90
        2
176
     1
 62
     7
176
     1
 90
        3
176
     1
 90
        0
176
     1
 90
        0
176
     1
290
     0
176
     1
 90
        5
176
     1
 40
0.0
176
     1
 90
        0
176
     1
290
     0
176
     1
290
     1
176
     1
290
     1
176
     1
290
     0
176
     1
290
     0
176
     1
290
     0
176
     1
290
     0
176
     1
290
     0
176
     1
290
     0
176
     1
 90
       50
176
     1
 40
0.0
176
     1
 40
1.0
176
     1
 90
        0
176
     1
 62
    18
420
        0
176
     1
 90
       50
176
     1
 90
        3
176
     1
 62
     5
420
      255
176
     1
290
     0
176
     1
 90
       50
176
     1
 90
       50
176
     1
 90
       50
176
     1
290
     0
176
     1
 90
       50
176
     1
 62
   256
176
     0
 40
1.0
176
     0
 90
        2
176
     1
  1
strokes_ogs.tif
176
     1
290
     0
176
     1
 40
1.0
176
     1
 40
1.0
176
     1
  0
VISUALSTYLE
  5
1EF
102
{ACAD_REACTORS
330
EF
102
}
330
EF
100
AcDbVisualStyle
  2
Shades of Gray
 70
    23
177
     3
291
     0
 70
    58
 90
        2
176
     1
 90
        2
176
     1
 90
        3
176
     1
 90
        0
176
     1
 40
0.6
176
     1
 40
30.0
176
     1
 62
     7
420
 16777215
176
     1
 90
        2
176
     1
 90
        2
176
     1
 62
     7
176
     1
 62
     7
176
     1
 90
        1
176
     1
 90
        1
176
     1
 40
40.0
176
     1
 90
        8
176
     1
 62
     7
176
     1
 40
1.0
176
     1
 90
        1
176
     1
 90
        6
176
     1
 90
        2
176
     1
 62
     7
176
     1
 90
        3
176
     1
 90
        0
176
     1
 90
        0
176
     1
290
     0
176
     1
 90
        1
176
     1
 40
0.0
176
     1
 90
        0
176
     1
290
     0
176
     1
290
     1
176
     1
290
     1
176
     1
290
     0
176
     1
290
     0
176
     1
290
     0
176
     1
290
     0
176
     1
290
     0
176
     1
290
     0
176
     1
 90
       50
176
     1
 40
0.0
176
     1
 40
1.0
176
     1
 90
        0
176
     1
 62
    18
420
        0
176
     1
 90
       50
176
     1
 90
        3
176
     1
 62
     5
420
      255
176
     1
290
     0
176
     1
 90
       50
176
     1
 90
       50
176
     1
 90
       50
176
     1
290
     0
176
     1
 90
       50
176
     1
 62
   256
176
     0
 40
1.0
176
     0
 90
        2
176
     1
  1
strokes_ogs.tif
176
     1
290
     0
176
     1
 40
1.0
176
     1
 40
1.0
176
     1
  0
VISUALSTYLE
  5
1F0
102
{ACAD_REACTORS
330
EF
102
}
330
EF
100
AcDbVisualStyle
  2
Sketchy
 70
    24
177
     3
291
     0
 70
    58
 90
        1
176
     1
 90
        2
176
     1
 90
        2
176
     1
 90
        0
176
     1
 40
0.6
176
     1
 40
30.0
176
     1
 62
     7
420
 16777215
176
     1
 90
        2
176
     1
 90
        2
176
     1
 62
     7
176
     1
 62
     7
176
     1
 90
        1
176
     1
 90
        1
176
     1
 40
40.0
176
     1
 90
       11
176
     1
 62
     7
176
     1
 40
1.0
176
     1
 90
        1
176
     1
 90
        6
176
     1
 90
        2
176
     1
 62
     7
176
     1
 90
        6
176
     1
 90
        0
176
     1
 90
        0
176
     1
290
     0
176
     1
 90
        1
176
     1
 40
0.0
176
     1
 90
        0
176
     1
290
     0
176
     1
290
     1
176
     1
290
     1
176
     1
290
     0
176
     1
290
     0
176
     1
290
     0
176
     1
290
     0
176
     1
290
     0
176
     1
290
     0
176
     1
 90
       50
176
     1
 40
0.0
176
     1
 40
1.0
176
     1
 90
        0
176
     1
 62
    18
420
        0
176
     1
 90
       50
176
     1
 90
        3
176
     1
 62
     5
420
      255
176
     1
290
     0
176
     1
 90
       50
176
     1
 90
       50
176
     1
 90
       50
176
     1
290
     0
176
     1
 90
       50
176
     1
 62
   256
176
     0
 40
1.0
176
     0
 90
        2
176
     1
  1
strokes_ogs.tif
176
     1
290
     0
176
     1
 40
1.0
176
     1
 40
1.0
176
     1
  0
VISUALSTYLE
  5
FC
102
{ACAD_REACTORS
330
EF
102
}
330
EF
100
AcDbVisualStyle
  2
Thicken
 70
    13
177
     3
291
     1
 70
    58
 90
        2
176
     1
 90
        2
176
     1
 90
        1
176
     1
 90
        0
176
     1
 40
0.6
176
     1
 40
30.0
176
     1
 62
     7
420
 16777215
176
     1
 90
        1
176
     1
 90
        4
176
     1
 62
     7
176
     1
 62
   257
176
     1
 90
        1
176
     1
 90
        1
176
     1
 40
1.0
176
     1
 90
       12
176
     1
 62
     7
176
     1
 40
1.0
176
     1
 90
        1
176
     1
 90
        6
176
     1
 90
        2
176
     1
 62
     7
176
     1
 90
        5
176
     1
 90
        0
176
     1
 90
        0
176
     1
290
     0
176
     1
 90
        1
176
     1
 40
0.0
176
     1
 90
        0
176
     1
290
     0
176
     1
290
     1
176
     1
290
     1
176
     1
290
     0
176
     1
290
     0
176
     1
290
     0
176
     1
290
     0
176
     1
290
     0
176
     1
290
     0
176
     1
 90
       50
176
     1
 40
0.0
176
     1
 40
1.0
176
     1
 90
        0
176
     1
 62
    18
420
        0
176
     1
 90
       50
176
     1
 90
        3
176
     1
 62
     5
420
      255
176
     1
290
     0
176
     1
 90
       50
176
     1
 90
       50
176
     1
 90
       50
176
     1
290
     0
176
     1
 90
       50
176
     1
 62
   256
176
     0
 40
1.0
176
     0
 90
        2
176
     1
  1
strokes_ogs.tif
176
     1
290
     0
176
     1
 40
1.0
176
     1
 40
1.0
176
     1
  0
VISUALSTYLE
  5
F6
102
{ACAD_REACTORS
330
EF
102
}
330
EF
100
AcDbVisualStyle
  2
Wireframe
 70
     5
177
     3
291
     0
 70
    58
 90
        0
176
     1
 90
        2
176
     1
 90
        0
176
     1
 90
        0
176
     1
 40
0.6
176
     1
 40
30.0
176
     1
 62
     7
420
 16777215
176
     1
 90
        1
176
     1
 90
        4
176
     1
 62
     7
176
     1
 62
   257
176
     1
 90
        1
176
     1
 90
        1
176
     1
 40
1.0
176
     1
 90
        0
176
     1
 62
   257
176
     1
 40
1.0
176
     1
 90
        1
176
     1
 90
        6
176
     1
 90
        2
176
     1
 62
     7
176
     1
 90
        3
176
     1
 90
        0
176
     1
 90
        0
176
     1
290
     0
176
     1
 90
        1
176
     1
 40
0.0
176
     1
 90
        0
176
     1
290
     0
176
     1
290
     1
176
     1
290
     1
176
     1
290
     0
176
     1
290
     0
176
     1
290
     0
176
     1
290
     0
176
     1
290
     0
176
     1
290
     0
176
     1
 90
       50
176
     1
 40
0.0
176
     1
 40
1.0
176
     1
 90
        0
176
     1
 62
    18
420
        0
176
     1
 90
       50
176
     1
 90
        3
176
     1
 62
     5
420
      255
176
     1
290
     0
176
     1
 90
       50
176
     1
 90
       50
176
     1
 90
       50
176
     1
290
     0
176
     1
 90
       50
176
     1
 62
   256
176
     0
 40
1.0
176
     0
 90
        2
176
     1
  1
strokes_ogs.tif
176
     1
290
     0
176
     1
 40
1.0
176
     1
 40
1.0
176
     1
  0
VISUALSTYLE
  5
1F1
102
{ACAD_REACTORS
330
EF
102
}
330
EF
100
AcDbVisualStyle
  2
X-Ray
 70
    25
177
     3
291
     0
 70
    58
 90
        2
176
     1
 90
        2
176
     1
 90
        1
176
     1
 90
        1
176
     1
 40
0.5
176
     1
 40
30.0
176
     1
 62
     7
420
 16777215
176
     1
 90
        1
176
     1
 90
        0
176
     1
 62
     7
176
     1
 62
   257
176
     1
 90
        1
176
     1
 90
        1
176
     1
 40
1.0
176
     1
 90
        8
176
     1
 62
     7
176
     1
 40
1.0
176
     1
 90
        1
176
     1
 90
        6
176
     1
 90
        2
176
     1
 62
     7
176
     1
 90
        3
176
     1
 90
        0
176
     1
 90
        0
176
     1
290
     0
176
     1
 90
       13
176
     1
 40
0.0
176
     1
 90
        0
176
     1
290
     0
176
     1
290
     1
176
     1
290
     1
176
     1
290
     0
176
     1
290
     0
176
     1
290
     0
176
     1
290
     0
176
     1
290
     0
176
     1
290
     0
176
     1
 90
       50
176
     1
 40
0.0
176
     1
 40
1.0
176
     1
 90
        0
176
     1
 62
    18
420
        0
176
     1
 90
       50
176
     1
 90
        3
176
     1
 62
     5
420
      255
176
     1
290
     0
176
     1
 90
       50
176
     1
 90
       50
176
     1
 90
       50
176
     1
290
     0
176
     1
 90
       50
176
     1
 62
   256
176
     0
 40
1.0
176
     0
 90
        2
176
     1
  1
strokes_ogs.tif
176
     1
290
     0
176
     1
 40
1.0
176
     1
 40
1.0
176
     1
  0
DICTIONARYVAR
  5
146
102
{ACAD_REACTORS
330
5E
102
}
330
5E
100
DictionaryVariables
280
     0
  1
1:1
  0
DICTIONARYVAR
  5
259
102
{ACAD_REACTORS
330
5E
102
}
330
5E
100
DictionaryVariables
280
     0
  1
3.500000
  0
DICTIONARYVAR
  5
25A
102
{ACAD_REACTORS
330
5E
102
}
330
5E
100
DictionaryVariables
280
     0
  1
acadiso.lin
  0
DICTIONARYVAR
  5
145
102
{ACAD_REACTORS
330
5E
102
}
330
5E
100
DictionaryVariables
280
     0
  1
STANDARD
  0
DICTIONARYVAR
  5
84
102
{ACAD_REACTORS
330
5E
102
}
330
5E
100
DictionaryVariables
280
     0
  1
STANDARD
  0
DICTIONARYVAR
  5
227
102
{ACAD_REACTORS
330
5E
102
}
330
5E
100
DictionaryVariables
280
     0
  1
Metric50
  0
DICTIONARYVAR
  5
228
102
{ACAD_REACTORS
330
5E
102
}
330
5E
100
DictionaryVariables
280
     0
  1
Metric50
  0
DICTIONARYVAR
  5
5F
102
{ACAD_REACTORS
330
5E
102
}
330
5E
100
DictionaryVariables
280
     0
  1
2
  0
DICTIONARYVAR
  5
63
102
{ACAD_REACTORS
330
5E
102
}
330
5E
100
DictionaryVariables
280
     0
  1
1
  0
DICTIONARYVAR
  5
1FFCA
102
{ACAD_REACTORS
330
5E
102
}
330
5E
100
DictionaryVariables
280
     0
  1
BYLAYER
  0
DICTIONARYVAR
  5
1FFC9
102
{ACAD_REACTORS
330
5E
102
}
330
5E
100
DictionaryVariables
280
     0
  1
ByLayer
  0
DICTIONARYVAR
  5
1AE
102
{ACAD_REACTORS
330
5E
102
}
330
5E
100
DictionaryVariables
280
     0
  1
0
  0
DICTIONARYVAR
  5
1AF
102
{ACAD_REACTORS
330
5E
102
}
330
5E
100
DictionaryVariables
280
     0
  1
0
  0
DICTIONARY
  5
341D9
102
{ACAD_REACTORS
330
341D8
102
}
330
341D8
100
AcDbDictionary
281
     1
  3
*A1
350
341DA
  0
DICTIONARY
  5
26BFC
102
{ACAD_REACTORS
330
26BFB
102
}
330
26BFB
100
AcDbDictionary
281
     1
  3
*A1
350
26BFD
  0
DICTIONARY
  5
205
330
22
100
AcDbDictionary
280
     1
281
     1
  0
DICTIONARY
  5
1F9
330
ED
100
AcDbDictionary
280
     1
281
     1
  3
FBXASSET
360
1FA
  0
DICTIONARY
  5
1F7
330
EC
100
AcDbDictionary
280
     1
281
     1
  3
FBXASSET
360
1F8
  0
DICTIONARY
  5
173
330
EE
100
AcDbDictionary
280
     1
281
     1
  3
BUMPTILE
360
175
  3
DIFFUSETILE
360
174
  3
FBXASSET
360
1FB
  3
OPACITYTILE
360
176
  3
REFLECTIONTILE
360
177
  0
DICTIONARY
  5
162
330
7F
100
AcDbDictionary
280
     1
281
     1
  3
ACAD_ROUNDTRIP_2008_TABLESTYLE_CELLSTYLEMAP
360
352BA
  0
ACDB_MTEXTATTRIBUTEOBJECTCONTEXTDATA_CLASS
  5
341DA
102
{ACAD_REACTORS
330
341D9
102
}
330
341D9
100
AcDbObjectContextData
 70
     4
290
     1
100
AcDbAnnotScaleObjectContextData
340
10D
 70
     1
 50
0.0
 10
-174.2939783091606
 20
-1370.346842114475
 11
-7.308985130443033
 21
-1320.346842114475
290
     0
  0
ACDB_MTEXTATTRIBUTEOBJECTCONTEXTDATA_CLASS
  5
26BFD
102
{ACAD_REACTORS
330
26BFC
102
}
330
26BFC
100
AcDbObjectContextData
 70
     4
290
     1
100
AcDbAnnotScaleObjectContextData
340
10D
 70
     1
 50
0.0
 10
25716.26883871929
 20
3138.257397605299
 11
25883.253831898
 21
3188.257397605299
290
     0
  0
XRECORD
  5
1FA
102
{ACAD_REACTORS
330
1F9
102
}
330
1F9
100
AcDbXrecord
280
     1
 70
     1
 90
429727718
  1
D62C5603-E3A1-4AEA-B7FB-FE5D8D0755AF
310
504B03040A0000080000CC70623B3DEE336E79000000790000001B0000006175746F6465736B2D64657369676E2D7061636B6167652E786D6C3C3F786D6C2076657273696F6E3D22312E302220656E636F64696E673D227574662D3822203F3E3C666F726D6174733E3C666F726D61743E687474703A2F2F736368656D612E
310
6175746F6465736B2E636F6D2F64657369676E2D7061636B6167652F323030393C2F666F726D61743E3C2F666F726D6174733E504B0304140006080800CC70623BD486FD9CA0000000F4000000130000005B436F6E74656E745F54797065735D2E786D6C7D8EC10E82300C865F65E91D8A1E8C310C0EEA1BF002731658846E
310
D98AC1B77784ABF1D8FE5FBFBF75BBCE937A534CCEB38643598122B6FEE978D0B0485F9C41B54DDD7D022595594E1A469170414C76A4D9A4D207E29CF43ECE46F218070CC6BECC4078ACAA135ACF422C856C0E68EA1BF5669944DDD7BCDE7B1F8E415D77AECB980613C2E4AC91FC167A2B244592486606FC29C8FD7F045B9A
310
EF7053A7E60B504B0304140006080800CC70623B853B8169EB0000007C01000008000000636F72652E786D6C8D90416EC3201045AF62CDB6C206821CC7C244919D9CA01740401C94182C03558F5F9C3852BBEB6A467FFE9B197D7EFC9E1EC5975982F5AE035262288C535E5B377690E21535501C055FBC8FBF6C503839990E
310
5619041F179FE64D52DE45E362569DD7661365082642A11EB9E920A89B99642953CC8E702F67A9EE7234257977194EC9EAE275C4EABCCF5EAD5940D4AC6F0E35A568B8F43562CD7046CD199FD07E60174276A7BE677B5EADB0E0D14EEFFB6A31321A0D82627C4084204C3F096B71DD52F6819B16635EADF63F509AF53FA164
310
5DDCD1EDDD17164090FCC8732078B56691CB33A85CD7DCC40F504B0304140006080800CC70623B55019EA25F0000007C00000007000000636E782E786D6C4DCB3B0E80201045D1AD90E915ED2CF8AC45050C11660C8261F98AB1B07AC9C97D42D718D865D3E909258CFD00CCE24AC6E326A164D74DC0B4128928FF32603847
310
2BA13128B1252AC747C6BAB984FC68F0B87FE8960A5C09FE86CFB69FBA01504B0304140006080800CC70623BDBABAAF470010000D40300000C0000006662782F636F72652E786D6CC553D16E823014FD95A6AF4B694182CC941A83FA05FB810A9511A125A5257EFE2E82712ECEB8A7F100CD39F7F69E734AF9FADC366850B6
310
AF8DCE7018308C942E4C59EB2AC3DE1D498AD15A706B8CFB56869196ADCAF00863C12B6B7C374385D14E6907A836A59A41D9F7CA615434B0C8705F7CAA5606D23BA8E84F41278B93AC54100640439DE0BDB320004D43C63716C7C399D30917DCFBBA9CD9BA8469F5B156168B24CED3F7248AC8769F27244EB73B92EED8862C
310
B7F13E0C179B3C8F979C8ECD82BBBABDAA2BAC924E9558448CBD9330242CFA08E3154B5651FCC6D215639C8EE5774DBE2B5F6CF2B5768B68963BB5F5588420E442FC700B1139D4CB01F450C1E918227C2E09DF070D8140C84E1E9AAB8F1340832A9CB13130A5F1376A908D57309505ECF2A0DF179C4E9D30F5B239B87E3823
310
7A79C6F31DE1A8A5AEC08474B03C7837EAE4938639B44E5932B833D2C6B6B279CDC613877FA26EE21F4A2A4C63EC7F29A2F301D1F9F7A0E37D145F504B0304140006080800CC70623B9C113CC27E0000009D0000000B0000006662782F636E782E786D6C4DCCDF0A83201C86E15B91DFB94BFB330DD428C8FB886521330DA7
310
6397BF1A1DECE883878F57749FCDA1B7892F1BBC047A23808C7F84D9FA55424E0BE6803A256208E9EF06C84F9B91703228B1C690F78B66B34CD9A5439DF5CF0BFBF65E35BCA1B8D6A5C6F540381E886698B5741C695F9503EBA150A2F8958E3DC3EA0B504B0304140006080800CC70623B7DF2F77C2A010000120200003100
310
00006662782F41393633353835312D344632462D344230382D423046372D3739314545314133324237412F636F72652E786D6C8D51DB8EC22014FC15C2939B0D2DB4B45643319AE817EC0F6041255A68B86CFCFC856D4D76DF7CE190393373060EDB3DC707F856CE6B6B7A480A0C81328395DA5C7B18C3057510EC3873D686
310
3F34088C18550F330C39BB3A1BA7051AAC09CA84841A2BD5020AEF55806078A44B0FFD7053A328440C89E1EFC52486BBB8AA8214A99D789CF9E05200300FC927E4FB4D5B375D43103D5527440FB843077C5AA3F5861C8F645F5787F59E95B390B318B55CE45AA638FAA2957BD7248B390B7A7CC51F9C124149C82B8C378810
310
84AB2F42B7B8DD56F413775B8C5999E9FF4471926F8AA236A1AE96B8B3CC434E5839373893369E1FAF30EA395917409EB7F26AF8801C171837A4A6AC9C89E9F9C9B1A58BA30FD6A5EF5DDDCF894B9AD9B6A59C957943A9FCAE2FD5BC4DFE03504B0304140006080800CC70623BAD7543B64E01000033030000300000006662
310
782F41393633353835312D344632462D344230382D423046372D3739314545314133324237412F636E782E786D6CD593CD6EC32010845F0571AD6CE3D48AD20813A9873E410FBD12D82434182C7EAAE6EDBB2424CD25871E7B41D6EC30B3FA84F9E67BB2E40B4234DE8DB46F1925E094D7C6ED479AD3AE5951B2113C789FEE
310
6C943839C1488B4C05DF079FE72A69D8C96C13AAD6B8631503449F83828872B949AC57D26200B826A308D316B4064D6E46FCDA41C05550DC9E483A00797BFD207EFB092A45DE9514C1BBD22178396BD39D891265658C238DEA00936C654E5E433CB65A26D9F6EDB5EBC14EBF49A45CB856E66048291F6939A9A81BB5C89177
310
38143CA680F4AA299D66A042CEB3354A2684DC9D8D178FE0D9B8B41CAAD720F880EE7EF93C0C18769E099ECC04D5A102C8049A8A05632F4DDF376CF1DE0F6BB65C2F8627B65A33C6BB62177CEBBDAD973006829F89F22E814B54F4BC2BE347F8AA8F681390B50FA73F804400B5F542E796F19FF974E7F78DB802FE05E20750
310
4B0304140006080800CC70623BE75B7789680500003C100000340000006662782F41393633353835312D344632462D344230382D423046372D3739314545314133324237412F6F626A656374732E786D6CAD575B8F9B3818FD2B887D06C22499CB8AA1CA655245D5B455A356FB305264C061D8018C6C3393D95FBFC7600890
310
A4CD5EF210B0B1BFEBF98E3F7B1FF6596ABC522E1296DF9BAE3D320D9A872C4AF2F8DE2CE5CEBA358D0FBEC719939D65A691938CDE9B6ADAF4BD98B3B2D05311DD91329583D9D5FC0F438434A7A611A644887B5384CF34233629258BA878B12322891DEFF6B66BD70BFB62634E8AE781D082709A4B588AF91C528CDA28B73F
310
1C998EEF39EABBEFA97FBD6A7C7E9553F9D3D79FE442923C3C523610337627CB87ABE99D359D4CC6D6E4FACAB5E6ABF9D2726FC6A3C5F56271377BB88362213924694B38DD99FE47C48627A1E7D49F5A8BB5E1A74C0A599ED3B0F21F1E56366B89112D681E218F0915D0D6F17AD41FBA2A369DCF6335D62ABBD39779D5DDD1
310
11D4D8DE3CBB96B2E04FB8202E41051754A1AA8E8F76B4C6DFE810B580B1547F4B84911149794252234D024EF8BBE963A95AE27B3D310A9D5C215C7960FAEE415ED75694C6AFB17BCACA5D99A60A9AA65F217B0BFC53292ACB92BF283FAD0D3621576592CB5BED907C2FA8E9DF794E35E97BEA31BED21FEB401ABB94C44839
310
DCACBF0E1C5DA8DA5B2F4DFFD32AD86F543D9E565E7056502E157C00AD2671CD534549AB752FCA9CDA00677A313F04E51B22FF19E57B300579E3C97EB29F682D92935CEC18CF901B7B54FD8C51F362B56FC72FE0B3C1EAE335EDCCBF5AEC39ADB17DC238973F804BA5E6F6BFE7AF1FB32E523BE9F3BD571418E3631DCA4D48
310
5250CF639223210A9446CA30052EDF057BD35F8329C1ECD84552BF0DC8D18BE7BCE23BFE6BD960AB4A7DE79923A103BEBD80F911CBAA2C60DB19B01CF164A5583B772EE6D3FFA56666CBCDA74DC97724A48F9A58967497E489C4D979006FD7A05E227A1EBDD0F737C623387A9C844D3709995625106D157315F8B8392CD4E0
310
A0B9A720C4BE9829CEF37EA1E13111214D53925356365ADA634861B52519DD27A00AEB808EAF0628E6F435519D446F45CF2C9CF5214F0A15B2F6D06B79DA3EE3CBF7F56780D2F4E7EF73A0F5E5B02A38D07DC852C6B7C1FBB6664213E0C39E3EBA7FF4E1AD23EA2829407C85E586727488B751B2DB9502BC7B228A3FD68B6E
310
A65A22397E690AA8D158D7E404EC8CDA235CC3B7D1898680131CEC2CDF2638C65196279577750F15884AEE19F94199155B92B13297978469D4F8D358DF0AEF7631E28DC8F0D9F437D5D39A83B2231A1D52D543813A824EF8D44BCFF2FA6A31BD1E8DAD87F1CCB526B3879935BF59CDADD5C37479BB1CDD4CA7B3556B516589
310
EF352754B706114D9C885EC9131DE6EFEB43D99AFE2391C2F958179413D7CFEF6B1B6DB1E7600F00DE6E5C67454A339A4BA2E0FBA85ED26F045D454F463DBFCE484C2F90F2E5E3666003662ED8F755951A7D1BECD5B30B550B2785C8E7320B7292A4838DDA71BBC863ED7613CAF659337A3354231D4FF4A182A54904C2898C
310
98B28C4AD0CE056CCF332A80986E571EE9DBC305BB5FEB7E509220A58D25CF042D712A806AC0AD0C657FDEF80D2D9CEAA2EE4D1C76F60BFE74219A06527D6F82DF6412526107381E55E353090704D085B52408A8913C4ED159D79BDA71BB4BC506F4831350EB6F975CD22D69BF7AC49B91A2C0A9DDA3D5CA36AD20FC478E37
310
E61844E2352865EBCB61A275A65283CAAA9DD27703B4102F5AF51EF5F573B75CBB5AD38BC845F7A49F82A0966A49C2E3EA5EA0ECD326CD965F1DB402C6FA8B51A4658C5C5E2EC9E214602E55810345408596591009A82E7E7FFACA19EEA299B14A0081A705CB3296EBC14CDF658DCD336EA6D1136881AAEB87B81AB9EE53D5
310
F5EB8BC8362082DA24122F98680A4E7930C01A0079749CEA14382A0783E5EBA5A10F8C098456A03D6A4AEB6BB881E2513747552A5DB22C7EDAF83BD5528081A365F7FF06504B0304140006080000CC70623B000000000000000000000000350000006662782F41393633353835312D344632462D344230382D423046372D37
310
39314545314133324237412F76657274696365732E62696E504B0304140006080800CC70623BF270F1330600000004000000360000006662782F41393633353835312D344632462D344230382D423046372D3739314545314133324237412F747269616E676C65732E62696E636660600000504B0304140006080000CC7062
310
3B000000000000000000000000370000006662782F41393633353835312D344632462D344230382D423046372D3739314545314133324237412F617474726962757465732E62696E504B0304140006080800CC70623B08DA0BD19000000041010000360000006662782F41393633353835312D344632462D344230382D4230
310
46372D3739314545314133324237412F6469726563746F72792E786D6C858F410AC3201045AF22B36F53E9A60B35CBEEBAE80D244E44489C6234F4F835464A48035D0DF398FF9F8AF63D0E6CC63039F212F8F9020C7D47C6792B21C5FE7403D62A1188E2E60C98D7234A5830286103A55745067B9D86B8A3CF9C7F90C11DE6
310
07FB144396D7B6A82D282E9A152AD114D5EF2CB866EEE831B8EEA07A7BB5A8D7D61A2BAAEB7FD5F70921FF497D00504B0304140006080800CC70623BEDD1DC58FD000000A00100003B0000006662782F41393633353835312D344632462D344230382D423046372D3739314545314133324237412F7265736F75726365732F
310
636F72652E786D6C8D504B6E833010BD0A9A6D65B00922041947112427E8052C33A156828DFCA97AFC9A40A576D7CDCCE87D344F8F9FBFE667F689CE6B6B3A6039850C8DB2A336530731DC4903D95970676DF82583CCC8193B5861107C72362E3BA4AC096842428D1D7107A5F7182053CF7474E0D507CE32973124857FE48B
310
540F3961CEF244279DE03EB81420DB9EAC1384436FA353E879B1B182C7A8C75DA3C7F453DF353A1075D537A7BA6464B8F535A99AE14A9A2BBD90E350DD183B5CFABE3AF262350B1EF4FC9351399401471025A527C218A1E53BAB5A5AB765F5469B96525EACF23FA6B88CFF34456DC2A1DCE36E360F82A5202F42F062ED2BAD
310
579969AFDD8A6F504B010214000A0000080000CC70623B3DEE336E79000000790000001B00000000000000000000000000000000006175746F6465736B2D64657369676E2D7061636B6167652E786D6C504B01021400140006080800CC70623BD486FD9CA0000000F40000001300000000000000000000000000B20000005B
310
436F6E74656E745F54797065735D2E786D6C504B01021400140006080800CC70623B853B8169EB0000007C010000080000000000000000000000000083010000636F72652E786D6C504B01021400140006080800CC70623B55019EA25F0000007C000000070000000000000000000000000094020000636E782E786D6C504B
310
01021400140006080800CC70623BDBABAAF470010000D40300000C00000000000000000000000000180300006662782F636F72652E786D6C504B01021400140006080800CC70623B9C113CC27E0000009D0000000B00000000000000000000000000B20400006662782F636E782E786D6C504B01021400140006080800CC70
310
623B7DF2F77C2A010000120200003100000000000000000000000000590500006662782F41393633353835312D344632462D344230382D423046372D3739314545314133324237412F636F72652E786D6C504B01021400140006080800CC70623BAD7543B64E010000330300003000000000000000000000000000D2060000
310
6662782F41393633353835312D344632462D344230382D423046372D3739314545314133324237412F636E782E786D6C504B01021400140006080800CC70623BE75B7789680500003C10000034000000000000000000000000006E0800006662782F41393633353835312D344632462D344230382D423046372D3739314545
310
314133324237412F6F626A656374732E786D6C504B01021400140006080000CC70623B0000000000000000000000003500000000000000000000000000280E00006662782F41393633353835312D344632462D344230382D423046372D3739314545314133324237412F76657274696365732E62696E504B01021400140006
310
080800CC70623BF270F133060000000400000036000000000000000000000000007B0E00006662782F41393633353835312D344632462D344230382D423046372D3739314545314133324237412F747269616E676C65732E62696E504B01021400140006080000CC70623B0000000000000000000000003700000000000000
310
000000000000D50E00006662782F41393633353835312D344632462D344230382D423046372D3739314545314133324237412F617474726962757465732E62696E504B01021400140006080800CC70623B08DA0BD1900000004101000036000000000000000000000000002A0F00006662782F41393633353835312D344632
310
462D344230382D423046372D3739314545314133324237412F6469726563746F72792E786D6C504B01021400140006080800CC70623BEDD1DC58FD000000A00100003B000000000000000000000000000E1000006662782F41393633353835312D344632462D344230382D423046372D3739314545314133324237412F7265
310
736F75726365732F636F72652E786D6C504B0506000000000E000E0080040000641100000000
  0
XRECORD
  5
1F8
102
{ACAD_REACTORS
330
1F7
102
}
330
1F7
100
AcDbXrecord
280
     1
 70
     1
 90
429727718
  1
30362254-06B7-45E0-A893-8CFA70E3D6BC
310
504B03040A0000080000CC70623B3DEE336E79000000790000001B0000006175746F6465736B2D64657369676E2D7061636B6167652E786D6C3C3F786D6C2076657273696F6E3D22312E302220656E636F64696E673D227574662D3822203F3E3C666F726D6174733E3C666F726D61743E687474703A2F2F736368656D612E
310
6175746F6465736B2E636F6D2F64657369676E2D7061636B6167652F323030393C2F666F726D61743E3C2F666F726D6174733E504B0304140006080800CC70623BD486FD9CA0000000F4000000130000005B436F6E74656E745F54797065735D2E786D6C7D8EC10E82300C865F65E91D8A1E8C310C0EEA1BF002731658846E
310
D98AC1B77784ABF1D8FE5FBFBF75BBCE937A534CCEB38643598122B6FEE978D0B0485F9C41B54DDD7D022595594E1A469170414C76A4D9A4D207E29CF43ECE46F218070CC6BECC4078ACAA135ACF422C856C0E68EA1BF5669944DDD7BCDE7B1F8E415D77AECB980613C2E4AC91FC167A2B244592486606FC29C8FD7F045B9A
310
EF7053A7E60B504B0304140006080800CC70623B1EC5D7A3EB0000007C01000008000000636F72652E786D6C8D90416EC3201045AF82665B6103C6756C6122AB4D4ED00B204C5C94182C03558F5F9C3852BBEB6A467FFE9B197D71FC9E6FE8CBACC17AD7032D0820E3B41FAD9B7A48F1820F808E52ACDEC75F36404ECDA687
310
4D0629A6D5A76597B477D1B89855E747B38B2A041301E95B6E7A08FAD3CCAA50296647B8168BD2573599823EBB0CA76447F43862C7BCCF5EAC59410E4DDD9C7973C2755553CCCFA4C603E3040F1565ED3B1FDE4E432BCA0D9622DAF9795FAF464533826484B498524CD807E51D79ED187F21878E10516EF63F505AC67F42C9
310
BA58B1FDDD071640D2FCC87D2045B96591CB3DA85CB7DCE40F504B0304140006080800CC70623B55019EA25F0000007C00000007000000636E782E786D6C4DCB3B0E80201045D1AD90E915ED2CF8AC45050C11660C8261F98AB1B07AC9C97D42D718D865D3E909258CFD00CCE24AC6E326A164D74DC0B4128928FF32603847
310
2BA13128B1252AC747C6BAB984FC68F0B87FE8960A5C09FE86CFB69FBA01504B0304140006080800CC70623B8C9102E971010000D40300000C0000006662782F636F72652E786D6CC5535B6E833010BC8AE5DF0A6C08340F1947A84D4ED00B38C6A128602363A31CBFCB234A53A551FA553EC09AD9F5CE8C31DB9E9B1AF5CA
310
7695D1198E428A91D2D214952E33ECDD315861B4E5CC1AE3BE9561A445A3323CC098B3D21ADFCE9034DA29ED00D5A6503328BA4E398C640D8B0C77F253352214DE4145770A5B214FA2546114020D759C75CE8200340D19DE981F0F6746269C33EFAB6266AB02A655C74A59CCF365BADC27CB5D902ED22848F6340DF238A141
310
BE88E2F57B92BFEDF23523433367AE6A2EEAA455C2A902F398D2751045018D3FA264435F3771F242571B4A1919CA6F9A7C5B3CD9E42BED16F12C776AEB308F40C848FC700B1139D4891EF410CEC810227CC6846F8386402064270EF5C5C709A05E49676C024C61FC95EA45ED154CA5211D1FF4FB8291A913A68E9B83EBBB33
310
E2A7673CDE118E5AE8124C0807CB8377834E366998436B950D7A7746DAD846D4CFD978E0F04FD455FC5D49D2D4C6FE9722321F10997F0F32DC47FE05504B0304140006080800CC70623BFFEA85907E0000009D0000000B0000006662782F636E782E786D6C4DCCD10A83201886E15B91FFDC95D95A811AB6F23E625948A6C3
310
E9D8E5AF46073BFAE0E1E365ED67B3E8ADC3CB78C7815C7240DA3DFC64DCC221C519D7805AC182F7F1EF06C88D9BE6703008B6049F9E274D7A1E938DBB5AE3D6131B2589BA0D3D965551E0B2EA732C9B9A624AAEB41E3A557677029960D9AFB4EF11165F504B0304140006080800CC70623B4FEEA4082C0100001202000031
310
0000006662782F39464131463745442D413632322D343644302D413938332D3331353338454246344243312F636F72652E786D6C8D515B6EC32010BC0AE2AB55850DD871ED0813254D72825EC00192A2C460F1A872FC42ED48ED5F7E00CDCECCCEB26C731F6FE05B39AFADE921293004CA082BB5B9F43086336A21D870E6AC
310
0D7F68109861543DCC30E4ECE26C9C164858139409093556AA051CBC570102714B8F1E7AF1A5C6A11862480C7F2DA6415C878B2A4891CA89C7990F2E050073937C42DE1DB7E4F87ED8A36D4329AA9B3D46DBAEAD504556557BD81DEBDD0761E52CE42C462D17B996298E3E6BE59E35C962CE821E1FF18553435012728A7187
310
0841987E927A8D9B35ADDF70BBC6989599FE4F1427F9A4286A132ABAC49D651EF234CD5CE04CDA78BA3DC2A8FB645D00B9DF8B57E215725C60BCA2A463E54C4CE327C7A65E1C7DB02E7DEFCBF594B864C5CA6CDBD49C957943E9FA5D5FBAF336F90F504B0304140006080800CC70623BAD7543B64E01000033030000300000
310
006662782F39464131463745442D413632322D343644302D413938332D3331353338454246344243312F636E782E786D6CD593CD6EC32010845F0571AD6CE3D48AD20813A9873E410FBD12D82434182C7EAAE6EDBB2424CD25871E7B41D6EC30B3FA84F9E67BB2E40B4234DE8DB46F1925E094D7C6ED479AD3AE5951B2113C
310
789FEE6C943839C1488B4C05DF079FE72A69D8C96C13AAD6B8631503449F83828872B949AC57D26200B826A308D316B4064D6E46FCDA41C05550DC9E483A00797BFD207EFB092A45DE9514C1BBD22178396BD39D891265658C238DEA00936C654E5E433CB65A26D9F6EDB5EBC14EBF49A45CB856E66048291F6939A9A81BB5
310
C8917738143CA680F4AA299D66A042CEB3354A2684DC9D8D178FE0D9B8B41CAAD720F880EE7EF93C0C18769E099ECC04D5A102C8049A8A05632F4DDF376CF1DE0F6BB65C2F8627B65A33C6BB62177CEBBDAD973006829F89F22E814B54F4BC2BE347F8AA8F681390B50FA73F804400B5F542E796F19FF974E7F78DB802FE05
310
E207504B0304140006080800CC70623B16AB87BA640500003C100000340000006662782F39464131463745442D413632322D343644302D413938332D3331353338454246344243312F6F626A656374732E786D6CAD575B6FA33818FD2B887DE6924B3BED8A326A92B68A663B534DD4D13E548A0C38942D60649B369D5FBFC7
310
600890A493BDE42160637FD7F31D7FF63E6FB3D478A55C242CBF3247B66B1A340F5994E4F19559CA8D75611A9F7D8F33263BCB4C232719BD32D5B4E97B316765A1A722BA21652A07B3B7B33F0D11D29C9A46981221AE4C113ED38CD8A4942CA2E2C58E882476BCD9DA23BB5ED8171B73523C0F841684D35CC252CCE79062D4
310
468DFA43D7747CCF51DF7D4FFDEB5593E3AB9CCA9FBEFE241792E4E19EB28198C968BAB8199F5D5A67D3E9C49A9E8F47D6EC76B6B0469F26EEFC7C3EBFBCBEB98462213924694B38DD98FE1D62C393D073EA4FADC5DAF04326852CCF6958F90F0F2B9BB5C48816348F90C7840A68EB78EDF68723159BCEE7891A6B95DDE9D3
310
BCEAEEE8086A6C6F9E5D4B59F0175C10A7A0820BAA5055C7473B5AE3CFDD452D602CD5DF12616444529E90D448938013FE6EFA58AA96F85E4F8C42275708571E98FE6827AF6B2B4AE3D7D83D64E5A64C53054DD3AF90BD06FEA9149565C94FCA0F6B834DC85599E4F2423B24DF0B6AFA979E534DFA9E7A4CC6FA631D486393
310
921829879BF5D781A373557BCB85E97FB90DB62B558F8795179C15944B051F40AB495CF35451D26A4727654E6D8033BD98EF82F21D91FF8AF2DD9982BCF1643BDD4EB516C9492E368C67C88DED563FC36D5EACF66DFF057C3658BDBFA69DF9578B3DA735B64F18C7F20770A9D45CFCF7FCF563D6456A277DBEF78A02637CA2
310
43B90A490AEAB94F72244481D24819A6C0E59B606BFA4B3025981DBB48EAB701D97BF19C577CC77F2D1B6C55A9EF3C732474C0B727303F625995056C3B02963D9EAC146BE78EC5FCEC7FA999EBC5EACBAAE41B12D27B4D2C0BBA49F244E2ECDC81B76B502F113D8F5EE8FB1BE3111CDD4FC2AA9B844CAB1288B68AB90A7CDC
310
1C166AB0D3DC5310625FCC14E779BFD0709F8890A629C9292B1B2DED31A4B0DA928CEE135085754027E3018A397D4D5427D15BD1330B677DC8934285AC3DF45A9EB68FF8F2B8FC0A509AFEECFD0FF2DE25CC6047F7214B195F07EFEB9A094D800F7BFAE8FED187B78EA8A3A400F115961BCAD1215E47C966530AF0EE8128FE
310
58CEBB996A8964FFA529A046635D9353B0336A8F700DDF46271A024E70B0B37C9DE01847591E54DED53D54202AB947E4076556AC49C6CA5C9E1226B7F1A7B1BE15DEED62C41B91E1B3E9AFAAA735036547343A925075041DF0A9979E893B391F8FCFA6967B3EFB644DCF6E5CEBFAE272625DCC6FAF3FB93793C5F90CE1EF57
310
407342756B10D1C489E8953CD1617E5CEECAD6F4EF8914CE5D5D504E5C3F1F9736DA62CFC11E00BCDDB8CC8A9466349744C1F75EBDA4DF09BA8A9E8C7A7E9991989E20E5DBDD6A6003664ED8F7A04A8DBE0DF6EAD9B9AA858342E47399053949D2C146EDB85DE4B176BB0965FBAC19BD19AA918E27FA50C1D22402E144464C
310
59462568E704B6E71915404CB72B8FF4EDE184DDAF753F284990D2C6926782963815403548A70C657FDEF80D2D9CEAA2AE4C1C76F60BFE74219A06527D6582DF6412526107381E55E353090704D085B52408D0933C4ED159D79BDA71BB4BC506F4831350EB6F979CD22D69BF7AC49B91A2C0A9DDA3D5CA36AD20FC478E37E6
310
1844E2352865EBCB6EA275A652E3836BE04EFB400BF1A2556F515F1FBB35B2AB35BD889C744FFA1004B5544B121E57F70215746DD2F5E2C1412B602CBF19455AC6C8E5E9922C4E01E65215385004546899059180EAFCF7A707CE7017CD8CDB0410789AB32C63B91E5CEBBBACB17AC6CD347A022D5075FD106377347AAABA7E
310
7D11590744509B44E205134DC1290F06580320F78E537D3D73540E06CB970B431F185308AD40BBD794D6D77003C5A36E8EAA54BA64597CD8F83BD552A080A365F7FF06504B0304140006080000CC70623B000000000000000000000000350000006662782F39464131463745442D413632322D343644302D413938332D3331
310
353338454246344243312F76657274696365732E62696E504B0304140006080800CC70623BF270F1330600000004000000360000006662782F39464131463745442D413632322D343644302D413938332D3331353338454246344243312F747269616E676C65732E62696E636660600000504B0304140006080000CC70623B
310
000000000000000000000000370000006662782F39464131463745442D413632322D343644302D413938332D3331353338454246344243312F617474726962757465732E62696E504B0304140006080800CC70623B08DA0BD19000000041010000360000006662782F39464131463745442D413632322D343644302D413938
310
332D3331353338454246344243312F6469726563746F72792E786D6C858F410AC3201045AF22B36F53E9A60B35CBEEBAE80D244E44489C6234F4F835464A48035D0DF398FF9F8AF63D0E6CC63039F212F8F9020C7D47C6792B21C5FE7403D62A1188E2E60C98D7234A5830286103A55745067B9D86B8A3CF9C7F90C11DE607
310
FB144396D7B6A82D282E9A152AD114D5EF2CB866EEE831B8EEA07A7BB5A8D7D61A2BAAEB7FD5F70921FF497D00504B0304140006080800CC70623B0D6EF93BFE000000A00100003B0000006662782F39464131463745442D413632322D343644302D413938332D3331353338454246344243312F7265736F75726365732F63
310
6F72652E786D6C8D50596E833010BD0A9ADFCA60B334011947A8694ED00B586642AC041B79A97AFC9A40A5F6AF3F33A3B7689E1E3F7DCD8FEC139DD7D6F4C0720A191A65476DA61E62B892236427C19DB5E1970C322367EC618541F0C9D9B8EC90B226A009093576C41D94DE63804C3DD2D18357379C652E63480A7FCF17A9
310
EE72C29CE5894E3AC17D702940B63D59270887DE46A7D0F36263058F518FBB468FE9A7BE6A7420864373B8D4873369AA8691FA421B3294352543C5CAF65C0F6FEF43CB8BD52C78D0F34F46E550061C419494B6843142CB0F5677F4B52BEB177AEC28E5C52AFF638ACBF84F53D42654E51E77B379102C05791282176B5F693D
310
CB4C7BED567C03504B010214000A0000080000CC70623B3DEE336E79000000790000001B00000000000000000000000000000000006175746F6465736B2D64657369676E2D7061636B6167652E786D6C504B01021400140006080800CC70623BD486FD9CA0000000F40000001300000000000000000000000000B20000005B
310
436F6E74656E745F54797065735D2E786D6C504B01021400140006080800CC70623B1EC5D7A3EB0000007C010000080000000000000000000000000083010000636F72652E786D6C504B01021400140006080800CC70623B55019EA25F0000007C000000070000000000000000000000000094020000636E782E786D6C504B
310
01021400140006080800CC70623B8C9102E971010000D40300000C00000000000000000000000000180300006662782F636F72652E786D6C504B01021400140006080800CC70623BFFEA85907E0000009D0000000B00000000000000000000000000B30400006662782F636E782E786D6C504B01021400140006080800CC70
310
623B4FEEA4082C0100001202000031000000000000000000000000005A0500006662782F39464131463745442D413632322D343644302D413938332D3331353338454246344243312F636F72652E786D6C504B01021400140006080800CC70623BAD7543B64E010000330300003000000000000000000000000000D5060000
310
6662782F39464131463745442D413632322D343644302D413938332D3331353338454246344243312F636E782E786D6C504B01021400140006080800CC70623B16AB87BA640500003C1000003400000000000000000000000000710800006662782F39464131463745442D413632322D343644302D413938332D3331353338
310
454246344243312F6F626A656374732E786D6C504B01021400140006080000CC70623B0000000000000000000000003500000000000000000000000000270E00006662782F39464131463745442D413632322D343644302D413938332D3331353338454246344243312F76657274696365732E62696E504B01021400140006
310
080800CC70623BF270F133060000000400000036000000000000000000000000007A0E00006662782F39464131463745442D413632322D343644302D413938332D3331353338454246344243312F747269616E676C65732E62696E504B01021400140006080000CC70623B0000000000000000000000003700000000000000
310
000000000000D40E00006662782F39464131463745442D413632322D343644302D413938332D3331353338454246344243312F617474726962757465732E62696E504B01021400140006080800CC70623B08DA0BD190000000410100003600000000000000000000000000290F00006662782F39464131463745442D413632
310
322D343644302D413938332D3331353338454246344243312F6469726563746F72792E786D6C504B01021400140006080800CC70623B0D6EF93BFE000000A00100003B000000000000000000000000000D1000006662782F39464131463745442D413632322D343644302D413938332D3331353338454246344243312F7265
310
736F75726365732F636F72652E786D6C504B0506000000000E000E0080040000641100000000
  0
XRECORD
  5
175
102
{ACAD_REACTORS
330
173
102
}
330
173
100
AcDbXrecord
280
     1
270
     1
271
     1
  0
XRECORD
  5
174
102
{ACAD_REACTORS
330
173
102
}
330
173
100
AcDbXrecord
280
     1
270
     1
271
     1
  0
XRECORD
  5
1FB
102
{ACAD_REACTORS
330
173
102
}
330
173
100
AcDbXrecord
280
     1
 70
     0
 90
1673772943
  1
ECE7A1D2-D628-4531-984C-D00F80459256
310
504B03040A0000080000CC70623B3DEE336E79000000790000001B0000006175746F6465736B2D64657369676E2D7061636B6167652E786D6C3C3F786D6C2076657273696F6E3D22312E302220656E636F64696E673D227574662D3822203F3E3C666F726D6174733E3C666F726D61743E687474703A2F2F736368656D612E
310
6175746F6465736B2E636F6D2F64657369676E2D7061636B6167652F323030393C2F666F726D61743E3C2F666F726D6174733E504B0304140006080800CC70623BD486FD9CA0000000F4000000130000005B436F6E74656E745F54797065735D2E786D6C7D8EC10E82300C865F65E91D8A1E8C310C0EEA1BF002731658846E
310
D98AC1B77784ABF1D8FE5FBFBF75BBCE937A534CCEB38643598122B6FEE978D0B0485F9C41B54DDD7D022595594E1A469170414C76A4D9A4D207E29CF43ECE46F218070CC6BECC4078ACAA135ACF422C856C0E68EA1BF5669944DDD7BCDE7B1F8E415D77AECB980613C2E4AC91FC167A2B244592486606FC29C8FD7F045B9A
310
EF7053A7E60B504B0304140006080800CC70623BD9DDAED0EC0000007C01000008000000636F72652E786D6C8D90416EC3201045AF82665B61836D9CD8C2444DD39CA01740405C94182C03558F5F9C3852BBEB6A467FFE9B197D7EF89E6EE8CB2CC17A37002D0820E394D7D68D03A478C17B4007C117EFE32F1B20272733C0
310
2A83E0E3E2D3BC49CABB685CCCAAF3DA6CA20CC14440EA969B0182FA34932C648AD911AEC52CD5558EA6A0CF2EC329598D1E47ACCEFBECC59A050463A7EA5833865FEBDD0E37353BE3EE8DBDE3F6786A48D375FBF6CC78B9C282473B3DEFABC5C86834888A900E538A49F5419B9EB47DD5BC907D4F082F57FB1F28CDFA9F50
310
B22ED6D5F6EE030B20687EE43E10BC5CB3C8E51E54AE6B6EE207504B0304140006080800CC70623B55019EA25F0000007C00000007000000636E782E786D6C4DCB3B0E80201045D1AD90E915ED2CF8AC45050C11660C8261F98AB1B07AC9C97D42D718D865D3E909258CFD00CCE24AC6E326A164D74DC0B4128928FF326038
310
472BA13128B1252AC747C6BAB984FC68F0B87FE8960A5C09FE86CFB69FBA01504B0304140006080800CC70623BA24EB22D72010000D40300000C0000006662782F636F72652E786D6CC5535B6E833010BC8AE5DF0A6C5E49888CA3A6694ED00B38E05014B091B1518EDFE511A5A9D228FD2A1F60CDEC7A67C6986DCE4D8D7A
310
69BA4AAB0C073EC548AA5C17952A33ECECD15B61B4E1CC686DBF9561A44423333CC098B3D268D7CE50AE9595CA02AA74216750749DB418E5352C32DCE59FB211BE70162ABA93DF8AFC244AE9073ED050C759670D0840D390E18DF9F1706664C23973AE2A66B62A605A75ACA4C13C4976E1364A12EF355A2EBD384AF65EFA96
310
BC7B8BED2EA6719AAE16FB8491A199335B351775B991C2CA02F390D2D40B028F861F41BCA68B7518BFD0D59A524686F29B26D7164F36B94AD9289CE54E6D1DE6010819891F6E21228B3AD1831EC219194284CF98F06DD01008846CC5A1BEF83801D4CBDC6A1303536877A57A513B0953A94FC707FDBE6064EA84A9E3E6E0FA
310
EE8CF0E9198F7784A316AA0413C2C2F2E0ECA0934D1AE6D05A69BCDE9E91D2A611F573361E38FC1375157F5752AE6B6DFE4B11990F88CCBF0719EE23FF02504B0304140006080800CC70623B408A7D3B7C0000009D0000000B0000006662782F636E782E786D6C4DCCD10A83201886E15B91FFDC552A92A0064DBC8F581632
310
D3703A76F9ABD1C18E3E78F878E5F0D9027ABBFCF2292AE86E2D20171F69F6715550CB827B40839639A5F2770314A7CD293819B45C73AAFB45B35BA61ACAA1C1C7E7855C58C15BC331339661262CC762340413D68D77DA5B42298546CBE6573AF60CEB2F504B0304140006080800CC70623B449FB9BD290100001202000031
310
0000006662782F36394639363044362D344446342D343946362D394244322D3234314243333846323333332F636F72652E786D6C8D515B6EC32010BC0AE22B55850D98B871848994463E412FE002495162B07854397EA176A4F62F3F2C9A9D991D587EB84F37F0AD7D30CEF6905418026DA553C65E7A98E219ED203808EE9D
310
8B7F6810D871D23D2C3014FCE25D9A57483A1BB58D19B54EE9151C43D0110279CB971E06F9A5A7B11A53CC8C70ADE6515EC78BAE4895DB992778883E0700CB907242D17643D7E2538BD869608875438BBAE38922CAC8F1BDD90DB4691A5E2F42C153326A951B95E398B3D1FE599322163C9AE9115F7A3D46ADA0A018778810
310
84E907617BDCEE297BC5BB3DC6BC2EF47FA234AB2745C9D8D8D035EE220B50105E2F0DC1954B9FB747187D9F9D8FA0CCDB042D5FA0C015C65B42DF78BD10F3F3B363CB56C7109DCFDFBBB97E662ED92EB62D13BC2E1BCAE5777DB9966D8A1F504B0304140006080800CC70623BAD7543B64E01000033030000300000006662
310
782F36394639363044362D344446342D343946362D394244322D3234314243333846323333332F636E782E786D6CD593CD6EC32010845F0571AD6CE3D48AD20813A9873E410FBD12D82434182C7EAAE6EDBB2424CD25871E7B41D6EC30B3FA84F9E67BB2E40B4234DE8DB46F1925E094D7C6ED479AD3AE5951B2113C789FEE
310
6C943839C1488B4C05DF079FE72A69D8C96C13AAD6B8631503449F83828872B949AC57D26200B826A308D316B4064D6E46FCDA41C05550DC9E483A00797BFD207EFB092A45DE9514C1BBD22178396BD39D891265658C238DEA00936C654E5E433CB65A26D9F6EDB5EBC14EBF49A45CB856E66048291F6939A9A81BB5C89177
310
38143CA680F4AA299D66A042CEB3354A2684DC9D8D178FE0D9B8B41CAAD720F880EE7EF93C0C18769E099ECC04D5A102C8049A8A05632F4DDF376CF1DE0F6BB65C2F8627B65A33C6BB62177CEBBDAD973006829F89F22E814B54F4BC2BE347F8AA8F681390B50FA73F804400B5F542E796F19FF974E7F78DB802FE05E20750
310
4B0304140006080800CC70623B8D05915C650500003B100000340000006662782F36394639363044362D344446342D343946362D394244322D3234314243333846323333332F6F626A656374732E786D6CAD575B6FA33814FE2B887D06429276DA1565D4266D158D3A339A6846FB502932E050B66023DB74D2FDF5FB190C01
310
9276B2973C046C8ECFF53B17071F77456EBD502133CEAE6CDF9DD81665314F32965ED995DA3A17B6F5310C04E7AA47665B8C14F4CAD6DB7618A48257A5D94AE89654B91AEDDEDDFC61C998326A5B714EA4BCB265FC440BE2924AF184CA6737218AB8E976E7FA6E4338649B0A523E8D98964450A6A029F619B8588D52FE7039
310
B1BD30F0F4F730D0FF866AF6369557DB33949F31A9088B0F848DD8CCFCF9F2767A76E99CCDE733677E3EF59D9BBB9BA5E37F984D16E78BC5E5F5ED25044B25C0C96822E8D60EEFE11B91C581D77CEA34368A1F5329E68CD1B8B61F16D63A1B8E092D294B10C78C4A48EB593D192E7DED9BDEE7995E1B91FDEDD3ACEA9FE831
310
6A756F9F7D4D79F4274C90A7A04248AA51D5F8C718DAE06FB2F75AC4796EBE65D22A88A22223B995679120E2D50E41AA49C260C046A35368846B0BECD0DFF3EBEB8AD4F835768F69B9ADF25C43D30E6B646F807FAA64AD59F61715C7A54127C4AACA98BA3006A9D792DAE165E0D59B61A01FB3A9F9D838D2DAE62445C86166
310
F37564E842E7DE6A69879FEEA2DD5AE7E371E1A5E025154AC307D06A03D73EB5978C58FFA4C8E9033066E0F3BD53BEC1F39F91BE7B55103791EDE6BBB991A2046172CB4581D8B893FA674DDA17A77B3B7C413D1B511FD2743BFF8A38F03A658705E3ADF8015C3A3417FF3D7E439FF591DA0B5F18BC20C1B8981957AE6392A3
310
F43C640C01D1A0B4728E2DD4F26DB4B3C3152A252A3B4E913CEC1C72F012782FF88EFF8637AA552DBEF76408E8A8DE9E50F9E1CB3A2DA0DB1B6039A893B56063DC5B3E3FFB5F72E67AB9FEB4AEC496C4F4C1149625DD662C53E89D7BF0F6151A046260D1337DFDC94502430F83B0EE07A130A224BCAD7DAE1D9FB6CD422FF6
310
920702629C4BB9AE79C12F243C6432A6794E18E5552BA56B431AAB5D91317302B2B071E86C3A42B1A02F999E24061403B5D0EB639195DA655DD3EBEAB4FB862DDF579F014AD0E73C22F99E28DA57FB98E75C6CA2D74D53086D600F4786E0FE3144B771A8A7B900F03594DB8A633CBC49B2EDB69228BB479CF863B5E807AAAB
310
23872F6DFEB4129B949CA33823F58830E86D65621E10047D9DB34D862E8EAC3C2ABC2F7B2C40D67CDFE01F5545B92105AF983AC54D93D69E56FB8E797F88913F898A9FEC705D3F9D1B54EC8426FB500D40A03BD0119B06E1B95DDC7EB8F6975367793EBD70E66733DFB9BC982F9CE564727731999F5D4ECFCE3B8D6A4DC2A0
310
6D50FD148437D110834A64C6CDDF57FBACB5C307A2A477DFE4939736CFEF2B175371E0E10CF0DD1D5C15654E0BCA14D1E87DD02FF93782A162C0A3D95F1524A52770F972BF1EE9809D13CE7DD599467F8ECE9ADD85CE85A34CD45355448C64F9E8A031DC2D596ACC6E5DD93D9B82DE2EF5CAF81363A8E47996A0DE24564A79
310
4115AACE09C55E14540231FDA13C319787134EBF34E3A022514E5B4D9E0826E25C02D5805B15ABE1BEF51B26383D445DD9E875EE33FE4C22DA16427D65A3BCA92CA6D28DD01DF5DC53330704308475351050232CCD31583787BA75774AFB06E5070DD0C8EF484E19968C5D83BA5B90B244D31E54D55A372320FE4786B7EA58
310
44E135AA5467CB7EA333A61683CC6A8C3257034C10CF46F40EF9F5BE59BE5BD30C3C72D235E95D10345C1D45445A5F0BB47E46A5EBE5570F9380B5FA629579952296A773720405982B9DE04011506178964401AA8BDF1FBF0A8EAB6861DD6580C0E38217056766716DAEB2D6FA0917D3E4116581EADB879C4E7CFFB11EFACD
310
3D641311495D92C8676CB409A72D18610D803CE8A626049E8EC1887CB5B44CC39883690DDA8399B4B9855B481E7D71D4A9D22F96E5BB73BF5793020C02137BF837504B0304140006080000CC70623B000000000000000000000000350000006662782F36394639363044362D344446342D343946362D394244322D32343142
310
43333846323333332F76657274696365732E62696E504B0304140006080800CC70623BF270F1330600000004000000360000006662782F36394639363044362D344446342D343946362D394244322D3234314243333846323333332F747269616E676C65732E62696E636660600000504B0304140006080000CC70623B0000
310
00000000000000000000370000006662782F36394639363044362D344446342D343946362D394244322D3234314243333846323333332F617474726962757465732E62696E504B0304140006080800CC70623B08DA0BD19000000041010000360000006662782F36394639363044362D344446342D343946362D394244322D
310
3234314243333846323333332F6469726563746F72792E786D6C858F410AC3201045AF22B36F53E9A60B35CBEEBAE80D244E44489C6234F4F835464A48035D0DF398FF9F8AF63D0E6CC63039F212F8F9020C7D47C6792B21C5FE7403D62A1188E2E60C98D7234A5830286103A55745067B9D86B8A3CF9C7F90C11DE607FB14
310
4396D7B6A82D282E9A152AD114D5EF2CB866EEE831B8EEA07A7BB5A8D7D61A2BAAEB7FD5F70921FF497D00504B0304140006080800CC70623BCA768048FE000000A00100003B0000006662782F36394639363044362D344446342D343946362D394244322D3234314243333846323333332F7265736F75726365732F636F72
310
652E786D6C8D50596E833010BD0A9ADFCA60D600328E9AA639412F609909B1126CE4A5EAF16B0295DABFFECC8CDEA2797AECF8353F924FB44E193D409E5248504B332A3D0D10FC95B4901C39B3C6F85F3248B49871801506CE266BC2B243D2688FDA47549B11775038871E12F988C7004EDE7016A9083E2ADC3D5D84BC8B09
310
D33C8D74D471E6BC8D0192EDC93A815B742658898E651BCB59086ADC356A8C3FD555A1055ED7E7E254D615792D0F075295F585746FF53B694EE78A565DD736979A65AB9933AFE69F8CD2A2F038022F28ED489E135A7CE4554F9BBEA85E68DB53CAB255FEC71496F19FA6A0B42F8B3DEE6673C0F318E4497096AD7DC5F52C33
310
EEB55BFE0D504B010214000A0000080000CC70623B3DEE336E79000000790000001B00000000000000000000000000000000006175746F6465736B2D64657369676E2D7061636B6167652E786D6C504B01021400140006080800CC70623BD486FD9CA0000000F40000001300000000000000000000000000B20000005B436F
310
6E74656E745F54797065735D2E786D6C504B01021400140006080800CC70623BD9DDAED0EC0000007C010000080000000000000000000000000083010000636F72652E786D6C504B01021400140006080800CC70623B55019EA25F0000007C000000070000000000000000000000000095020000636E782E786D6C504B0102
310
1400140006080800CC70623BA24EB22D72010000D40300000C00000000000000000000000000190300006662782F636F72652E786D6C504B01021400140006080800CC70623B408A7D3B7C0000009D0000000B00000000000000000000000000B50400006662782F636E782E786D6C504B01021400140006080800CC70623B
310
449FB9BD290100001202000031000000000000000000000000005A0500006662782F36394639363044362D344446342D343946362D394244322D3234314243333846323333332F636F72652E786D6C504B01021400140006080800CC70623BAD7543B64E010000330300003000000000000000000000000000D20600006662
310
782F36394639363044362D344446342D343946362D394244322D3234314243333846323333332F636E782E786D6C504B01021400140006080800CC70623B8D05915C650500003B10000034000000000000000000000000006E0800006662782F36394639363044362D344446342D343946362D394244322D32343142433338
310
46323333332F6F626A656374732E786D6C504B01021400140006080000CC70623B0000000000000000000000003500000000000000000000000000250E00006662782F36394639363044362D344446342D343946362D394244322D3234314243333846323333332F76657274696365732E62696E504B010214001400060808
310
00CC70623BF270F13306000000040000003600000000000000000000000000780E00006662782F36394639363044362D344446342D343946362D394244322D3234314243333846323333332F747269616E676C65732E62696E504B01021400140006080000CC70623B00000000000000000000000037000000000000000000
310
00000000D20E00006662782F36394639363044362D344446342D343946362D394244322D3234314243333846323333332F617474726962757465732E62696E504B01021400140006080800CC70623B08DA0BD190000000410100003600000000000000000000000000270F00006662782F36394639363044362D344446342D
310
343946362D394244322D3234314243333846323333332F6469726563746F72792E786D6C504B01021400140006080800CC70623BCA768048FE000000A00100003B000000000000000000000000000B1000006662782F36394639363044362D344446342D343946362D394244322D3234314243333846323333332F7265736F
310
75726365732F636F72652E786D6C504B0506000000000E000E0080040000621100000000
  0
XRECORD
  5
176
102
{ACAD_REACTORS
330
173
102
}
330
173
100
AcDbXrecord
280
     1
270
     1
271
     1
  0
XRECORD
  5
177
102
{ACAD_REACTORS
330
173
102
}
330
173
100
AcDbXrecord
280
     1
270
     1
271
     1
  0
CELLSTYLEMAP
  5
352BA
102
{ACAD_REACTORS
330
162
102
}
330
162
100
AcDbCellStyleMap
 90
        3
300
CELLSTYLE
  1
TABLEFORMAT_BEGIN
 90
        5
170
     1
 91
        0
 92
    32768
 62
   257
 93
        1
300
CONTENTFORMAT
  1
CONTENTFORMAT_BEGIN
 90
        0
 91
        0
 92
      512
 93
        0
300

 40
0.0
140
1.0
 94
        5
 62
     0
340
11
144
6.0
309
CONTENTFORMAT_END
171
     1
301
MARGIN
  1
CELLMARGIN_BEGIN
 40
1.5
 40
1.5
 40
1.5
 40
1.5
 40
4.5
 40
4.5
309
CELLMARGIN_END
 94
        6
 95
        1
302
GRIDFORMAT
  1
GRIDFORMAT_BEGIN
 90
        0
 91
        1
 62
     0
 92
       -2
340
14
 93
        0
 40
1.125
309
GRIDFORMAT_END
 95
        2
302
GRIDFORMAT
  1
GRIDFORMAT_BEGIN
 90
        0
 91
        1
 62
     0
 92
       -2
340
14
 93
        0
 40
1.125
309
GRIDFORMAT_END
 95
        4
302
GRIDFORMAT
  1
GRIDFORMAT_BEGIN
 90
        0
 91
        1
 62
     0
 92
       -2
340
14
 93
        0
 40
1.125
309
GRIDFORMAT_END
 95
        8
302
GRIDFORMAT
  1
GRIDFORMAT_BEGIN
 90
        0
 91
        1
 62
     0
 92
       -2
340
14
 93
        0
 40
1.125
309
GRIDFORMAT_END
 95
       16
302
GRIDFORMAT
  1
GRIDFORMAT_BEGIN
 90
        0
 91
        1
 62
     0
 92
       -2
340
14
 93
        0
 40
1.125
309
GRIDFORMAT_END
 95
       32
302
GRIDFORMAT
  1
GRIDFORMAT_BEGIN
 90
        0
 91
        1
 62
     0
 92
       -2
340
14
 93
        0
 40
1.125
309
GRIDFORMAT_END
309
TABLEFORMAT_END
  1
CELLSTYLE_BEGIN
 90
        1
 91
        1
300
_TITLE
309
CELLSTYLE_END
300
CELLSTYLE
  1
TABLEFORMAT_BEGIN
 90
        5
170
     1
 91
        0
 92
        0
 62
   257
 93
        1
300
CONTENTFORMAT
  1
CONTENTFORMAT_BEGIN
 90
        0
 91
        0
 92
      512
 93
        0
300

 40
0.0
140
1.0
 94
        5
 62
     0
340
11
144
4.5
309
CONTENTFORMAT_END
171
     1
301
MARGIN
  1
CELLMARGIN_BEGIN
 40
1.5
 40
1.5
 40
1.5
 40
1.5
 40
4.5
 40
4.5
309
CELLMARGIN_END
 94
        6
 95
        1
302
GRIDFORMAT
  1
GRIDFORMAT_BEGIN
 90
        0
 91
        1
 62
     0
 92
       -2
340
14
 93
        0
 40
1.125
309
GRIDFORMAT_END
 95
        2
302
GRIDFORMAT
  1
GRIDFORMAT_BEGIN
 90
        0
 91
        1
 62
     0
 92
       -2
340
14
 93
        0
 40
1.125
309
GRIDFORMAT_END
 95
        4
302
GRIDFORMAT
  1
GRIDFORMAT_BEGIN
 90
        0
 91
        1
 62
     0
 92
       -2
340
14
 93
        0
 40
1.125
309
GRIDFORMAT_END
 95
        8
302
GRIDFORMAT
  1
GRIDFORMAT_BEGIN
 90
        0
 91
        1
 62
     0
 92
       -2
340
14
 93
        0
 40
1.125
309
GRIDFORMAT_END
 95
       16
302
GRIDFORMAT
  1
GRIDFORMAT_BEGIN
 90
        0
 91
        1
 62
     0
 92
       -2
340
14
 93
        0
 40
1.125
309
GRIDFORMAT_END
 95
       32
302
GRIDFORMAT
  1
GRIDFORMAT_BEGIN
 90
        0
 91
        1
 62
     0
 92
       -2
340
14
 93
        0
 40
1.125
309
GRIDFORMAT_END
309
TABLEFORMAT_END
  1
CELLSTYLE_BEGIN
 90
        2
 91
        1
300
_HEADER
309
CELLSTYLE_END
300
CELLSTYLE
  1
TABLEFORMAT_BEGIN
 90
        5
170
     1
 91
        0
 92
        0
 62
   257
 93
        1
300
CONTENTFORMAT
  1
CONTENTFORMAT_BEGIN
 90
        0
 91
        0
 92
      512
 93
        0
300

 40
0.0
140
1.0
 94
        2
 62
     0
340
11
144
4.5
309
CONTENTFORMAT_END
171
     1
301
MARGIN
  1
CELLMARGIN_BEGIN
 40
1.5
 40
1.5
 40
1.5
 40
1.5
 40
4.5
 40
4.5
309
CELLMARGIN_END
 94
        6
 95
        1
302
GRIDFORMAT
  1
GRIDFORMAT_BEGIN
 90
        0
 91
        1
 62
     0
 92
       -2
340
14
 93
        0
 40
1.125
309
GRIDFORMAT_END
 95
        2
302
GRIDFORMAT
  1
GRIDFORMAT_BEGIN
 90
        0
 91
        1
 62
     0
 92
       -2
340
14
 93
        0
 40
1.125
309
GRIDFORMAT_END
 95
        4
302
GRIDFORMAT
  1
GRIDFORMAT_BEGIN
 90
        0
 91
        1
 62
     0
 92
       -2
340
14
 93
        0
 40
1.125
309
GRIDFORMAT_END
 95
        8
302
GRIDFORMAT
  1
GRIDFORMAT_BEGIN
 90
        0
 91
        1
 62
     0
 92
       -2
340
14
 93
        0
 40
1.125
309
GRIDFORMAT_END
 95
       16
302
GRIDFORMAT
  1
GRIDFORMAT_BEGIN
 90
        0
 91
        1
 62
     0
 92
       -2
340
14
 93
        0
 40
1.125
309
GRIDFORMAT_END
 95
       32
302
GRIDFORMAT
  1
GRIDFORMAT_BEGIN
 90
        0
 91
        1
 62
     0
 92
       -2
340
14
 93
        0
 40
1.125
309
GRIDFORMAT_END
309
TABLEFORMAT_END
  1
CELLSTYLE_BEGIN
 90
        3
 91
        2
300
_DATA
309
CELLSTYLE_END
  0
ENDSEC
  0
SECTION
  2
ACDSDATA
 70
     2
 71
     8
  0
ACDSSCHEMA
 90
        0
  1
AcDb_Thumbnail_Schema
  2
AcDbDs::ID
280
    10
 91
        8
  2
Thumbnail_Data
280
    15
 91
        0
101
ACDSRECORD
 95
        0
 90
        1
  2
AcDbDs::TreatedAsObjectData
280
     1
291
     1
101
ACDSRECORD
 95
        0
 90
        2
  2
AcDbDs::Legacy
280
     1
291
     1
101
ACDSRECORD
  1
AcDbDs::ID
 90
        3
  2
AcDs:Indexable
280
     1
291
     1
101
ACDSRECORD
  1
AcDbDs::ID
 90
        4
  2
AcDbDs::HandleAttribute
280
     7
282
     1
  0
ACDSSCHEMA
 90
        1
  1
AcDbDs::TreatedAsObjectDataSchema
  2
AcDbDs::TreatedAsObjectData
280
     1
 91
        0
  0
ACDSSCHEMA
 90
        2
  1
AcDbDs::LegacySchema
  2
AcDbDs::Legacy
280
     1
 91
        0
  0
ACDSSCHEMA
 90
        3
  1
AcDbDs::IndexedPropertySchema
  2
AcDs:Indexable
280
     1
 91
        0
  0
ACDSSCHEMA
 90
        4
  1
AcDbDs::HandleAttributeSchema
  2
AcDbDs::HandleAttribute
280
     7
 91
        1
284
     1
  0
ACDSSCHEMA
 90
        5
  1
AcDb3DSolid_ASM_Data
  2
AcDbDs::ID
280
    10
 91
        8
  2
ASM_Data
280
    15
 91
        0
101
ACDSRECORD
 95
        5
 90
        1
  2
AcDbDs::TreatedAsObjectData
280
     1
291
     1
101
ACDSRECORD
 95
        5
 90
        2
  2
AcDbDs::Legacy
280
     1
291
     1
101
ACDSRECORD
  1
AcDbDs::ID
 90
        3
  2
AcDs:Indexable
280
     1
291
     1
101
ACDSRECORD
  1
AcDbDs::ID
 90
        4
  2
AcDbDs::HandleAttribute
280
     7
282
     1
  0
ACDSRECORD
 90
        0
  2
AcDbDs::ID
280
    10
320
D3
  2
Thumbnail_Data
280
    15
 94
     1675
310
89504E470D0A1A0A0000000D4948445200000100000000B5080300000087DCD12600000300504C5445FFFFFFFFFFFFFFFFFF0000000000000000000000000000000000000000000000000000330000660000990000CC0000FF0033000033330033660033990033CC0033FF0066000066330066660066990066CC0066FF0099
310
000099330099660099990099CC0099FF00CC0000CC3300CC6600CC9900CCCC00CCFF00FF0000FF3300FF6600FF9900FFCC00FFFF3300003300333300663300993300CC3300FF3333003333333333663333993333CC3333FF3366003366333366663366993366CC3366FF3399003399333399663399993399CC3399FF33CC00
310
33CC3333CC6633CC9933CCCC33CCFF33FF0033FF3333FF6633FF9933FFCC33FFFF6600006600336600666600996600CC6600FF6633006633336633666633996633CC6633FF6666006666336666666666996666CC6666FF6699006699336699666699996699CC6699FF66CC0066CC3366CC6666CC9966CCCC66CCFF66FF0066
310
FF3366FF6666FF9966FFCC66FFFF9900009900339900669900999900CC9900FF9933009933339933669933999933CC9933FF9966009966339966669966999966CC9966FF9999009999339999669999999999CC9999FF99CC0099CC3399CC6699CC9999CCCC99CCFF99FF0099FF3399FF6699FF9999FFCC99FFFFCC0000CC00
310
33CC0066CC0099CC00CCCC00FFCC3300CC3333CC3366CC3399CC33CCCC33FFCC6600CC6633CC6666CC6699CC66CCCC66FFCC9900CC9933CC9966CC9999CC99CCCC99FFCCCC00CCCC33CCCC66CCCC99CCCCCCCCCCFFCCFF00CCFF33CCFF66CCFF99CCFFCCCCFFFFFF0000FF0033FF0066FF0099FF00CCFF00FFFF3300FF3333
310
FF3366FF3399FF33CCFF33FFFF6600FF6633FF6666FF6699FF66CCFF66FFFF9900FF9933FF9966FF9999FF99CCFF99FFFFCC00FFCC33FFCC66FFCC99FFCCCCFFCCFFFFFF00FFFF33FFFF66FFFF99FFFFCCFFFFFF0000000D0D0D1A1A1A2828283535354343435050505D5D5D6B6B6B787878868686939393A1A1A1AEAEAEBB
310
BBBBC9C9C9D6D6D6E4E4E4F1F1F1FFFFFF000000000000000000000000000000000000000000000000000000000000AD4AB4E40000033F4944415478DAED9CDB72AB300C00F5FF9FA9E7F3D23F386D32F8221B708BE518BCCC34439286C062AD642544FE2DBE080064E10500000000004A00FABD3CF476F511D00640570F01
310
0010028B0310001002481000840012040021800401609A04775ABA8780DE3CDA2F4B1000EB007870080800902000902000902000902000902000902000902000902000902000902000902000902000902000902000902000902000902000902000C8024810008400122CB7A82AAA6B03D8FD1AFE1A2170ABE3F790E04F08C8
310
DA009AAE4A797808CC4820DF99DFEDDBDD01680CCC6D6FF27B9DD3E07BC3DB8ACE72F2DB01742984668AFD1A80EB97CDEDBDD7CFCBC328786F2D3E16FF343C9752F3192FAFDA2C3FE40E23A0390B345DBFE86A8CCD014995EA1702B30208EFE12DC1D308B16F9CEC9C38A58C08A0CD01BD01E4D4EDDDED6478573CD601EA18
310
021270EBAC9383F72E8D91A0CC09C02D0DDE0380EF5C404C253CEF7CC84D827A9336D9A02CF0C938F77380EE579DAF2413A25F35AD82C79D5BCD129DE607ADB11EEF2C4129E6C2E166980CD3AA578B07BC0164ACB779F1D8D68039D5B57990E78FA8A829BCC2EFB50ECB86B61D5303703402E4BA03543706F96C7758FC4B36
310
02249D0FFB03B0D13E3C0B1400C2C90855897F087C320BEE86406C0E463DF5CF02DE7DAD739DAA98FE828656551C017E59E0E8A974742469325F93644DCBE36ECB276AFBE036395C1E01279F0D26FEDF2A015B11D4006CFA887B1A57420EFFFA6AB1D761E6756C8818E59AA697EC77C35A478074AC280602386F07CAC14379
310
3DD98F804B08C4CE5FDEF352538D1A09649AD0D7304F271315261F0670BEC5789C520C61D9FDBC2605607FFCFF17129C0040D280AD8C926ADB3409A46F00F11F5300B38740E5A8544E01C83980E4D5EFD1719F86C89F6AD90A00CD9F7B3480838FD8070098E16B72FB497F1A00E20AA0ADDBB12480015D61BE290A80C50170
310
BD0012040012040012040012040012040012040012040012040012040012040012040012040012040012040012040012040012040012040012240B204100100248B07CEDCD96EE001EB15C0981672E00580C8002000902000902000902000902000902E00080F9859767DDAEED0001000000008002C0E2CBF200FE037899C1
310
77CC5D0C0F0000000049454E44AE426082608244AE426082
  0
ACDSRECORD
 90
        0
  2
AcDbDs::ID
280
    10
320
22
  2
Thumbnail_Data
280
    15
 94
     1874
310
89504E470D0A1A0A0000000D4948445200000100000000970803000000CDB8751B00000300504C5445212830FFFFFF2128300000000000000000000000000000000000000000000000000000330000660000990000CC0000FF0033000033330033660033990033CC0033FF0066000066330066660066990066CC0066FF0099
310
000099330099660099990099CC0099FF00CC0000CC3300CC6600CC9900CCCC00CCFF00FF0000FF3300FF6600FF9900FFCC00FFFF3300003300333300663300993300CC3300FF3333003333333333663333993333CC3333FF3366003366333366663366993366CC3366FF3399003399333399663399993399CC3399FF33CC00
310
33CC3333CC6633CC9933CCCC33CCFF33FF0033FF3333FF6633FF9933FFCC33FFFF6600006600336600666600996600CC6600FF6633006633336633666633996633CC6633FF6666006666336666666666996666CC6666FF6699006699336699666699996699CC6699FF66CC0066CC3366CC6666CC9966CCCC66CCFF66FF0066
310
FF3366FF6666FF9966FFCC66FFFF9900009900339900669900999900CC9900FF9933009933339933669933999933CC9933FF9966009966339966669966999966CC9966FF9999009999339999669999999999CC9999FF99CC0099CC3399CC6699CC9999CCCC99CCFF99FF0099FF3399FF6699FF9999FFCC99FFFFCC0000CC00
310
33CC0066CC0099CC00CCCC00FFCC3300CC3333CC3366CC3399CC33CCCC33FFCC6600CC6633CC6666CC6699CC66CCCC66FFCC9900CC9933CC9966CC9999CC99CCCC99FFCCCC00CCCC33CCCC66CCCC99CCCCCCCCCCFFCCFF00CCFF33CCFF66CCFF99CCFFCCCCFFFFFF0000FF0033FF0066FF0099FF00CCFF00FFFF3300FF3333
310
FF3366FF3399FF33CCFF33FFFF6600FF6633FF6666FF6699FF66CCFF66FFFF9900FF9933FF9966FF9999FF99CCFF99FFFFCC00FFCC33FFCC66FFCC99FFCCCCFFCCFFFFFF00FFFF33FFFF66FFFF99FFFFCCFFFFFF0000000D0D0D1A1A1A2828283535354343435050505D5D5D6B6B6B787878868686939393A1A1A1AEAEAEBB
310
BBBBC9C9C9D6D6D6E4E4E4F1F1F1FFFFFF0000000000000000000000000000000000000000000000000000000000002E4550F10000015E4944415478DAEDD9DB4EC330100540FFFFDFF661DF29B96E9CA44508A4263B83C06054814FEC8D9DB6060000000000000000000000000000F715CF8FD2E3FF6606507C09FC86006E
310
94C09B54DABD03D80F5E0D281D401340C56D41D1619F85516F27D4D2F21F4A40540AE2A00414AB85914218B601D5EE863980483FD65B0205D7FF5A046BDE00FE7EEF3FAF9DBEBDD62E60FA9C9BB528A44AF9B3F612D5246F01964B1607BD7D00F38B37ED34A3E2F19802F8FC85150727C2F6EA41C01AC4FE147936033EF9C9
310
CA7891C701B5F14BDB0EB79B01EDDDD4DF2534FE91E7A4481527A6AECF5920F39D60BB76D7193EF72FFFFDD00C4388B47D3CA901570B60DFDB62FFDB6954735FBF04D20CB850005DCDEA7AA33F4577012C831B8796A6C64100D7DF70AE4B60C92AD6FEE52D97936A7AC393E436981C40BA53E6EFEE7EBCD89E2BA3D033977D
310
11A4EA11CBF50700000000000000000000000000807FF005B0A190B8D9977B340000000049454E44AE4260829C00A15D6F670EB78021256E762ACEB1251AB8A89ADC6082C8F3F19AE09AC4CCCC63BE2F40B086500905A71D0F9AE0EDF364B3D5755B21A64E63C0C9020CE5919AFFE26DD75BDDD8DE71482A69F8D817408F8F
310
011301E635C33B07A7023863EB7B0949725F80CF4E28F4B8FBCC0430B1A55BB3B7BBBD2C70A516BB25B924540C028877BCBCBA505B335D65D0E877206F0A50A4F332358D2641566FDF9C4FB3C09D36382E47094E6F870100000000000000000000000000000000002EC00FA354142E8825828D0000000049454E44AE426082
310
EEEA80606A56EF04AF53E0E418B0B3E0D44BAEFA1BF4AF738026626F0E681E56DF2E06B432AE4C80B2AA2F73802780B802C8F5027488018900E514B84C80B3778251010672809F0B489E48877281DB3960CB062B07E89A281FC806EFE700717E2C14FDB980DCDD01CDFE9DBB831DD401DB895FD1B1F2EF74D445F4B0D78674
310
8039C6EF15B9AB03BA2FB9236D852F5870C6DA0AF79E66B603AE3E1AEEAC40E500955FF93330039E08996D7BBF4860C5FDFB7A1A8933A30A601D237E24D00200000000000000000000000000000000000000C017F20F9864B448AE790F7A0000000049454E44AE4260824E44AE4260829298DBEF11C0D60890674712400248
310
0009200124800490001240024800092001248004900012400248000920013E5400FFF67B01FBFA9B21D3DDA06E871B6BC204B832B8DBECF4E719983030DF2152FE2EFCDF0C3337BAAD47E6037B846C5F8FD0F95DE12E31F77A97984D7489ED6D14F4EABA10018EFF8AE0A06FC1FDFF4603784B1E41BB5374827377A7682592
310
A316D019EDD5B1739CF766C41EDFB16D9CDBC440BCE6D39C77C7C5EE4B8A7F00E7C3A7E171CEDBA3E2F498BB39054110044110044110044110044110044110044110044110044110FE30FE01E4A7F11F03AE71B00000000049454E44AE426082
  0
ENDSEC
  0
EOF
