  0
SECTION
  2
HEADER
  9
$ACADVER
  1
AC1032
  9
$ACADMAINTVER
 90
       77
  9
$DWGCODEPAGE
  3
ANSI_1252
  9
$TITLE
  1
925H
  9
$SUBJECT
  1
Lifting Platform – 3.0×2.0m (Oak/Rubber)
  9
$AUTHOR
  1
Pulse Fitness
  9
$LASTSAVEDBY
  1
Darren.Clowes
  9
$REQUIREDVERSIONS
160
                 0
  9
$INSBASE
 10
0.0
 20
0.0
 30
0.0
  9
$EXTMIN
 10
33832.6097937655
 20
2373.702585932781
 30
-0.0338494472175626
  9
$EXTMAX
 10
36836.0227613639
 20
4854.792773121484
 30
0.0225697417513402
  9
$LIMMIN
 10
0.0
 20
0.0
  9
$LIMMAX
 10
420.0
 20
297.0
  9
$ORTHOMODE
 70
     1
  9
$REGENMODE
 70
     1
  9
$FILLMODE
 70
     1
  9
$QTEXTMODE
 70
     0
  9
$MIRRTEXT
 70
     0
  9
$LTSCALE
 40
1.0
  9
$ATTMODE
 70
     1
  9
$TEXTSIZE
 40
2.5
  9
$TRACEWID
 40
1.0
  9
$TEXTSTYLE
  7
Standard
  9
$CLAYER
  8
0
  9
$CELTYPE
  6
ByLayer
  9
$CECOLOR
 62
   256
  9
$CELTSCALE
 40
1.0
  9
$DISPSILH
 70
     0
  9
$DIMSCALE
 40
1.0
  9
$DIMASZ
 40
2.5
  9
$DIMEXO
 40
0.625
  9
$DIMDLI
 40
3.75
  9
$DIMRND
 40
0.0
  9
$DIMDLE
 40
0.0
  9
$DIMEXE
 40
1.25
  9
$DIMTP
 40
0.0
  9
$DIMTM
 40
0.0
  9
$DIMTXT
 40
2.5
  9
$DIMCEN
 40
2.5
  9
$DIMTSZ
 40
0.0
  9
$DIMTOL
 70
     0
  9
$DIMLIM
 70
     0
  9
$DIMTIH
 70
     0
  9
$DIMTOH
 70
     0
  9
$DIMSE1
 70
     0
  9
$DIMSE2
 70
     0
  9
$DIMTAD
 70
     1
  9
$DIMZIN
 70
     8
  9
$DIMBLK
  1

  9
$DIMASO
 70
     1
  9
$DIMSHO
 70
     1
  9
$DIMPOST
  1

  9
$DIMAPOST
  1

  9
$DIMALT
 70
     0
  9
$DIMALTD
 70
     3
  9
$DIMALTF
 40
0.03937007874016
  9
$DIMLFAC
 40
1.0
  9
$DIMTOFL
 70
     1
  9
$DIMTVP
 40
0.0
  9
$DIMTIX
 70
     0
  9
$DIMSOXD
 70
     0
  9
$DIMSAH
 70
     0
  9
$DIMBLK1
  1

  9
$DIMBLK2
  1

  9
$DIMSTYLE
  2
ISO-25
  9
$DIMCLRD
 70
     0
  9
$DIMCLRE
 70
     0
  9
$DIMCLRT
 70
     0
  9
$DIMTFAC
 40
1.0
  9
$DIMGAP
 40
0.625
  9
$DIMJUST
 70
     0
  9
$DIMSD1
 70
     0
  9
$DIMSD2
 70
     0
  9
$DIMTOLJ
 70
     0
  9
$DIMTZIN
 70
     8
  9
$DIMALTZ
 70
     0
  9
$DIMALTTZ
 70
     0
  9
$DIMUPT
 70
     0
  9
$DIMDEC
 70
     2
  9
$DIMTDEC
 70
     2
  9
$DIMALTU
 70
     2
  9
$DIMALTTD
 70
     3
  9
$DIMTXSTY
  7
Standard
  9
$DIMAUNIT
 70
     0
  9
$DIMADEC
 70
     0
  9
$DIMALTRND
 40
0.0
  9
$DIMAZIN
 70
     0
  9
$DIMDSEP
 70
    44
  9
$DIMATFIT
 70
     3
  9
$DIMFRAC
 70
     0
  9
$DIMLDRBLK
  1

  9
$DIMLUNIT
 70
     2
  9
$DIMLWD
 70
    -2
  9
$DIMLWE
 70
    -2
  9
$DIMTMOVE
 70
     0
  9
$DIMFXL
 40
1.0
  9
$DIMFXLON
 70
     0
  9
$DIMJOGANG
 40
0.7853981633974483
  9
$DIMTFILL
 70
     0
  9
$DIMTFILLCLR
 70
     0
  9
$DIMARCSYM
 70
     0
  9
$DIMLTYPE
  6

  9
$DIMLTEX1
  6

  9
$DIMLTEX2
  6

  9
$DIMTXTDIRECTION
 70
     0
  9
$LUNITS
 70
     2
  9
$LUPREC
 70
     4
  9
$SKETCHINC
 40
1.0
  9
$FILLETRAD
 40
0.0
  9
$AUNITS
 70
     0
  9
$AUPREC
 70
     0
  9
$MENU
  1
.
  9
$ELEVATION
 40
0.0
  9
$PELEVATION
 40
0.0
  9
$THICKNESS
 40
0.0
  9
$LIMCHECK
 70
     0
  9
$CHAMFERA
 40
0.0
  9
$CHAMFERB
 40
0.0
  9
$CHAMFERC
 40
0.0
  9
$CHAMFERD
 40
0.0
  9
$SKPOLY
 70
     0
  9
$TDCREATE
 40
2460608.599803241
  9
$TDUCREATE
 40
2460608.558136574
  9
$TDUPDATE
 40
2460707.441168981
  9
$TDUUPDATE
 40
2460707.441168981
  9
$TDINDWG
 40
5.1469444444
  9
$TDUSRTIMER
 40
5.1469444444
  9
$USRTIMER
 70
     1
  9
$ANGBASE
 50
0.0
  9
$ANGDIR
 70
     0
  9
$PDMODE
 70
     0
  9
$PDSIZE
 40
0.0
  9
$PLINEWID
 40
0.0
  9
$SPLFRAME
 70
     0
  9
$SPLINETYPE
 70
     6
  9
$SPLINESEGS
 70
     8
  9
$HANDSEED
  5
352BC
  9
$SURFTAB1
 70
     6
  9
$SURFTAB2
 70
     6
  9
$SURFTYPE
 70
     6
  9
$SURFU
 70
     6
  9
$SURFV
 70
     6
  9
$UCSBASE
  2

  9
$UCSNAME
  2

  9
$UCSORG
 10
0.0
 20
0.0
 30
0.0
  9
$UCSXDIR
 10
1.0
 20
0.0
 30
0.0
  9
$UCSYDIR
 10
0.0
 20
1.0
 30
0.0
  9
$UCSORTHOREF
  2

  9
$UCSORTHOVIEW
 70
     0
  9
$UCSORGTOP
 10
0.0
 20
0.0
 30
0.0
  9
$UCSORGBOTTOM
 10
0.0
 20
0.0
 30
0.0
  9
$UCSORGLEFT
 10
0.0
 20
0.0
 30
0.0
  9
$UCSORGRIGHT
 10
0.0
 20
0.0
 30
0.0
  9
$UCSORGFRONT
 10
0.0
 20
0.0
 30
0.0
  9
$UCSORGBACK
 10
0.0
 20
0.0
 30
0.0
  9
$PUCSBASE
  2

  9
$PUCSNAME
  2

  9
$PUCSORG
 10
0.0
 20
0.0
 30
0.0
  9
$PUCSXDIR
 10
1.0
 20
0.0
 30
0.0
  9
$PUCSYDIR
 10
0.0
 20
1.0
 30
0.0
  9
$PUCSORTHOREF
  2

  9
$PUCSORTHOVIEW
 70
     0
  9
$PUCSORGTOP
 10
0.0
 20
0.0
 30
0.0
  9
$PUCSORGBOTTOM
 10
0.0
 20
0.0
 30
0.0
  9
$PUCSORGLEFT
 10
0.0
 20
0.0
 30
0.0
  9
$PUCSORGRIGHT
 10
0.0
 20
0.0
 30
0.0
  9
$PUCSORGFRONT
 10
0.0
 20
0.0
 30
0.0
  9
$PUCSORGBACK
 10
0.0
 20
0.0
 30
0.0
  9
$USERI1
 70
     0
  9
$USERI2
 70
     0
  9
$USERI3
 70
     0
  9
$USERI4
 70
     0
  9
$USERI5
 70
     0
  9
$USERR1
 40
0.0
  9
$USERR2
 40
0.0
  9
$USERR3
 40
0.0
  9
$USERR4
 40
0.0
  9
$USERR5
 40
0.0
  9
$WORLDVIEW
 70
     1
  9
$SHADEDGE
 70
     3
  9
$SHADEDIF
 70
    70
  9
$TILEMODE
 70
     1
  9
$MAXACTVP
 70
    64
  9
$PINSBASE
 10
0.0
 20
0.0
 30
0.0
  9
$PLIMCHECK
 70
     0
  9
$PEXTMIN
 10
25.69999999999999
 20
19.5
 30
0.0
  9
$PEXTMAX
 10
231.3
 20
175.5
 30
0.0
  9
$PLIMMIN
 10
-20.0
 20
-7.5
  9
$PLIMMAX
 10
277.0
 20
202.5
  9
$UNITMODE
 70
     0
  9
$VISRETAIN
 70
     1
  9
$PLINEGEN
 70
     0
  9
$PSLTSCALE
 70
     1
  9
$TREEDEPTH
 70
  3020
  9
$CMLSTYLE
  2
Standard
  9
$CMLJUST
 70
     0
  9
$CMLSCALE
 40
20.0
  9
$PROXYGRAPHICS
 70
     1
  9
$MEASUREMENT
 70
     1
  9
$CELWEIGHT
370
    -1
  9
$ENDCAPS
280
     0
  9
$JOINSTYLE
280
     0
  9
$LWDISPLAY
290
     0
  9
$INSUNITS
 70
     4
  9
$HYPERLINKBASE
  1

  9
$STYLESHEET
  1

  9
$XEDIT
290
     1
  9
$CEPSNTYPE
380
     0
  9
$PSTYLEMODE
290
     1
  9
$FINGERPRINTGUID
  2
{54537EB9-599D-7646-99BF-BB5F0EA5D2E8}
  9
$VERSIONGUID
  2
{14C6BD55-F57C-F64E-A409-14013665F523}
  9
$EXTNAMES
290
     1
  9
$PSVPSCALE
 40
0.0
  9
$OLESTARTUP
290
     0
  9
$SORTENTS
280
   127
  9
$INDEXCTL
280
     0
  9
$HIDETEXT
280
     1
  9
$XCLIPFRAME
280
     2
  9
$HALOGAP
280
     0
  9
$OBSCOLOR
 70
   257
  9
$OBSLTYPE
280
     0
  9
$INTERSECTIONDISPLAY
280
     0
  9
$INTERSECTIONCOLOR
 70
   257
  9
$DIMASSOC
280
     2
  9
$PROJECTNAME
  1

  9
$CAMERADISPLAY
290
     0
  9
$LENSLENGTH
 40
50.0
  9
$CAMERAHEIGHT
 40
0.0
  9
$STEPSPERSEC
 40
2.0
  9
$STEPSIZE
 40
6.0
  9
$3DDWFPREC
 40
2.0
  9
$PSOLWIDTH
 40
5.0
  9
$PSOLHEIGHT
 40
80.0
  9
$LOFTANG1
 40
1.570796326794896
  9
$LOFTANG2
 40
1.570796326794896
  9
$LOFTMAG1
 40
0.0
  9
$LOFTMAG2
 40
0.0
  9
$LOFTPARAM
 70
     7
  9
$LOFTNORMALS
280
     1
  9
$LATITUDE
 40
37.795
  9
$LONGITUDE
 40
-122.394
  9
$NORTHDIRECTION
 40
0.0
  9
$TIMEZONE
 70
 -8000
  9
$LIGHTGLYPHDISPLAY
280
     1
  9
$TILEMODELIGHTSYNCH
280
     1
  9
$CMATERIAL
347
EC
  9
$SOLIDHIST
280
     0
  9
$SHOWHIST
280
     1
  9
$DWFFRAME
280
     2
  9
$DGNFRAME
280
     0
  9
$REALWORLDSCALE
290
     1
  9
$INTERFERECOLOR
 62
     1
  9
$INTERFEREOBJVS
345
F9
  9
$INTERFEREVPVS
346
F6
  9
$CSHADOW
280
     0
  9
$SHADOWPLANELOCATION
 40
0.0
  0
ENDSEC
  0
SECTION
  2
CLASSES
  0
CLASS
  1
ACDBDICTIONARYWDFLT
  2
AcDbDictionaryWithDefault
  3
ObjectDBX Classes
 90
        0
 91
        1
280
     0
281
     0
  0
CLASS
  1
DICTIONARYVAR
  2
AcDbDictionaryVar
  3
ObjectDBX Classes
 90
        0
 91
       13
280
     0
281
     0
  0
CLASS
  1
TABLESTYLE
  2
AcDbTableStyle
  3
ObjectDBX Classes
 90
     4095
 91
        1
280
     0
281
     0
  0
CLASS
  1
MATERIAL
  2
AcDbMaterial
  3
ObjectDBX Classes
 90
     1153
 91
        3
280
     0
281
     0
  0
CLASS
  1
VISUALSTYLE
  2
AcDbVisualStyle
  3
ObjectDBX Classes
 90
     4095
 91
       24
280
     0
281
     0
  0
CLASS
  1
SCALE
  2
AcDbScale
  3
ObjectDBX Classes
 90
     1153
 91
       17
280
     0
281
     0
  0
CLASS
  1
MLEADERSTYLE
  2
AcDbMLeaderStyle
  3
ACDB_MLEADERSTYLE_CLASS
 90
     4095
 91
        2
280
     0
281
     0
  0
CLASS
  1
CELLSTYLEMAP
  2
AcDbCellStyleMap
  3
ObjectDBX Classes
 90
     1152
 91
        1
280
     0
281
     0
  0
CLASS
  1
EXACXREFPANELOBJECT
  2
ExAcXREFPanelObject
  3
EXAC_ESW
 90
     1025
 91
        0
280
     0
281
     0
  0
CLASS
  1
NPOCOLLECTION
  2
AcDbImpNonPersistentObjectsCollection
  3
ObjectDBX Classes
 90
     1153
 91
        0
280
     0
281
     0
  0
CLASS
  1
LAYER_INDEX
  2
AcDbLayerIndex
  3
ObjectDBX Classes
 90
        0
 91
        0
280
     0
281
     0
  0
CLASS
  1
SPATIAL_INDEX
  2
AcDbSpatialIndex
  3
ObjectDBX Classes
 90
        0
 91
        0
280
     0
281
     0
  0
CLASS
  1
IDBUFFER
  2
AcDbIdBuffer
  3
ObjectDBX Classes
 90
        0
 91
        0
280
     0
281
     0
  0
CLASS
  1
ACDBSECTIONVIEWSTYLE
  2
AcDbSectionViewStyle
  3
ObjectDBX Classes
 90
     1025
 91
        1
280
     0
281
     0
  0
CLASS
  1
ACDBDETAILVIEWSTYLE
  2
AcDbDetailViewStyle
  3
ObjectDBX Classes
 90
     1025
 91
        1
280
     0
281
     0
  0
CLASS
  1
SORTENTSTABLE
  2
AcDbSortentsTable
  3
ObjectDBX Classes
 90
        0
 91
        1
280
     0
281
     0
  0
CLASS
  1
ACDB_MTEXTATTRIBUTEOBJECTCONTEXTDATA_CLASS
  2
AcDbMTextAttributeObjectContextData
  3
ObjectDBX Classes
 90
     1153
 91
       82
280
     0
281
     0
  0
CLASS
  1
ACAD_EVALUATION_GRAPH
  2
AcDbEvalGraph
  3
ObjectDBX Classes
 90
     1153
 91
        0
280
     0
281
     0
  0
CLASS
  1
ACAECUSTOBJ
  2
AcAeEditorObj
  3
AcAeEditorObj
 90
     1024
 91
        0
280
     0
281
     0
  0
CLASS
  1
ACDB_DYNAMICBLOCKPURGEPREVENTER_VERSION
  2
AcDbDynamicBlockPurgePreventer
  3
ObjectDBX Classes
 90
     1153
 91
        0
280
     0
281
     0
  0
ENDSEC
  0
SECTION
  2
TABLES
  0
TABLE
  2
VPORT
  5
8
330
0
100
AcDbSymbolTable
 70
     1
  0
VPORT
  5
EA
330
8
100
AcDbSymbolTableRecord
100
AcDbViewportTableRecord
  2
*Active
 70
     0
 10
0.0
 20
0.0
 11
1.0
 21
1.0
 12
35334.3162775647
 22
3614.247679527132
 13
0.0
 23
0.0
 14
10.0
 24
10.0
 15
10.0
 25
10.0
 16
0.0
 26
0.0
 36
1.0
 17
0.0
 27
0.0
 37
0.0
 40
2496.776742639844
 41
1.964135021097046
 42
50.0
 43
0.0
 44
0.0
 50
0.0
 51
0.0
 71
     0
 72
  1000
 73
     1
 74
     3
 75
     0
 76
     1
 77
     0
 78
     0
281
     0
 65
     1
110
0.0
120
0.0
130
0.0
111
1.0
121
0.0
131
0.0
112
0.0
122
1.0
132
0.0
 79
     0
146
0.0
348
F5
 60
     3
 61
     5
292
     1
282
     1
141
0.0
142
0.0
 63
   250
421
  3355443
1001
ACAD_NAV_VCDISPLAY
1070
     3
  0
ENDTAB
  0
TABLE
  2
LTYPE
  5
5
330
0
100
AcDbSymbolTable
 70
     1
  0
LTYPE
  5
14
330
5
100
AcDbSymbolTableRecord
100
AcDbLinetypeTableRecord
  2
ByBlock
 70
     0
  3

 72
    65
 73
     0
 40
0.0
  0
LTYPE
  5
15
330
5
100
AcDbSymbolTableRecord
100
AcDbLinetypeTableRecord
  2
ByLayer
 70
     0
  3

 72
    65
 73
     0
 40
0.0
  0
LTYPE
  5
16
330
5
100
AcDbSymbolTableRecord
100
AcDbLinetypeTableRecord
  2
Continuous
 70
     0
  3
Solid line
 72
    65
 73
     0
 40
0.0
  0
ENDTAB
  0
TABLE
  2
LAYER
  5
2
102
{ACAD_XDICTIONARY
360
1FF
102
}
330
0
100
AcDbSymbolTable
 70
     1
  0
LAYER
  5
10
102
{ACAD_XDICTIONARY
360
13C
102
}
330
2
100
AcDbSymbolTableRecord
100
AcDbLayerTableRecord
  2
0
 70
     0
 62
     7
  6
Continuous
370
    -3
390
F
347
EE
348
0
  0
ENDTAB
  0
TABLE
  2
STYLE
  5
3
330
0
100
AcDbSymbolTable
 70
     2
  0
STYLE
  5
11
330
3
100
AcDbSymbolTableRecord
100
AcDbTextStyleTableRecord
  2
Standard
 70
     0
 40
0.0
 41
1.0
 50
0.0
 71
     0
 42
2.5
  3
arial.ttf
  4

1001
ACAD
1000
Arial
1071
       34
  0
STYLE
  5
132
330
3
100
AcDbSymbolTableRecord
100
AcDbTextStyleTableRecord
  2
Annotative
 70
     0
 40
0.0
 41
1.0
 50
0.0
 71
     0
 42
2.5
  3
arial.ttf
  4

1001
AcadAnnotative
1000
AnnotativeData
1002
{
1070
     1
1070
     1
1002
}
1001
ACAD
1000
Arial
1071
       34
  0
ENDTAB
  0
TABLE
  2
VIEW
  5
6
330
0
100
AcDbSymbolTable
 70
     0
  0
ENDTAB
  0
TABLE
  2
UCS
  5
7
330
0
100
AcDbSymbolTable
 70
     0
  0
ENDTAB
  0
TABLE
  2
APPID
  5
9
330
0
100
AcDbSymbolTable
 70
    14
  0
APPID
  5
12
330
9
100
AcDbSymbolTableRecord
100
AcDbRegAppTableRecord
  2
ACAD
 70
     0
  0
APPID
  5
9E
330
9
100
AcDbSymbolTableRecord
100
AcDbRegAppTableRecord
  2
ACAD_PSEXT
 70
     0
  0
APPID
  5
133
330
9
100
AcDbSymbolTableRecord
100
AcDbRegAppTableRecord
  2
AcadAnnoPO
 70
     0
  0
APPID
  5
134
330
9
100
AcDbSymbolTableRecord
100
AcDbRegAppTableRecord
  2
AcadAnnotative
 70
     0
  0
APPID
  5
135
330
9
100
AcDbSymbolTableRecord
100
AcDbRegAppTableRecord
  2
ACAD_DSTYLE_DIMJAG
 70
     0
  0
APPID
  5
136
330
9
100
AcDbSymbolTableRecord
100
AcDbRegAppTableRecord
  2
ACAD_DSTYLE_DIMTALN
 70
     0
  0
APPID
  5
165
330
9
100
AcDbSymbolTableRecord
100
AcDbRegAppTableRecord
  2
ACAD_MLEADERVER
 70
     0
  0
APPID
  5
217
330
9
100
AcDbSymbolTableRecord
100
AcDbRegAppTableRecord
  2
ACAD_NAV_VCDISPLAY
 70
     0
  0
APPID
  5
10CD0
330
9
100
AcDbSymbolTableRecord
100
AcDbRegAppTableRecord
  2
ACAD_EXEMPT_FROM_CAD_STANDARDS
 70
     0
  0
APPID
  5
20098
330
9
100
AcDbSymbolTableRecord
100
AcDbRegAppTableRecord
  2
GradientColor1ACI
 70
     0
  0
APPID
  5
20099
330
9
100
AcDbSymbolTableRecord
100
AcDbRegAppTableRecord
  2
GradientColor2ACI
 70
     0
  0
APPID
  5
245F8
330
9
100
AcDbSymbolTableRecord
100
AcDbRegAppTableRecord
  2
ACAUTHENVIRON
 70
     0
  0
APPID
  5
27F21
330
9
100
AcDbSymbolTableRecord
100
AcDbRegAppTableRecord
  2
AcDbDynamicBlockTrueName
 70
     0
  0
APPID
  5
27F22
330
9
100
AcDbSymbolTableRecord
100
AcDbRegAppTableRecord
  2
AcDbDynamicBlockGUID
 70
     0
  0
ENDTAB
  0
TABLE
  2
DIMSTYLE
  5
A
330
0
100
AcDbSymbolTable
 70
     3
100
AcDbDimStyleTable
 71
     1
340
27
  0
DIMSTYLE
105
1B0
330
A
100
AcDbSymbolTableRecord
100
AcDbDimStyleTableRecord
  2
Standard
 70
     0
340
11
  0
DIMSTYLE
105
27
330
A
100
AcDbSymbolTableRecord
100
AcDbDimStyleTableRecord
  2
ISO-25
 70
     0
 41
2.5
 42
0.625
 43
3.75
 44
1.25
 73
     0
 74
     0
 77
     1
 78
     8
140
2.5
141
2.5
143
0.03937007874016
147
0.625
171
     3
172
     1
271
     2
272
     2
274
     3
278
    44
283
     0
284
     8
340
11
  0
ENDTAB
  0
TABLE
  2
BLOCK_RECORD
  5
1
330
0
100
AcDbSymbolTable
 70
    44
  0
BLOCK_RECORD
  5
1F
102
{ACAD_XDICTIONARY
360
1CE
102
}
330
1
100
AcDbSymbolTableRecord
100
AcDbBlockTableRecord
  2
*Model_Space
340
22
 70
     0
280
     1
281
     0
  0
BLOCK_RECORD
  5
D2
330
1
100
AcDbSymbolTableRecord
100
AcDbBlockTableRecord
  2
*Paper_Space
340
D3
 70
     0
280
     1
281
     0
  0
BLOCK_RECORD
  5
D6
330
1
100
AcDbSymbolTableRecord
100
AcDbBlockTableRecord
  2
*Paper_Space0
340
D7
 70
     0
280
     1
281
     0
  0
BLOCK_RECORD
  5
2A44A
102
{ACAD_XDICTIONARY
360
34FEF
102
}
330
1
100
AcDbSymbolTableRecord
100
AcDbBlockTableRecord
  2
925H - Lifting Platform – 3.0×2.0m Oak-Rubber
340
0
310
28000000200000002000000001002000000000000010000001000000010000000000000000000000302821FF302821FF302821FF302821FF302821FF302821FF302821FF302821FF302821FF302821FF302821FF302821FF302821FF302821FF302821FF302821FF302821FF302821FF302821FF302821FF302821FF302821
310
FF302821FF302821FF302821FF302821FF302821FF302821FF302821FF302821FF302821FF302821FF302821FF302821FF302821FF302821FF302821FF302821FF302821FF302821FF302821FF302821FF302821FF302821FF302821FF302821FF302821FF302821FF302821FF302821FF302821FF302821FF302821FF3028
310
21FF302821FF302821FF302821FF302821FF302821FF302821FF302821FF302821FF302821FF302821FF302821FF302821FF302821FF302821FF302821FF302821FF302821FF302821FF302821FF302821FF302821FF302821FF302821FF302821FF302821FF302821FF302821FF302821FF302821FF302821FF302821FF30
310
2821FF302821FF302821FF302821FF302821FF302821FF302821FF302821FF302821FF302821FF302821FF302821FF302821FF302821FF302821FF302821FF302821FF302821FF302821FF302821FF302821FF302821FF302821FF302821FF302821FF302821FF302821FF302821FF302821FF302821FF302821FF302821FF
310
302821FF302821FF302821FF302821FF302821FF302821FF302821FF302821FF302821FF302821FF302821FF302821FF302821FF302821FF302821FF302821FF302821FF302821FF302821FF302821FF302821FF302821FF302821FF302821FF302821FFFFFFFFFFFFFFFFFFFFFFFFFFFFFFFFFF302821FF302821FF302821
310
FF302821FF302821FF302821FF302821FF302821FF302821FF302821FF302821FF302821FF302821FF302821FF302821FF302821FF302821FF302821FF302821FF302821FF302821FF302821FF302821FF302821FF302821FF302821FF302821FF302821FFFFFFFFFFFFFFFFFFFFFFFFFFFFFFFFFF302821FF302821FF3028
310
21FF302821FF302821FF302821FF302821FF302821FF302821FF302821FF302821FF302821FF302821FF302821FF302821FF302821FF302821FF302821FF302821FF302821FF302821FF302821FF302821FF302821FF302821FF302821FF302821FF302821FF302821FF302821FF302821FF302821FF302821FF302821FF30
310
2821FF302821FF302821FF302821FF302821FF302821FF302821FF302821FF302821FF302821FF302821FF302821FF302821FF302821FF302821FF302821FF302821FF302821FF302821FF302821FF302821FF302821FFFFFFFFFFFFFFFFFFFFFFFFFFFFFFFFFFFFFFFFFFFFFFFFFFFFFFFFFFFFFFFFFFFFFFFFFFFFFFFFFF
310
FFFFFFFFFFFFFFFF302821FF302821FF302821FF302821FF302821FF302821FF302821FF302821FF302821FF302821FF302821FF302821FF302821FFFFFFFFFFFFFFFFFFFFFFFFFFFFFFFFFFFFFFFFFFFFFFFFFFFFFFFFFFFFFFFFFFFFFFFFFFFFFFFFFFFFFFFFFFFFFFFFFFFFFFFFFFFFFFFFFFFFFFFFFFFFFFFFFFFFFFFF
310
FFFFFFFFFFFFFFFFFFFFFFFFFFFFFFFFFFFFFFFFFFFFFFFFFFFFFFFFFFFFFFFFFFFFFFFFFF302821FF302821FF302821FF302821FF302821FFFFFFFFFFFFFFFFFF302821FFFFFFFFFFFFFFFFFFFFFFFFFFFFFFFFFFFFFFFFFFFFFFFFFFFFFFFFFFFFFFFFFFFFFFFFFFFFFFFFFFFFFFFFFFFFFFFFFFFFFFFFFFFFFFFFFFFFFF
310
FFFFFFFFFFFFFFFFFFFFFFFFFFFFFFFFFFFFFFFFFFFFFFFFFFFFFFFFFFFF302821FFFFFFFFFFFFFFFFFF302821FF302821FF302821FFFFFFFFFFFFFFFFFFFFFFFFFFFFFFFFFF302821FF302821FF302821FF302821FF302821FF302821FFFFFFFFFFCAC8C7FFCAC8C7FFCAC8C7FFCAC8C7FFCAC8C7FFCAC8C7FFCAC8C7FFCA
310
C8C7FFFFFFFFFF302821FF302821FF302821FF302821FF302821FF302821FFFFFFFFFFFFFFFFFF302821FFFFFFFFFF302821FF302821FFFFFFFFFF302821FFFFFFFFFF302821FF302821FF302821FF302821FF302821FF302821FF302821FFFFFFFFFFCAC8C7FFCAC8C7FFCAC8C7FFCAC8C7FFCAC8C7FFCAC8C7FFCAC8C7FF
310
CAC8C7FFFFFFFFFF302821FF302821FF302821FF302821FF302821FF302821FF302821FFFFFFFFFF302821FFFFFFFFFF302821FF302821FFFFFFFFFFFFFFFFFF302821FF302821FF302821FF302821FF302821FF302821FF302821FF302821FFFFFFFFFFCAC8C7FFCAC8C7FFCAC8C7FFCAC8C7FFCAC8C7FFCAC8C7FFCAC8C7
310
FFCAC8C7FFFFFFFFFF302821FF302821FF302821FF302821FF302821FF302821FF302821FF302821FFFFFFFFFFFFFFFFFF302821FF302821FFFFFFFFFFFFFFFFFF302821FF302821FF302821FF302821FF302821FF302821FF302821FF302821FFFFFFFFFFCAC8C7FFCAC8C7FFCAC8C7FFCAC8C7FFCAC8C7FFCAC8C7FFCAC8
310
C7FFCAC8C7FFFFFFFFFF302821FF302821FF302821FF302821FF302821FF302821FF302821FF302821FFFFFFFFFFFFFFFFFF302821FF302821FFFFFFFFFFFFFFFFFF302821FF302821FF302821FF302821FF302821FF302821FF302821FF302821FFFFFFFFFFCAC8C7FFCAC8C7FFCAC8C7FFCAC8C7FFCAC8C7FFCAC8C7FFCA
310
C8C7FFCAC8C7FFFFFFFFFF302821FF302821FF302821FF302821FF302821FF302821FF302821FF302821FFFFFFFFFFFFFFFFFF302821FF302821FFFFFFFFFFFFFFFFFF302821FF302821FF302821FF302821FF302821FF302821FF302821FF302821FFFFFFFFFFCAC8C7FFCAC8C7FFCAC8C7FFCAC8C7FFCAC8C7FFCAC8C7FF
310
CAC8C7FFCAC8C7FFFFFFFFFF302821FF302821FF302821FF302821FF302821FF302821FF302821FF302821FFFFFFFFFFFFFFFFFF302821FF302821FFFFFFFFFFFFFFFFFF302821FF302821FF302821FF302821FF302821FF302821FF302821FF302821FFFFFFFFFFCAC8C7FFCAC8C7FFCAC8C7FFCAC8C7FFCAC8C7FFCAC8C7
310
FFCAC8C7FFCAC8C7FFFFFFFFFF302821FF302821FF302821FF302821FF302821FF302821FF302821FF302821FFFFFFFFFFFFFFFFFF302821FF302821FFFFFFFFFFFFFFFFFF302821FF302821FF302821FF302821FF302821FF302821FF302821FF302821FFFFFFFFFFCAC8C7FFCAC8C7FFCAC8C7FFCAC8C7FFCAC8C7FFCAC8
310
C7FFCAC8C7FFCAC8C7FFFFFFFFFF302821FF302821FF302821FF302821FF302821FF302821FF302821FF302821FFFFFFFFFFFFFFFFFF302821FF302821FFFFFFFFFFFFFFFFFF302821FF302821FF302821FF302821FF302821FF302821FF302821FF302821FFFFFFFFFFCAC8C7FFCAC8C7FFCAC8C7FFCAC8C7FFCAC8C7FFCA
310
C8C7FFCAC8C7FFCAC8C7FFFFFFFFFF302821FF302821FF302821FF302821FF302821FF302821FF302821FF302821FFFFFFFFFFFFFFFFFF302821FF302821FFFFFFFFFFFFFFFFFF302821FF302821FF302821FF302821FF302821FF302821FF302821FF302821FFFFFFFFFFCAC8C7FFCAC8C7FFCAC8C7FFCAC8C7FFCAC8C7FF
310
CAC8C7FFCAC8C7FFCAC8C7FFFFFFFFFF302821FF302821FF302821FF302821FF302821FF302821FF302821FF302821FFFFFFFFFFFFFFFFFF302821FF302821FFFFFFFFFFFFFFFFFF302821FF302821FF302821FF302821FF302821FF302821FF302821FF302821FFFFFFFFFFCAC8C7FFCAC8C7FFCAC8C7FFCAC8C7FFCAC8C7
310
FFCAC8C7FFCAC8C7FFCAC8C7FFFFFFFFFF302821FF302821FF302821FF302821FF302821FF302821FF302821FF302821FFFFFFFFFFFFFFFFFF302821FF302821FFFFFFFFFFFFFFFFFF302821FF302821FF302821FF302821FF302821FF302821FF302821FF302821FFFFFFFFFFCAC8C7FFCAC8C7FFCAC8C7FFCAC8C7FFCAC8
310
C7FFCAC8C7FFCAC8C7FFCAC8C7FFFFFFFFFF302821FF302821FF302821FF302821FF302821FF302821FF302821FF302821FFFFFFFFFFFFFFFFFF302821FF302821FFFFFFFFFFFFFFFFFF302821FF302821FF302821FF302821FF302821FF302821FF302821FF302821FFFFFFFFFFCAC8C7FFCAC8C7FFCAC8C7FFCAC8C7FFCA
310
C8C7FFCAC8C7FFCAC8C7FFCAC8C7FFFFFFFFFF302821FF302821FF302821FF302821FF302821FF302821FF302821FF302821FFFFFFFFFFFFFFFFFF302821FF302821FFFFFFFFFFFFFFFFFF302821FF302821FF302821FF302821FF302821FF302821FF302821FF302821FFFFFFFFFFCAC8C7FFCAC8C7FFCAC8C7FFCAC8C7FF
310
CAC8C7FFCAC8C7FFCAC8C7FFCAC8C7FFFFFFFFFF302821FF302821FF302821FF302821FF302821FF302821FF302821FF302821FFFFFFFFFFFFFFFFFF302821FF302821FFFFFFFFFFFFFFFFFF302821FF302821FF302821FF302821FF302821FF302821FF302821FF302821FFFFFFFFFFCAC8C7FFCAC8C7FFCAC8C7FFCAC8C7
310
FFCAC8C7FFCAC8C7FFCAC8C7FFCAC8C7FFFFFFFFFF302821FF302821FF302821FF302821FF302821FF302821FF302821FF302821FFFFFFFFFFFFFFFFFF302821FF302821FFFFFFFFFF302821FFFFFFFFFFFFFFFFFF302821FF302821FF302821FF302821FF302821FF302821FFFFFFFFFFCAC8C7FFCAC8C7FFCAC8C7FFCAC8
310
C7FFCAC8C7FFCAC8C7FFCAC8C7FFCAC8C7FFFFFFFFFF302821FF302821FF302821FF302821FF302821FF302821FFFFFFFFFFFFFFFFFFFFFFFFFFFFFFFFFF302821FF302821FF302821FFFFFFFFFFFFFFFFFF302821FFFFFFFFFFFFFFFFFFFFFFFFFFFFFFFFFFFFFFFFFFFFFFFFFFFFFFFFFFFFFFFFFFFFFFFFFFFFFFFFFFFF
310
FFFFFFFFFFFFFFFFFFFFFFFFFFFFFFFFFFFFFFFFFFFFFFFFFFFFFFFFFFFFFFFFFFFFFFFFFFFFFFFFFFFFFFFFFFFFFF302821FFFFFFFFFFFFFFFFFF302821FF302821FF302821FF302821FF302821FFFFFFFFFFFFFFFFFFFFFFFFFFFFFFFFFFFFFFFFFFFFFFFFFFFFFFFFFFFFFFFFFFFFFFFFFFFFFFFFFFFFFFFFFFFFFFFFFF
310
FFFFFFFFFFFFFFFFFFFFFFFFFFFFFFFFFFFFFFFFFFFFFFFFFFFFFFFFFFFFFFFFFFFFFFFFFFFFFFFFFFFFFFFFFFFFFFFFFFFFFFFFFFFFFFFF302821FF302821FF302821FF302821FF302821FF302821FF302821FF302821FF302821FF302821FF302821FF302821FF302821FF302821FF302821FF302821FF302821FF302821
310
FF302821FF302821FF302821FF302821FF302821FF302821FF302821FF302821FF302821FF302821FF302821FF302821FF302821FF302821FF302821FF302821FF302821FF302821FF302821FF302821FF302821FF302821FF302821FF302821FF302821FF302821FF302821FF302821FF302821FF302821FF302821FF3028
310
21FF302821FF302821FF302821FF302821FF302821FF302821FF302821FF302821FF302821FF302821FF302821FF302821FF302821FF302821FF302821FF302821FF302821FF302821FF302821FF302821FF302821FF302821FF302821FF302821FF302821FF302821FF302821FF302821FF302821FF302821FF302821FF30
310
2821FF302821FF302821FF302821FF302821FF302821FF302821FF302821FF302821FF302821FF302821FF302821FF302821FF302821FF302821FF302821FF302821FF302821FF302821FF302821FF302821FF302821FF302821FF302821FF302821FF302821FF302821FF302821FF302821FF302821FF302821FF302821FF
310
302821FF302821FF302821FF302821FF302821FF302821FF302821FF302821FF302821FF302821FF302821FF302821FF302821FF302821FF302821FF302821FF302821FF302821FF
102
{BLKREFS
331
2A5A4
102
}
 70
     4
280
     1
281
     0
1001
AcDbDynamicBlockGUID
1000
{2537B463-CCDD-8E46-BC86-43013CCAAD8D}
  0
ENDTAB
  0
ENDSEC
  0
SECTION
  2
BLOCKS
  0
BLOCK
  5
20
330
1F
100
AcDbEntity
  8
0
100
AcDbBlockBegin
  2
*Model_Space
 70
     0
 10
0.0
 20
0.0
 30
0.0
  3
*Model_Space
  1

  0
ENDBLK
  5
21
330
1F
100
AcDbEntity
  8
0
100
AcDbBlockEnd
  0
BLOCK
  5
D4
330
D2
100
AcDbEntity
 67
     1
  8
0
100
AcDbBlockBegin
  2
*Paper_Space
 70
     0
 10
0.0
 20
0.0
 30
0.0
  3
*Paper_Space
  1

  0
ENDBLK
  5
D5
330
D2
100
AcDbEntity
 67
     1
  8
0
100
AcDbBlockEnd
  0
BLOCK
  5
D8
330
D6
100
AcDbEntity
 67
     1
  8
0
100
AcDbBlockBegin
  2
*Paper_Space0
 70
     0
 10
0.0
 20
0.0
 30
0.0
  3
*Paper_Space0
  1

  0
ENDBLK
  5
D9
330
D6
100
AcDbEntity
 67
     1
  8
0
100
AcDbBlockEnd
  0
BLOCK
  5
2A44B
330
2A44A
100
AcDbEntity
  8
0
100
AcDbBlockBegin
  2
925H - Lifting Platform – 3.0×2.0m Oak-Rubber
 70
     2
 10
0.0
 20
0.0
 30
0.0
  3
925H - Lifting Platform – 3.0×2.0m Oak-Rubber
  1

  0
HATCH
  5
34E98
330
2A44A
100
AcDbEntity
  8
0
 62
     9
420
 13093066
100
AcDbHatch
 10
0.0
 20
0.0
 30
0.0
210
0.0
220
0.0
230
1.0
  2
AR-BRSTD
 70
     0
 71
     1
 91
        1
 92
        7
 72
     0
 73
     1
 93
        4
 10
-502.055859692693
 20
-909.1363752018963
 10
497.944140307336
 20
-909.1363759611708
 10
497.944140307336
 20
959.7316825861485
 10
-502.055859692693
 20
959.7316833454229
 97
        4
330
34F8F
330
34E9A
330
34F90
330
34E99
 75
     1
 76
     1
 52
90.0
 41
1.5
 77
     0
 78
     2
 53
90.0
 43
-35336.53930231284
 44
-3827.664753947276
 45
-101.6127
 46
0.0000000000000062
 79
     0
 53
180.0
 43
-35336.53930231284
 44
-3827.664753947276
 45
-101.6127
 46
-152.4
 79
     2
 49
101.6127
 49
-101.6127
 47
20.4653522242811
 98
        1
 10
-33.57981243979884
 20
-173.8203044174879
1001
GradientColor1ACI
1070
     5
1001
GradientColor2ACI
1070
     2
1001
ACAD
1010
0.0
1020
0.0
1030
0.0
  0
LINE
  5
34E99
102
{ACAD_REACTORS
330
34E98
102
}
330
2A44A
100
AcDbEntity
  8
0
100
AcDbLine
 10
497.944140307336
 20
-910.0728846187484
 30
0.0
 11
497.944140307336
 21
1020.795081645716
 31
0.0
  0
LINE
  5
34E9A
102
{ACAD_REACTORS
330
34E98
102
}
330
2A44A
100
AcDbEntity
  8
0
100
AcDbLine
 10
-502.055859692693
 20
1020.795081645716
 30
0.0
 11
-502.055859692693
 21
-910.0728846187484
 31
0.0
  0
LINE
  5
34E9B
330
2A44A
100
AcDbEntity
  8
0
100
AcDbLine
 10
-503.0558468180897
 20
958.7951739285708
 30
0.0
 11
-503.0558468180897
 21
988.7951453183413
 31
0.0
  0
LINE
  5
34E9C
330
2A44A
100
AcDbEntity
  8
0
100
AcDbLine
 10
-503.0558468180897
 20
985.7951243374991
 30
0.0
 11
-502.055859692693
 21
985.7951243374991
 31
0.0
  0
LINE
  5
34E9D
330
2A44A
100
AcDbEntity
  8
0
100
AcDbLine
 10
-503.0558468180897
 20
988.7951453183413
 30
0.0
 11
-502.055859692693
 21
988.7951453183413
 31
0.0
  0
LINE
  5
34E9E
330
2A44A
100
AcDbEntity
  8
0
100
AcDbLine
 10
497.944140307336
 20
985.7951243374991
 30
0.0
 11
498.9441274327328
 21
985.7951243374991
 31
0.0
  0
LINE
  5
34E9F
330
2A44A
100
AcDbEntity
  8
0
100
AcDbLine
 10
498.9441274327328
 20
958.7951739285708
 30
0.0
 11
498.9441274327328
 21
988.7951453183413
 31
0.0
  0
LINE
  5
34EA0
330
2A44A
100
AcDbEntity
  8
0
100
AcDbLine
 10
497.944140307336
 20
988.7951453183413
 30
0.0
 11
498.9441274327328
 21
988.7951453183413
 31
0.0
  0
ARC
  5
34EA1
330
2A44A
100
AcDbEntity
  8
0
100
AcDbCircle
 10
-1444.055814924206
 20
-656.1363736256989
 30
0.0
 40
49.99999999999992
100
AcDbArc
 50
45.0000000000737
 51
90.0
  0
LINE
  5
34EA2
330
2A44A
100
AcDbEntity
  8
0
100
AcDbLine
 10
-1146.568393834219
 20
-882.91306911022
 30
0.0
 11
-1408.700442441091
 21
-620.781027953928
 31
0.0
  0
ARC
  5
34EA3
330
2A44A
100
AcDbEntity
  8
0
100
AcDbCircle
 10
-1181.923780568228
 20
-918.2684079816699
 30
0.0
 40
50.00000000000314
100
AcDbArc
 50
0.0
 51
45.0000000000737
  0
LINE
  5
34EA4
330
2A44A
100
AcDbEntity
  8
0
100
AcDbLine
 10
-1281.923747189626
 20
-968.2684086820609
 30
0.0
 11
-1131.923771031484
 21
-968.2684086820609
 31
0.0
  0
LINE
  5
34EA5
330
2A44A
100
AcDbEntity
  8
0
100
AcDbLine
 10
-1494.055843480215
 20
-756.1363664081673
 30
0.0
 11
-1281.923747189626
 21
-968.2684086820609
 31
0.0
  0
LINE
  5
34EA6
330
2A44A
100
AcDbEntity
  8
0
100
AcDbLine
 10
-1494.055843480215
 20
-606.136375348864
 30
0.0
 11
-1494.055843480215
 21
-756.1363664081673
 31
0.0
  0
SPLINE
  5
34EA7
330
2A44A
100
AcDbEntity
  8
0
100
AcDbSpline
210
0.0
220
0.0
230
1.0
 70
     8
 71
     3
 72
    10
 73
     6
 74
     0
 42
0.000000001
 43
0.0000000001
 40
0.0
 40
0.0
 40
0.0
 40
0.0
 40
0.5992960760769312
 40
0.8113596899813982
 40
0.9999999999999998
 40
0.9999999999999998
 40
0.9999999999999998
 40
0.9999999999999998
 10
-1318.712210782156
 20
-832.8608435204605
 30
0.0
 10
-1316.735839399094
 20
-833.531316642404
 30
0.0
 10
-1314.060120106638
 20
-834.4390396962571
 30
0.0
 10
-1310.677203006249
 20
-835.276602652253
 30
0.0
 10
-1309.297494884835
 20
-835.4851463337709
 30
0.0
 10
-1308.647966511831
 20
-835.5833229234868
 30
0.0
  0
SPLINE
  5
34EA8
330
2A44A
100
AcDbEntity
  8
0
100
AcDbSpline
210
0.0
220
0.0
230
1.0
 70
     8
 71
     3
 72
    17
 73
    13
 74
     0
 42
0.000000001
 43
0.0000000001
 40
0.0
 40
0.0
 40
0.0
 40
0.0
 40
0.1480033961824786
 40
0.2612803694163535
 40
0.349647555402423
 40
0.4332736968296118
 40
0.5141788538694423
 40
0.5996954016216176
 40
0.6900510919847609
 40
0.81112960411601
 40
0.919939083538529
 40
1.0
 40
1.0
 40
1.0
 40
1.0
 10
-1308.647966511831
 20
-835.5833229234868
 30
0.0
 10
-1307.801232043996
 20
-835.6935091852665
 30
0.0
 10
-1306.306434625403
 20
-835.8880284187561
 30
0.0
 10
-1304.282106168648
 20
-835.7036227129301
 30
0.0
 10
-1302.719894030589
 20
-835.1097129403951
 30
0.0
 10
-1301.639129718962
 20
-834.0625452512266
 30
0.0
 10
-1301.109088140736
 20
-832.6883490144627
 30
0.0
 10
-1301.008153178402
 20
-831.2004785230547
 30
0.0
 10
-1301.221263301377
 20
-829.4974904962673
 30
0.0
 10
-1301.725605140753
 20
-827.7187816882086
 30
0.0
 10
-1302.381118582292
 20
-826.0557049099752
 30
0.0
 10
-1302.884039499236
 20
-825.0912965575352
 30
0.0
 10
-1303.097224362478
 20
-824.6824902108365
 30
0.0
  0
SPLINE
  5
34EA9
330
2A44A
100
AcDbEntity
  8
0
100
AcDbSpline
210
0.0
220
0.0
230
1.0
 70
     8
 71
     3
 72
    10
 73
     6
 74
     0
 42
0.000000001
 43
0.0000000001
 40
0.0
 40
0.0
 40
0.0
 40
0.0
 40
0.2823403018705514
 40
0.5559751332166103
 40
1.0
 40
1.0
 40
1.0
 40
1.0
 10
-1303.097224362478
 20
-824.6824902108365
 30
0.0
 10
-1303.741290096681
 20
-823.7227650418954
 30
0.0
 10
-1305.009562922052
 20
-821.8329061548665
 30
0.0
 10
-1307.6146145116
 20
-818.6697668262223
 30
0.0
 10
-1309.659530254801
 20
-816.5613015208091
 30
0.0
 10
-1310.924744732961
 20
-815.2567681482414
 30
0.0
  0
LINE
  5
34EAA
330
2A44A
100
AcDbEntity
  8
0
100
AcDbLine
 10
-1310.924744732961
 20
-815.2567681482414
 30
0.0
 11
-1303.609705098257
 21
-803.8482156208138
 31
0.0
  0
SPLINE
  5
34EAB
330
2A44A
100
AcDbEntity
  8
0
100
AcDbSpline
210
0.0
220
0.0
230
1.0
 70
     8
 71
     3
 72
     9
 73
     5
 74
     0
 42
0.000000001
 43
0.0000000001
 40
0.0
 40
0.0
 40
0.0
 40
0.0
 40
0.5586887695242526
 40
1.0
 40
1.0
 40
1.0
 40
1.0
 10
-1303.609705098257
 20
-803.8482156208138
 30
0.0
 10
-1303.408584103999
 20
-803.4948058741665
 30
0.0
 10
-1303.04859656671
 20
-802.8622358890151
 30
0.0
 10
-1303.036679826117
 20
-802.1379950561186
 30
0.0
 10
-1303.031420834646
 20
-801.8183794429951
 30
0.0
  0
SPLINE
  5
34EAC
330
2A44A
100
AcDbEntity
  8
0
100
AcDbSpline
210
0.0
220
0.0
230
1.0
 70
     8
 71
     3
 72
    14
 73
    10
 74
     0
 42
0.000000001
 43
0.0000000001
 40
0.0
 40
0.0
 40
0.0
 40
0.0
 40
0.1539256471740457
 40
0.3114258218984728
 40
0.4714762996359271
 40
0.5930579713556314
 40
0.717769810691835
 40
0.8506766139517663
 40
1.0
 40
1.0
 40
1.0
 40
1.0
 10
-1303.031420834646
 20
-801.8183794429951
 30
0.0
 10
-1303.086463507548
 20
-801.4484631634859
 30
0.0
 10
-1303.197827078016
 20
-800.7000402496069
 30
0.0
 10
-1303.839085602951
 20
-799.7270138920884
 30
0.0
 10
-1304.655426605626
 20
-799.0362639575923
 30
0.0
 10
-1305.564170639751
 20
-798.6438289889065
 30
0.0
 10
-1306.478849652536
 20
-798.5249889865681
 30
0.0
 10
-1307.465821680926
 20
-798.6810360838371
 30
0.0
 10
-1308.05977340362
 20
-799.0193348281845
 30
0.0
 10
-1308.374023564443
 20
-799.1983231714494
 30
0.0
  0
SPLINE
  5
34EAD
330
2A44A
100
AcDbEntity
  8
0
100
AcDbSpline
210
0.0
220
0.0
230
1.0
 70
     8
 71
     3
 72
    14
 73
    10
 74
     0
 42
0.000000001
 43
0.0000000001
 40
0.0
 40
0.0
 40
0.0
 40
0.0
 40
0.0494271594247872
 40
0.1283432708403417
 40
0.2367487341495972
 40
0.3746407721968119
 40
0.5507315284488387
 40
0.7591845713217507
 40
1.0
 40
1.0
 40
1.0
 40
1.0
 10
-1308.374023564443
 20
-799.1983231714494
 30
0.0
 10
-1308.945331070943
 20
-799.5788835234507
 30
0.0
 10
-1310.428796333661
 20
-800.5670519898648
 30
0.0
 10
-1313.166127997443
 20
-802.3885971545769
 30
0.0
 10
-1316.926428338622
 20
-804.890607981515
 30
0.0
 10
-1321.810571404167
 20
-808.1398419779889
 30
0.0
 10
-1327.851886920071
 20
-812.1582344394864
 30
0.0
 10
-1335.083477014581
 20
-816.9681351650087
 30
0.0
 10
-1340.278870462956
 20
-820.4234992536166
 30
0.0
 10
-1343.063688405142
 20
-822.2756323030644
 30
0.0
  0
SPLINE
  5
34EAE
330
2A44A
100
AcDbEntity
  8
0
100
AcDbSpline
210
0.0
220
0.0
230
1.0
 70
     8
 71
     3
 72
    16
 73
    12
 74
     0
 42
0.000000001
 43
0.0000000001
 40
0.0
 40
0.0
 40
0.0
 40
0.0
 40
0.1889392706386225
 40
0.3584706633395274
 40
0.5085943389380235
 40
0.6393090423665155
 40
0.7506160337485023
 40
0.8410434623674721
 40
0.9127498369938939
 40
0.965735334262624
 40
1.0
 40
1.0
 40
1.0
 40
1.0
 10
-1343.063688405142
 20
-822.2756323030644
 30
0.0
 10
-1340.120025198172
 20
-819.288937080908
 30
0.0
 10
-1334.535072430641
 20
-813.6223405398141
 30
0.0
 10
-1326.610415972645
 20
-805.5834080381554
 30
0.0
 10
-1319.592254673473
 20
-798.4655033440522
 30
0.0
 10
-1313.480716867685
 20
-792.268494757025
 30
0.0
 10
-1308.298542701108
 20
-787.0158378746073
 30
0.0
 10
-1304.035334769891
 20
-782.6963417514434
 30
0.0
 10
-1300.679901303687
 20
-779.2996365346789
 30
0.0
 10
-1298.199815269581
 20
-776.7904029005239
 30
0.0
 10
-1296.835815620601
 20
-775.4157735964272
 30
0.0
 10
-1296.300149090872
 20
-774.8759326150993
 30
0.0
  0
SPLINE
  5
34EAF
330
2A44A
100
AcDbEntity
  8
0
100
AcDbSpline
210
0.0
220
0.0
230
1.0
 70
     8
 71
     3
 72
     9
 73
     5
 74
     0
 42
0.000000001
 43
0.0000000001
 40
0.0
 40
0.0
 40
0.0
 40
0.0
 40
0.5607652857893211
 40
1.0
 40
1.0
 40
1.0
 40
1.0
 10
-1296.300149090872
 20
-774.8759326150993
 30
0.0
 10
-1296.118191931389
 20
-774.694816617457
 30
0.0
 10
-1295.79371186089
 20
-774.3718365717231
 30
0.0
 10
-1295.50300984113
 20
-774.0182667276912
 30
0.0
 10
-1295.375323422537
 20
-773.8629665783101
 30
0.0
  0
SPLINE
  5
34EB0
330
2A44A
100
AcDbEntity
  8
0
100
AcDbSpline
210
0.0
220
0.0
230
1.0
 70
     8
 71
     3
 72
    11
 73
     7
 74
     0
 42
0.000000001
 43
0.0000000001
 40
0.0
 40
0.0
 40
0.0
 40
0.0
 40
0.2820392126243506
 40
0.5559803341597819
 40
0.7739819637020407
 40
1.0
 40
1.0
 40
1.0
 40
1.0
 10
-1295.375323422537
 20
-773.8629665783101
 30
0.0
 10
-1295.154218516421
 20
-773.4985108793062
 30
0.0
 10
-1294.718357210331
 20
-772.7800639674987
 30
0.0
 10
-1294.653480788802
 20
-771.588189775628
 30
0.0
 10
-1294.915680016937
 20
-770.5321412550201
 30
0.0
 10
-1295.300537286523
 20
-769.9866925450788
 30
0.0
 10
-1295.49644006072
 20
-769.7090443781144
 30
0.0
  0
SPLINE
  5
34EB1
330
2A44A
100
AcDbEntity
  8
0
100
AcDbSpline
210
0.0
220
0.0
230
1.0
 70
     8
 71
     3
 72
    11
 73
     7
 74
     0
 42
0.000000001
 43
0.0000000001
 40
0.0
 40
0.0
 40
0.0
 40
0.0
 40
0.2821435803859053
 40
0.56018271213865
 40
0.7786840596618349
 40
1.0
 40
1.0
 40
1.0
 40
1.0
 10
-1295.49644006072
 20
-769.7090443781144
 30
0.0
 10
-1295.805548863944
 20
-769.4157099987369
 30
0.0
 10
-1296.419269748461
 20
-768.8333084853966
 30
0.0
 10
-1297.569605252
 20
-768.5001020636864
 30
0.0
 10
-1298.658782971201
 20
-768.5003510358092
 30
0.0
 10
-1299.270638317794
 20
-768.7526957542668
 30
0.0
 10
-1299.578523762808
 20
-768.8796755483727
 30
0.0
  0
SPLINE
  5
34EB2
330
2A44A
100
AcDbEntity
  8
0
100
AcDbSpline
210
0.0
220
0.0
230
1.0
 70
     8
 71
     3
 72
     9
 73
     5
 74
     0
 42
0.000000001
 43
0.0000000001
 40
0.0
 40
0.0
 40
0.0
 40
0.0
 40
0.5598205690191316
 40
1.0
 40
1.0
 40
1.0
 40
1.0
 10
-1299.578523762808
 20
-768.8796755483727
 30
0.0
 10
-1299.820864262721
 20
-769.0186724961331
 30
0.0
 10
-1300.253753858698
 20
-769.266960886127
 30
0.0
 10
-1300.671162797073
 20
-769.5404119731338
 30
0.0
 10
-1300.854897626028
 20
-769.660779516993
 30
0.0
  0
SPLINE
  5
34EB3
330
2A44A
100
AcDbEntity
  8
0
100
AcDbSpline
210
0.0
220
0.0
230
1.0
 70
     8
 71
     3
 72
     9
 73
     5
 74
     0
 42
0.000000001
 43
0.0000000001
 40
0.0
 40
0.0
 40
0.0
 40
0.0
 40
0.5600519073117752
 40
0.9999999999999998
 40
0.9999999999999998
 40
0.9999999999999998
 40
0.9999999999999998
 10
-1300.854897626028
 20
-769.660779516993
 30
0.0
 10
-1302.600581108993
 20
-770.7811390875085
 30
0.0
 10
-1305.717584122751
 20
-772.7815957521397
 30
0.0
 10
-1308.832852806335
 20
-774.7847520795057
 30
0.0
 10
-1310.20340932189
 20
-775.666036885088
 30
0.0
  0
SPLINE
  5
34EB4
330
2A44A
100
AcDbEntity
  8
0
100
AcDbSpline
210
0.0
220
0.0
230
1.0
 70
     8
 71
     3
 72
    16
 73
    12
 74
     0
 42
0.000000001
 43
0.0000000001
 40
0.0
 40
0.0
 40
0.0
 40
0.0
 40
0.095763046953832
 40
0.214968099055539
 40
0.3492358088152792
 40
0.4901930586819898
 40
0.6294599996542749
 40
0.7564961391287479
 40
0.8658865453648353
 40
0.9497019816444451
 40
1.0
 40
1.0
 40
1.0
 40
1.0
 10
-1310.20340932189
 20
-775.666036885088
 30
0.0
 10
-1311.067346746531
 20
-776.2219583075657
 30
0.0
 10
-1313.006706361593
 20
-777.4698861379529
 30
0.0
 10
-1316.157673206086
 20
-779.4968024330683
 30
0.0
 10
-1319.716440870274
 20
-781.7859607850496
 30
0.0
 10
-1323.456381542484
 20
-784.1912984540559
 30
0.0
 10
-1327.131121201026
 20
-786.5545942489862
 30
0.0
 10
-1330.521214697066
 20
-788.734424688113
 30
0.0
 10
-1333.411049566079
 20
-790.5923436677494
 30
0.0
 10
-1335.608513462321
 20
-792.0048918603733
 30
0.0
 10
-1336.81917055905
 20
-792.7822976270999
 30
0.0
 10
-1337.273216374502
 20
-793.0738565138108
 30
0.0
  0
SPLINE
  5
34EB5
330
2A44A
100
AcDbEntity
  8
0
100
AcDbSpline
210
0.0
220
0.0
230
1.0
 70
     8
 71
     3
 72
     9
 73
     5
 74
     0
 42
0.000000001
 43
0.0000000001
 40
0.0
 40
0.0
 40
0.0
 40
0.0
 40
0.5912182786347855
 40
1.0
 40
1.0
 40
1.0
 40
1.0
 10
-1337.273216374502
 20
-793.0738565138108
 30
0.0
 10
-1337.47928981913
 20
-792.9502255961579
 30
0.0
 10
-1337.82784711531
 20
-792.7411134592276
 30
0.0
 10
-1338.168557585879
 20
-792.5194759962923
 30
0.0
 10
-1338.307833798513
 20
-792.4288746526963
 30
0.0
  0
SPLINE
  5
34EB6
330
2A44A
100
AcDbEntity
  8
0
100
AcDbSpline
210
0.0
220
0.0
230
1.0
 70
     8
 71
     3
 72
    10
 73
     6
 74
     0
 42
0.000000001
 43
0.0000000001
 40
0.0
 40
0.0
 40
0.0
 40
0.0
 40
0.2801547833022535
 40
0.5599846461923917
 40
1.0
 40
1.0
 40
1.0
 40
1.0
 10
-1338.307833798513
 20
-792.4288746526963
 30
0.0
 10
-1340.898011383884
 20
-790.6866515349848
 30
0.0
 10
-1346.075362495314
 20
-787.2042259106183
 30
0.0
 10
-1355.582038605724
 20
-781.380386829116
 30
0.0
 10
-1362.702977526693
 20
-777.6834274764133
 30
0.0
 10
-1367.055750020132
 20
-775.4236098936253
 30
0.0
  0
SPLINE
  5
34EB7
330
2A44A
100
AcDbEntity
  8
0
100
AcDbSpline
210
0.0
220
0.0
230
1.0
 70
     8
 71
     3
 72
    10
 73
     6
 74
     0
 42
0.000000001
 43
0.0000000001
 40
0.0
 40
0.0
 40
0.0
 40
0.0
 40
0.2801744259922792
 40
0.5598943659417172
 40
1.0
 40
1.0
 40
1.0
 40
1.0
 10
-1367.055750020132
 20
-775.4236098936253
 30
0.0
 10
-1369.019727405997
 20
-774.4782865293982
 30
0.0
 10
-1372.944496304168
 20
-772.5891732609397
 30
0.0
 10
-1380.100488831544
 20
-769.5150260637038
 30
0.0
 10
-1385.454885165665
 20
-767.8573852515564
 30
0.0
 10
-1388.728594906912
 20
-766.8438938072377
 30
0.0
  0
SPLINE
  5
34EB8
330
2A44A
100
AcDbEntity
  8
0
100
AcDbSpline
210
0.0
220
0.0
230
1.0
 70
     8
 71
     3
 72
     9
 73
     5
 74
     0
 42
0.000000001
 43
0.0000000001
 40
0.0
 40
0.0
 40
0.0
 40
0.0
 40
0.5596395963281244
 40
1.0
 40
1.0
 40
1.0
 40
1.0
 10
-1388.728594906912
 20
-766.8438938072377
 30
0.0
 10
-1390.176512993166
 20
-766.4731587540464
 30
0.0
 10
-1392.763746090604
 20
-765.8107055330783
 30
0.0
 10
-1395.42556129954
 20
-765.6145052212032
 30
0.0
 10
-1396.597719319448
 20
-765.528106372667
 30
0.0
  0
SPLINE
  5
34EB9
330
2A44A
100
AcDbEntity
  8
0
100
AcDbSpline
210
0.0
220
0.0
230
1.0
 70
     8
 71
     3
 72
     9
 73
     5
 74
     0
 42
0.000000001
 43
0.0000000001
 40
0.0
 40
0.0
 40
0.0
 40
0.0
 40
0.5594276725116123
 40
1.0
 40
1.0
 40
1.0
 40
1.0
 10
-1396.597719319448
 20
-765.528106372667
 30
0.0
 10
-1397.347390709467
 20
-765.5206529055377
 30
0.0
 10
-1398.687459188099
 20
-765.5073295261773
 30
0.0
 10
-1399.968449211439
 20
-765.8927988213199
 30
0.0
 10
-1400.53281796752
 20
-766.0626259258515
 30
0.0
  0
SPLINE
  5
34EBA
330
2A44A
100
AcDbEntity
  8
0
100
AcDbSpline
210
0.0
220
0.0
230
1.0
 70
     8
 71
     3
 72
    11
 73
     7
 74
     0
 42
0.000000001
 43
0.0000000001
 40
0.0
 40
0.0
 40
0.0
 40
0.0
 40
0.2938392248128707
 40
0.5579130205430976
 40
0.7679042910603275
 40
1.0
 40
1.0
 40
1.0
 40
1.0
 10
-1400.53281796752
 20
-766.0626259258515
 30
0.0
 10
-1401.080573483741
 20
-766.3178465637557
 30
0.0
 10
-1402.12059778539
 20
-766.8024344096648
 30
0.0
 10
-1403.125759360984
 20
-768.0718927594443
 30
0.0
 10
-1403.54820989741
 20
-769.4776610764184
 30
0.0
 10
-1403.466605018235
 20
-770.3801815571005
 30
0.0
 10
-1403.423762448416
 20
-770.8540049007515
 30
0.0
  0
SPLINE
  5
34EBB
330
2A44A
100
AcDbEntity
  8
0
100
AcDbSpline
210
0.0
220
0.0
230
1.0
 70
     8
 71
     3
 72
     9
 73
     5
 74
     0
 42
0.000000001
 43
0.0000000001
 40
0.0
 40
0.0
 40
0.0
 40
0.0
 40
0.5591276622267496
 40
1.0
 40
1.0
 40
1.0
 40
1.0
 10
-1403.423762448416
 20
-770.8540049007515
 30
0.0
 10
-1403.290713723218
 20
-771.4671503923473
 30
0.0
 10
-1403.052756036304
 20
-772.5637612971495
 30
0.0
 10
-1402.598316383803
 20
-773.5887561481959
 30
0.0
 10
-1402.397966511831
 20
-774.0406480243782
 30
0.0
  0
SPLINE
  5
34EBC
330
2A44A
100
AcDbEntity
  8
0
100
AcDbSpline
210
0.0
220
0.0
230
1.0
 70
     8
 71
     3
 72
    10
 73
     6
 74
     0
 42
0.000000001
 43
0.0000000001
 40
0.0
 40
0.0
 40
0.0
 40
0.0
 40
0.2806302525149743
 40
0.5598406097747663
 40
1.0
 40
1.0
 40
1.0
 40
1.0
 10
-1402.397966511831
 20
-774.0406480243782
 30
0.0
 10
-1401.982230617948
 20
-774.8388707137219
 30
0.0
 10
-1401.152862314768
 20
-776.4312773524744
 30
0.0
 10
-1399.260705707034
 20
-779.0272182771095
 30
0.0
 10
-1397.742530376148
 20
-780.7606271001731
 30
0.0
 10
-1396.813607342825
 20
-781.8212446382622
 30
0.0
  0
SPLINE
  5
34EBD
330
2A44A
100
AcDbEntity
  8
0
100
AcDbSpline
210
0.0
220
0.0
230
1.0
 70
     8
 71
     3
 72
    10
 73
     6
 74
     0
 42
0.000000001
 43
0.0000000001
 40
0.0
 40
0.0
 40
0.0
 40
0.0
 40
0.2803359197688917
 40
0.5600430649385008
 40
0.9999999999999998
 40
0.9999999999999998
 40
0.9999999999999998
 40
0.9999999999999998
 10
-1396.813607342825
 20
-781.8212446382622
 30
0.0
 10
-1395.272568679989
 20
-783.4792797582504
 30
0.0
 10
-1392.193947800311
 20
-786.7916311370373
 30
0.0
 10
-1386.242770971199
 20
-792.2568458682016
 30
0.0
 10
-1381.723648163803
 20
-795.9083906020333
 30
0.0
 10
-1378.960943348989
 20
-798.1407132557087
 30
0.0
  0
SPLINE
  5
34EBE
330
2A44A
100
AcDbEntity
  8
0
100
AcDbSpline
210
0.0
220
0.0
230
1.0
 70
     8
 71
     3
 72
    10
 73
     6
 74
     0
 42
0.000000001
 43
0.0000000001
 40
0.0
 40
0.0
 40
0.0
 40
0.0
 40
0.2438804758581676
 40
0.5201261566320518
 40
0.9999999999999998
 40
0.9999999999999998
 40
0.9999999999999998
 40
0.9999999999999998
 10
-1378.960943348989
 20
-798.1407132557087
 30
0.0
 10
-1378.352820970489
 20
-798.6233923048875
 30
0.0
 10
-1377.055872724064
 20
-799.6528063974055
 30
0.0
 10
-1374.518459108185
 20
-801.5756585103899
 30
0.0
 10
-1372.575720314336
 20
-802.9968536228862
 30
0.0
 10
-1371.342754490957
 20
-803.8988199642281
 30
0.0
  0
ARC
  5
34EBF
330
2A44A
100
AcDbEntity
  8
0
100
AcDbCircle
 10
-1369.861104175761
 20
-801.8571593707111
 30
0.0
 40
2.522629080272041
100
AcDbArc
 50
234.0312493598586
 51
53.02439070047004
  0
SPLINE
  5
34EC0
330
2A44A
100
AcDbEntity
  8
0
100
AcDbSpline
210
0.0
220
0.0
230
1.0
 70
     8
 71
     3
 72
    11
 73
     7
 74
     0
 42
0.000000001
 43
0.0000000001
 40
0.0
 40
0.0
 40
0.0
 40
0.0
 40
0.304196226487683
 40
0.5956671970523571
 40
0.808145144968236
 40
1.0
 40
1.0
 40
1.0
 40
1.0
 10
-1368.343806393728
 20
-799.8418447187523
 30
0.0
 10
-1369.535451352734
 20
-798.9370936898722
 30
0.0
 10
-1371.868891911195
 20
-797.1654395321839
 30
0.0
 10
-1374.974078848427
 20
-794.683876615034
 30
0.0
 10
-1377.602900697086
 20
-792.491588065519
 30
0.0
 10
-1379.072875320031
 20
-791.1519199958802
 30
0.0
 10
-1379.770374425039
 20
-790.5162510088066
 30
0.0
  0
SPLINE
  5
34EC1
330
2A44A
100
AcDbEntity
  8
0
100
AcDbSpline
210
0.0
220
0.0
230
1.0
 70
     8
 71
     3
 72
    18
 73
    14
 74
     0
 42
0.000000001
 43
0.0000000001
 40
0.0
 40
0.0
 40
0.0
 40
0.0
 40
0.2432024043216812
 40
0.4544673005247749
 40
0.6309037803014068
 40
0.7270427959550787
 40
0.8063789237396914
 40
0.8568835185776922
 40
0.8974068435863962
 40
0.9253859596967661
 40
0.9491890609573484
 40
0.9726136145236832
 40
1.0
 40
1.0
 40
1.0
 40
1.0
 10
-1379.770374425039
 20
-790.5162510088066
 30
0.0
 10
-1380.907742282805
 20
-789.4595334360656
 30
0.0
 10
-1383.03311806378
 20
-787.4848671738309
 30
0.0
 10
-1385.772810682036
 20
-784.5297904304334
 30
0.0
 10
-1387.711654607781
 20
-782.1213248502336
 30
0.0
 10
-1388.960036963828
 20
-780.2521107112934
 30
0.0
 10
-1389.649424628114
 20
-778.9815549685244
 30
0.0
 10
-1390.044175684445
 20
-777.9655094313584
 30
0.0
 10
-1390.202013303256
 20
-777.2171424998396
 30
0.0
 10
-1390.177323802716
 20
-776.6202090305396
 30
0.0
 10
-1389.981403504287
 20
-776.1666122810366
 30
0.0
 10
-1389.597190266409
 20
-775.8515436194447
 30
0.0
 10
-1389.27640623098
 20
-775.7832518561427
 30
0.0
 10
-1389.103508122549
 20
-775.7464435508827
 30
0.0
  0
SPLINE
  5
34EC2
330
2A44A
100
AcDbEntity
  8
0
100
AcDbSpline
210
0.0
220
0.0
230
1.0
 70
     8
 71
     3
 72
    11
 73
     7
 74
     0
 42
0.000000001
 43
0.0000000001
 40
0.0
 40
0.0
 40
0.0
 40
0.0
 40
0.2741367462798156
 40
0.5817928139874228
 40
0.8119598388711676
 40
0.9999999999999998
 40
0.9999999999999998
 40
0.9999999999999998
 40
0.9999999999999998
 10
-1389.103508122549
 20
-775.7464435508827
 30
0.0
 10
-1388.07426654084
 20
-775.7254019796837
 30
0.0
 10
-1385.889935676001
 20
-775.6807460366854
 30
0.0
 10
-1382.920661300006
 20
-776.4281058729775
 30
0.0
 10
-1380.323057865367
 20
-777.2052434047891
 30
0.0
 10
-1378.851788148946
 20
-777.738187955083
 30
0.0
 10
-1378.190255292043
 20
-777.9778179338554
 30
0.0
  0
SPLINE
  5
34EC3
330
2A44A
100
AcDbEntity
  8
0
100
AcDbSpline
210
0.0
220
0.0
230
1.0
 70
     8
 71
     3
 72
     9
 73
     5
 74
     0
 42
0.000000001
 43
0.0000000001
 40
0.0
 40
0.0
 40
0.0
 40
0.0
 40
0.5599031243316177
 40
1.0
 40
1.0
 40
1.0
 40
1.0
 10
-1378.190255292043
 20
-777.9778179338554
 30
0.0
 10
-1374.673649691562
 20
-779.4141691875138
 30
0.0
 10
-1368.392910314251
 20
-781.9795259273469
 30
0.0
 10
-1362.421430500537
 20
-785.1965728812956
 30
0.0
 10
-1359.793400891409
 20
-786.6123851945976
 30
0.0
  0
SPLINE
  5
34EC4
330
2A44A
100
AcDbEntity
  8
0
100
AcDbSpline
210
0.0
220
0.0
230
1.0
 70
     8
 71
     3
 72
     9
 73
     5
 74
     0
 42
0.000000001
 43
0.0000000001
 40
0.0
 40
0.0
 40
0.0
 40
0.0
 40
0.5599867647886933
 40
1.0
 40
1.0
 40
1.0
 40
1.0
 10
-1359.793400891409
 20
-786.6123851945976
 30
0.0
 10
-1355.667429895453
 20
-788.9666243668125
 30
0.0
 10
-1348.299450408427
 20
-793.170722249526
 30
0.0
 10
-1341.260475189127
 20
-797.9034681238791
 30
0.0
 10
-1338.163232930288
 20
-799.9859389475041
 30
0.0
  0
SPLINE
  5
34EC5
330
2A44A
100
AcDbEntity
  8
0
100
AcDbSpline
210
0.0
220
0.0
230
1.0
 70
     8
 71
     3
 72
    11
 73
     7
 74
     0
 42
0.000000001
 43
0.0000000001
 40
0.0
 40
0.0
 40
0.0
 40
0.0
 40
0.2980818464434952
 40
0.5523060888786411
 40
0.7575066614133331
 40
1.0
 40
1.0
 40
1.0
 40
1.0
 10
-1338.163232930288
 20
-799.9859389475041
 30
0.0
 10
-1337.916453173318
 20
-800.1410532743266
 30
0.0
 10
-1337.459203045517
 20
-800.4284595293302
 30
0.0
 10
-1336.712181302158
 20
-800.5655207118051
 30
0.0
 10
-1336.03238130721
 20
-800.412046162828
 30
0.0
 10
-1335.660589559025
 20
-800.1816774533818
 30
0.0
 10
-1335.459208615408
 20
-800.0568982771165
 30
0.0
  0
SPLINE
  5
34EC6
330
2A44A
100
AcDbEntity
  8
0
100
AcDbSpline
210
0.0
220
0.0
230
1.0
 70
     8
 71
     3
 72
    11
 73
     7
 74
     0
 42
0.000000001
 43
0.0000000001
 40
0.0
 40
0.0
 40
0.0
 40
0.0
 40
0.1723427998713892
 40
0.428418060457383
 40
0.6883583340543784
 40
1.0
 40
1.0
 40
1.0
 40
1.0
 10
-1335.459208615408
 20
-800.0568982771165
 30
0.0
 10
-1335.069890068546
 20
-799.7948114836999
 30
0.0
 10
-1334.102103210745
 20
-799.1433034672318
 30
0.0
 10
-1332.533531701447
 20
-798.1169197990693
 30
0.0
 10
-1330.645578426884
 20
-796.8859393160692
 30
0.0
 10
-1329.339070845068
 20
-796.0399325695343
 30
0.0
 10
-1328.626728184805
 20
-795.5786672046833
 30
0.0
  0
ARC
  5
34EC7
330
2A44A
100
AcDbEntity
  8
0
100
AcDbCircle
 10
-1328.219281421356
 20
-796.2083457034696
 30
0.0
 40
0.7500000000200189
100
AcDbArc
 50
315.4734086321082
 51
122.9047114261318
  0
SPLINE
  5
34EC8
330
2A44A
100
AcDbEntity
  8
0
100
AcDbSpline
210
0.0
220
0.0
230
1.0
 70
     8
 71
     3
 72
    16
 73
    12
 74
     0
 42
0.000000001
 43
0.0000000001
 40
0.0
 40
0.0
 40
0.0
 40
0.0
 40
0.1923375902331617
 40
0.3644109620731693
 40
0.5162186945183814
 40
0.6477606097157246
 40
0.7590368025873165
 40
0.8485995023714053
 40
0.9186142097233521
 40
0.9690810441281932
 40
1.0
 40
1.0
 40
1.0
 40
1.0
 10
-1327.684617169485
 20
-796.7342820575813
 30
0.0
 10
-1330.325878371535
 20
-799.4194697654911
 30
0.0
 10
-1335.330123951186
 20
-804.5069403675315
 30
0.0
 10
-1342.419958032049
 20
-811.712883411894
 30
0.0
 10
-1348.675518633528
 20
-818.0694808830393
 30
0.0
 10
-1354.096829358132
 20
-823.5766682795601
 30
0.0
 10
-1358.664058296701
 20
-828.2141815381491
 30
0.0
 10
-1362.386762851842
 20
-831.9923388367914
 30
0.0
 10
-1365.27542609255
 20
-834.9205406523998
 30
0.0
 10
-1367.358154695765
 20
-837.0306381806603
 30
0.0
 10
-1368.480979256121
 20
-838.1617113272387
 30
0.0
 10
-1368.907547124014
 20
-838.5914128831155
 30
0.0
  0
SPLINE
  5
34EC9
330
2A44A
100
AcDbEntity
  8
0
100
AcDbSpline
210
0.0
220
0.0
230
1.0
 70
     8
 71
     3
 72
     9
 73
     5
 74
     0
 42
0.000000001
 43
0.0000000001
 40
0.0
 40
0.0
 40
0.0
 40
0.0
 40
0.5601297898869397
 40
1.0
 40
1.0
 40
1.0
 40
1.0
 10
-1368.907547124014
 20
-838.5914128831155
 30
0.0
 10
-1369.355027672129
 20
-839.0343114021179
 30
0.0
 10
-1370.153914923307
 20
-839.825018354344
 30
0.0
 10
-1370.926502900482
 20
-840.6414079518526
 30
0.0
 10
-1371.266341336355
 20
-841.0005134156399
 30
0.0
  0
SPLINE
  5
34ECA
330
2A44A
100
AcDbEntity
  8
0
100
AcDbSpline
210
0.0
220
0.0
230
1.0
 70
     8
 71
     3
 72
    11
 73
     7
 74
     0
 42
0.000000001
 43
0.0000000001
 40
0.0
 40
0.0
 40
0.0
 40
0.0
 40
0.2869324926808883
 40
0.561803447457814
 40
0.7777734121686342
 40
1.0
 40
1.0
 40
1.0
 40
1.0
 10
-1371.266341336355
 20
-841.0005134156399
 30
0.0
 10
-1371.550391631601
 20
-841.3910113662513
 30
0.0
 10
-1372.10655184069
 20
-842.1555922362477
 30
0.0
 10
-1372.253089450642
 20
-843.4860219800556
 30
0.0
 10
-1371.997263185032
 20
-844.6650665104115
 30
0.0
 10
-1371.565601101079
 20
-845.2584181665461
 30
0.0
 10
-1371.346688397512
 20
-845.5593299678021
 30
0.0
  0
SPLINE
  5
34ECB
330
2A44A
100
AcDbEntity
  8
0
100
AcDbSpline
210
0.0
220
0.0
230
1.0
 70
     8
 71
     3
 72
    11
 73
     7
 74
     0
 42
0.000000001
 43
0.0000000001
 40
0.0
 40
0.0
 40
0.0
 40
0.0
 40
0.2811504311150174
 40
0.5535009256916182
 40
0.7714514481460862
 40
1.0
 40
1.0
 40
1.0
 40
1.0
 10
-1371.346688397512
 20
-845.5593299678021
 30
0.0
 10
-1371.003409376681
 20
-845.8660450264087
 30
0.0
 10
-1370.327595880481
 20
-846.4698750407714
 30
0.0
 10
-1369.063623929534
 20
-846.7387992413224
 30
0.0
 10
-1367.890037221245
 20
-846.6091302389632
 30
0.0
 10
-1367.25281828842
 20
-846.259756150941
 30
0.0
 10
-1366.926646359548
 20
-846.0809227636582
 30
0.0
  0
SPLINE
  5
34ECC
330
2A44A
100
AcDbEntity
  8
0
100
AcDbSpline
210
0.0
220
0.0
230
1.0
 70
     8
 71
     3
 72
     9
 73
     5
 74
     0
 42
0.000000001
 43
0.0000000001
 40
0.0
 40
0.0
 40
0.0
 40
0.0
 40
0.5599886909949769
 40
1.0
 40
1.0
 40
1.0
 40
1.0
 10
-1366.926646359548
 20
-846.0809227636582
 30
0.0
 10
-1366.54023769762
 20
-845.8198184157973
 30
0.0
 10
-1365.850208294978
 20
-845.353551235663
 30
0.0
 10
-1365.159529745048
 20
-844.8882462318524
 30
0.0
 10
-1364.855623372183
 20
-844.6835067680458
 30
0.0
  0
SPLINE
  5
34ECD
330
2A44A
100
AcDbEntity
  8
0
100
AcDbSpline
210
0.0
220
0.0
230
1.0
 70
     8
 71
     3
 72
    16
 73
    12
 74
     0
 42
0.000000001
 43
0.0000000001
 40
0.0
 40
0.0
 40
0.0
 40
0.0
 40
0.0397611784947959
 40
0.0977464507128784
 40
0.1739521279695575
 40
0.2683800586912091
 40
0.3810320175362131
 40
0.5094068939388171
 40
0.6553610810565642
 40
0.818892658803943
 40
1.0
 40
1.0
 40
1.0
 40
1.0
 10
-1364.855623372183
 20
-844.6835067680458
 30
0.0
 10
-1364.236125371615
 20
-844.273171318151
 30
0.0
 10
-1362.713189355352
 20
-843.26442773083
 30
0.0
 10
-1360.001878444331
 20
-841.4708340292945
 30
0.0
 10
-1356.438347575829
 20
-839.1138141258434
 30
0.0
 10
-1352.022294957503
 20
-836.1938261626001
 30
0.0
 10
-1346.792668907575
 20
-832.7365897244181
 30
0.0
 10
-1340.759653027249
 20
-828.7484884653039
 30
0.0
 10
-1333.933133004051
 20
-824.2364820123711
 30
0.0
 10
-1326.28432407049
 20
-819.1813227445182
 30
0.0
 10
-1320.910994154015
 20
-815.6302291727351
 30
0.0
 10
-1318.087315686331
 20
-813.7641337326222
 30
0.0
  0
ARC
  5
34ECE
330
2A44A
100
AcDbEntity
  8
0
100
AcDbCircle
 10
-1317.627272942154
 20
-814.4602794389884
 30
0.0
 40
0.8344278177376263
100
AcDbArc
 50
330.7464939632735
 51
123.4590744011197
  0
SPLINE
  5
34ECF
330
2A44A
100
AcDbEntity
  8
0
100
AcDbSpline
210
0.0
220
0.0
230
1.0
 70
     8
 71
     3
 72
    13
 73
     9
 74
     0
 42
0.000000001
 43
0.0000000001
 40
0.0
 40
0.0
 40
0.0
 40
0.0
 40
0.1896349209947578
 40
0.3314594683224473
 40
0.4392693139460453
 40
0.5338245062070781
 40
0.7157883427283104
 40
1.0
 40
1.0
 40
1.0
 40
1.0
 10
-1316.899275906667
 20
-814.8680415561848
 30
0.0
 10
-1316.995126431393
 20
-815.0398450364319
 30
0.0
 10
-1317.162661839968
 20
-815.340137250112
 30
0.0
 10
-1317.358550247321
 20
-815.7515191028233
 30
0.0
 10
-1317.453520819421
 20
-816.1012318676894
 30
0.0
 10
-1317.399213758668
 20
-816.5079031594014
 30
0.0
 10
-1317.040075470395
 20
-816.9875646910458
 30
0.0
 10
-1316.704360558091
 20
-817.331415021059
 30
0.0
 10
-1316.499686368093
 20
-817.5410491040329
 30
0.0
  0
SPLINE
  5
34ED0
330
2A44A
100
AcDbEntity
  8
0
100
AcDbSpline
210
0.0
220
0.0
230
1.0
 70
     8
 71
     3
 72
    11
 73
     7
 74
     0
 42
0.000000001
 43
0.0000000001
 40
0.0
 40
0.0
 40
0.0
 40
0.0
 40
0.2348496486805635
 40
0.5170965450993985
 40
0.7542542289237111
 40
1.0
 40
1.0
 40
1.0
 40
1.0
 10
-1316.499686368093
 20
-817.5410491040329
 30
0.0
 10
-1315.66136584922
 20
-818.3237835092823
 30
0.0
 10
-1313.815535351074
 20
-820.0472234163044
 30
0.0
 10
-1311.154358443593
 20
-822.5893038341109
 30
0.0
 10
-1308.822481961797
 20
-825.5624848585593
 30
0.0
 10
-1307.974294108331
 20
-827.7761079723877
 30
0.0
 10
-1307.542657979116
 20
-828.9026033690698
 30
0.0
  0
SPLINE
  5
34ED1
330
2A44A
100
AcDbEntity
  8
0
100
AcDbSpline
210
0.0
220
0.0
230
1.0
 70
     8
 71
     3
 72
    16
 73
    12
 74
     0
 42
0.000000001
 43
0.0000000001
 40
0.0
 40
0.0
 40
0.0
 40
0.0
 40
0.0417152017826677
 40
0.0777891929420822
 40
0.1121310306373572
 40
0.1484629744463319
 40
0.2300571719878321
 40
0.3340152508600598
 40
0.5404010275617624
 40
0.7598397717420999
 40
1.0
 40
1.0
 40
1.0
 40
1.0
 10
-1307.542657979116
 20
-828.9026033690698
 30
0.0
 10
-1307.533766717323
 20
-829.0570512953655
 30
0.0
 10
-1307.51718657268
 20
-829.345060918351
 30
0.0
 10
-1307.640135568647
 20
-829.7497266579465
 30
0.0
 10
-1307.880000560682
 20
-830.0708426389192
 30
0.0
 10
-1308.350154759326
 20
-830.3918404156956
 30
0.0
 10
-1309.161866537404
 20
-830.5912089355061
 30
0.0
 10
-1310.609212785952
 20
-830.6142651035933
 30
0.0
 10
-1312.548936777013
 20
-830.3200493476706
 30
0.0
 10
-1314.935910866414
 20
-829.7462017127418
 30
0.0
 10
-1316.554363190713
 20
-829.2440890786329
 30
0.0
 10
-1317.40007413207
 20
-828.9817136338406
 30
0.0
  0
ARC
  5
34ED2
330
2A44A
100
AcDbEntity
  8
0
100
AcDbCircle
 10
-1318.026737904023
 20
-830.9312205671467
 30
0.0
 40
2.047751736840637
100
AcDbArc
 50
72.17978452923446
 51
250.4434222922767
  0
LWPOLYLINE
  5
34ED3
330
2A44A
100
AcDbEntity
  8
0
100
AcDbPolyline
 90
        9
 70
   128
 43
0.0
 10
-1281.923747189626
 20
-968.2684086820609
 10
-1283.027386792288
 20
-969.3720054438763
 10
-1284.088587887869
 20
-970.4331916383035
 10
-1285.066580899343
 20
-971.4111883750611
 10
-1285.923814900503
 20
-972.2684074750741
 10
-1286.627268918142
 20
-972.9719099214726
 10
-1287.150001652822
 20
-973.4946612826043
 10
-1287.471985943899
 20
-973.8165673425992
 10
-1287.58058560668
 20
-973.9252638629277
  0
LINE
  5
34ED4
330
2A44A
100
AcDbEntity
  8
0
100
AcDbLine
 10
-1499.712681897268
 20
-761.7932346275429
 30
0.0
 11
-1287.58058560668
 21
-973.9252638629277
 31
0.0
  0
LWPOLYLINE
  5
34ED5
330
2A44A
100
AcDbEntity
  8
0
100
AcDbPolyline
 90
        9
 70
   128
 43
0.0
 10
-1499.712681897268
 20
-761.7932346275429
 10
-1499.603963025198
 20
-761.6845306566411
 10
-1499.282097943411
 20
-761.3626208713704
 10
-1498.75936520873
 20
-760.8398732355363
 10
-1498.055791981802
 20
-760.1363745144135
 10
-1497.198557980642
 20
-759.2791554144005
 10
-1496.220564969167
 20
-758.3011624029404
 10
-1495.159363873586
 20
-757.2399762085133
 10
-1494.055843480215
 20
-756.1363664081673
  0
LINE
  5
34ED6
330
2A44A
100
AcDbEntity
  8
0
100
AcDbLine
 10
-1494.055843480215
 20
-756.1363664081673
 30
0.0
 11
-1502.055859692678
 21
-756.1363664081673
 31
0.0
  0
LINE
  5
34ED7
330
2A44A
100
AcDbEntity
  8
0
100
AcDbLine
 10
-1502.055859692678
 20
-606.136375348864
 30
0.0
 11
-1502.055859692678
 21
-756.1363664081673
 31
0.0
  0
LINE
  5
34ED8
330
2A44A
100
AcDbEntity
  8
0
100
AcDbLine
 10
-1502.055859692678
 20
-606.136375348864
 30
0.0
 11
-1444.055771954641
 21
-606.136375348864
 31
0.0
  0
LINE
  5
34ED9
330
2A44A
100
AcDbEntity
  8
0
100
AcDbLine
 10
-1131.923771031484
 20
-918.2684079369883
 30
0.0
 11
-1131.923771031484
 21
-976.2684081307252
 31
0.0
  0
LINE
  5
34EDA
330
2A44A
100
AcDbEntity
  8
0
100
AcDbLine
 10
-1131.923771031484
 20
-976.2684081307252
 30
0.0
 11
-1281.923747189626
 21
-976.2684081307252
 31
0.0
  0
LINE
  5
34EDB
330
2A44A
100
AcDbEntity
  8
0
100
AcDbLine
 10
-1281.923747189626
 20
-976.2684081307252
 30
0.0
 11
-1281.923747189626
 21
-968.2684086820609
 31
0.0
  0
LINE
  5
34EDC
330
2A44A
100
AcDbEntity
  8
0
100
AcDbLine
 10
-1131.923771031484
 20
968.8637114503418
 30
0.0
 11
-1131.923771031484
 21
1026.863679979096
 31
0.0
  0
ARC
  5
34EDD
330
2A44A
100
AcDbEntity
  8
0
100
AcDbCircle
 10
-1181.923780568228
 20
968.8637230028744
 30
0.0
 40
50.00000000000027
100
AcDbArc
 50
314.9999999999263
 51
0.0
  0
LINE
  5
34EDE
330
2A44A
100
AcDbEntity
  8
0
100
AcDbLine
 10
-1408.700442441091
 20
671.376333329912
 30
0.0
 11
-1146.568393834219
 21
933.5083819367847
 31
0.0
  0
ARC
  5
34EDF
330
2A44A
100
AcDbEntity
  8
0
100
AcDbCircle
 10
-1444.055814924206
 20
706.7316886468961
 30
0.0
 40
50.00000000000338
100
AcDbArc
 50
270.0
 51
314.9999999999263
  0
LINE
  5
34EE0
330
2A44A
100
AcDbEntity
  8
0
100
AcDbLine
 10
-1494.055843480215
 20
806.7316866853198
 30
0.0
 11
-1494.055843480215
 21
656.7317105271849
 31
0.0
  0
LINE
  5
34EE1
330
2A44A
100
AcDbEntity
  8
0
100
AcDbLine
 10
-1281.923747189626
 20
1018.863663766626
 30
0.0
 11
-1494.055843480215
 21
806.7316866853198
 31
0.0
  0
LINE
  5
34EE2
330
2A44A
100
AcDbEntity
  8
0
100
AcDbLine
 10
-1131.923771031484
 20
1018.863663766626
 30
0.0
 11
-1281.923747189626
 21
1018.863663766626
 31
0.0
  0
SPLINE
  5
34EE3
330
2A44A
100
AcDbEntity
  8
0
100
AcDbSpline
210
0.0
220
0.0
230
1.0
 70
     8
 71
     3
 72
    10
 73
     6
 74
     0
 42
0.000000001
 43
0.0000000001
 40
0.0
 40
0.0
 40
0.0
 40
0.0
 40
0.599296363675263
 40
0.8113596857262875
 40
1.0
 40
1.0
 40
1.0
 40
1.0
 10
-1358.648276455984
 20
843.5201502778491
 30
0.0
 10
-1359.318763681243
 20
841.5437806288155
 30
0.0
 10
-1360.226505388644
 20
838.8680649820871
 30
0.0
 10
-1361.06404652504
 20
835.4851406879371
 30
0.0
 10
-1361.272597918018
 20
834.1054341268227
 30
0.0
 10
-1361.370778210745
 20
833.4559060075171
 30
0.0
  0
SPLINE
  5
34EE4
330
2A44A
100
AcDbEntity
  8
0
100
AcDbSpline
210
0.0
220
0.0
230
1.0
 70
     8
 71
     3
 72
    17
 73
    13
 74
     0
 42
0.000000001
 43
0.0000000001
 40
0.0
 40
0.0
 40
0.0
 40
0.0
 40
0.1480031205434346
 40
0.2612867087137596
 40
0.3496540535619965
 40
0.4332749649238749
 40
0.5141809137594797
 40
0.5996957360515857
 40
0.6900574214929661
 40
0.8111328692603159
 40
0.9199379330496343
 40
1.0
 40
1.0
 40
1.0
 40
1.0
 10
-1361.370778210745
 20
833.4559060075171
 30
0.0
 10
-1361.480932904167
 20
832.6091710860255
 30
0.0
 10
-1361.675401488312
 20
831.1143338151868
 30
0.0
 10
-1361.491083283436
 20
829.0899679443736
 30
0.0
 10
-1360.897177115745
 20
827.5277215903825
 30
0.0
 10
-1359.849938268155
 20
826.4470689181889
 30
0.0
 10
-1358.475792389297
 20
825.9170299866946
 30
0.0
 10
-1356.987886935261
 20
825.8160894077427
 30
0.0
 10
-1355.284901139988
 20
826.0292186842907
 30
0.0
 10
-1353.506147475848
 20
826.533375312827
 30
0.0
 10
-1351.84313735173
 20
827.1889686920166
 30
0.0
 10
-1350.878738435269
 20
827.6918639243868
 30
0.0
 10
-1350.469923146353
 20
827.9050446488819
 30
0.0
  0
SPLINE
  5
34EE5
330
2A44A
100
AcDbEntity
  8
0
100
AcDbSpline
210
0.0
220
0.0
230
1.0
 70
     8
 71
     3
 72
    10
 73
     6
 74
     0
 42
0.000000001
 43
0.0000000001
 40
0.0
 40
0.0
 40
0.0
 40
0.0
 40
0.2823485772279326
 40
0.555975576623871
 40
1.0
 40
1.0
 40
1.0
 40
1.0
 10
-1350.469923146353
 20
827.9050446488819
 30
0.0
 10
-1349.51017103457
 20
828.5491480617475
 30
0.0
 10
-1347.620312976876
 20
829.8174589202517
 30
0.0
 10
-1344.457208297645
 20
832.4226014241922
 30
0.0
 10
-1342.34872319339
 20
834.4674796421585
 30
0.0
 10
-1341.044163830862
 20
835.7326842286621
 30
0.0
  0
LINE
  5
34EE6
330
2A44A
100
AcDbEntity
  8
0
100
AcDbLine
 10
-1341.044163830862
 20
835.7326842286621
 30
0.0
 11
-1329.635596402273
 21
828.4176445939429
 31
0.0
  0
SPLINE
  5
34EE7
330
2A44A
100
AcDbEntity
  8
0
100
AcDbSpline
210
0.0
220
0.0
230
1.0
 70
     8
 71
     3
 72
     9
 73
     5
 74
     0
 42
0.000000001
 43
0.0000000001
 40
0.0
 40
0.0
 40
0.0
 40
0.0
 40
0.5587081814953099
 40
1.0
 40
1.0
 40
1.0
 40
1.0
 10
-1329.635596402273
 20
828.4176445939429
 30
0.0
 10
-1329.282180582719
 20
828.2165371711363
 30
0.0
 10
-1328.649621706245
 20
827.8565864321191
 30
0.0
 10
-1327.925408980016
 20
827.844551873377
 30
0.0
 10
-1327.605819829092
 20
827.8392411210498
 30
0.0
  0
SPLINE
  5
34EE8
330
2A44A
100
AcDbEntity
  8
0
100
AcDbSpline
210
0.0
220
0.0
230
1.0
 70
     8
 71
     3
 72
    14
 73
    10
 74
     0
 42
0.000000001
 43
0.0000000001
 40
0.0
 40
0.0
 40
0.0
 40
0.0
 40
0.1539289514322376
 40
0.3114315662346722
 40
0.4714844831778175
 40
0.5930496083001101
 40
0.7177750750430386
 40
0.850680181817027
 40
1.0
 40
1.0
 40
1.0
 40
1.0
 10
-1327.605819829092
 20
827.8392411210498
 30
0.0
 10
-1327.235880897373
 20
827.8942703881021
 30
0.0
 10
-1326.487414414259
 20
828.0056064991349
 30
0.0
 10
-1325.514466290646
 20
828.6470691317209
 30
0.0
 10
-1324.823671551763
 20
829.4633230967429
 30
0.0
 10
-1324.431130519333
 20
830.3720532593125
 30
0.0
 10
-1324.312380068404
 20
831.2867584500327
 30
0.0
 10
-1324.468451846413
 20
832.2737530798022
 30
0.0
 10
-1324.806738072184
 20
832.8677111748165
 30
0.0
 10
-1324.985718854055
 20
833.1819630601295
 30
0.0
  0
SPLINE
  5
34EE9
330
2A44A
100
AcDbEntity
  8
0
100
AcDbSpline
210
0.0
220
0.0
230
1.0
 70
     8
 71
     3
 72
    14
 73
    10
 74
     0
 42
0.000000001
 43
0.0000000001
 40
0.0
 40
0.0
 40
0.0
 40
0.0
 40
0.0494267237441255
 40
0.1283439616022583
 40
0.236746164465054
 40
0.3746412677912885
 40
0.5507281156674174
 40
0.7591820827140829
 40
1.0
 40
1.0
 40
1.0
 40
1.0
 10
-1324.985718854055
 20
833.1819630601295
 30
0.0
 10
-1325.36626469835
 20
833.7532736114498
 30
0.0
 10
-1326.354409522195
 20
835.2367678410137
 30
0.0
 10
-1328.176052117422
 20
837.9739949087797
 30
0.0
 10
-1330.678046910434
 20
841.7343257669035
 30
0.0
 10
-1333.92724854801
 20
846.6184274881435
 30
0.0
 10
-1337.945597546662
 20
852.659780173677
 30
0.0
 10
-1342.755614718619
 20
859.8912928162008
 30
0.0
 10
-1346.210959707816
 20
865.0867618300454
 30
0.0
 10
-1348.063087590322
 20
867.8716279008423
 30
0.0
  0
SPLINE
  5
34EEA
330
2A44A
100
AcDbEntity
  8
0
100
AcDbSpline
210
0.0
220
0.0
230
1.0
 70
     8
 71
     3
 72
    16
 73
    12
 74
     0
 42
0.000000001
 43
0.0000000001
 40
0.0
 40
0.0
 40
0.0
 40
0.0
 40
0.1889399478468085
 40
0.358472171249552
 40
0.508594176014953
 40
0.6393110097923128
 40
0.750616354646218
 40
0.8410441873309277
 40
0.9127505165201988
 40
0.9657366166571508
 40
1.0
 40
1.0
 40
1.0
 40
1.0
 10
-1348.063087590322
 20
867.8716279008423
 30
0.0
 10
-1345.076351503223
 20
864.9279809541894
 30
0.0
 10
-1339.409673903829
 20
859.343055561867
 30
0.0
 10
-1331.370908388191
 20
851.4182246838227
 30
0.0
 10
-1324.252845871633
 20
844.4001736321061
 30
0.0
 10
-1318.05594996336
 20
838.2885512622724
 30
0.0
 10
-1312.803127011015
 20
833.1065106762599
 30
0.0
 10
-1308.48383250532
 20
828.843133709326
 30
0.0
 10
-1305.087080780293
 20
825.4877126467818
 30
0.0
 10
-1302.577849058078
 20
823.0076444691203
 30
0.0
 10
-1301.203172023284
 20
821.6437126162473
 30
0.0
 10
-1300.66332829772
 20
821.1080885865577
 30
0.0
  0
SPLINE
  5
34EEB
330
2A44A
100
AcDbEntity
  8
0
100
AcDbSpline
210
0.0
220
0.0
230
1.0
 70
     8
 71
     3
 72
     9
 73
     5
 74
     0
 42
0.000000001
 43
0.0000000001
 40
0.0
 40
0.0
 40
0.0
 40
0.0
 40
0.5608034439010349
 40
1.0
 40
1.0
 40
1.0
 40
1.0
 10
-1300.66332829772
 20
821.1080885865577
 30
0.0
 10
-1300.4821912728
 20
820.9261383886678
 30
0.0
 10
-1300.159195708336
 20
820.6016928099471
 30
0.0
 10
-1299.805672944691
 20
820.3109542795264
 30
0.0
 10
-1299.650406964407
 20
820.1832629182227
 30
0.0
  0
SPLINE
  5
34EEC
330
2A44A
100
AcDbEntity
  8
0
100
AcDbSpline
210
0.0
220
0.0
230
1.0
 70
     8
 71
     3
 72
    11
 73
     7
 74
     0
 42
0.000000001
 43
0.0000000001
 40
0.0
 40
0.0
 40
0.0
 40
0.0
 40
0.2820330801110404
 40
0.5559877483645501
 40
0.7739901629900895
 40
1.0
 40
1.0
 40
1.0
 40
1.0
 10
-1299.650406964407
 20
820.1832629182227
 30
0.0
 10
-1299.285955942432
 20
819.9621580152651
 30
0.0
 10
-1298.567493047907
 20
819.5262814255384
 30
0.0
 10
-1297.375591129988
 20
819.4614218733823
 30
0.0
 10
-1296.319516927957
 20
819.7236087194815
 30
0.0
 10
-1295.77407787559
 20
820.1084756833569
 30
0.0
 10
-1295.49644006072
 20
820.3043795564136
 30
0.0
  0
SPLINE
  5
34EED
330
2A44A
100
AcDbEntity
  8
0
100
AcDbSpline
210
0.0
220
0.0
230
1.0
 70
     8
 71
     3
 72
    11
 73
     7
 74
     0
 42
0.000000001
 43
0.0000000001
 40
0.0
 40
0.0
 40
0.0
 40
0.0
 40
0.2821533477922262
 40
0.5601979780136678
 40
0.7787038646059851
 40
1.0
 40
1.0
 40
1.0
 40
1.0
 10
-1295.49644006072
 20
820.3043795564136
 30
0.0
 10
-1295.203094876742
 20
820.613486775108
 30
0.0
 10
-1294.620676201877
 20
821.2271999925851
 30
0.0
 10
-1294.287453821998
 20
822.3775444155672
 30
0.0
 10
-1294.28775959077
 20
823.4666901777945
 30
0.0
 10
-1294.540120199548
 20
824.0784989200674
 30
0.0
 10
-1294.667101033315
 20
824.3863440492114
 30
0.0
  0
SPLINE
  5
34EEE
330
2A44A
100
AcDbEntity
  8
0
100
AcDbSpline
210
0.0
220
0.0
230
1.0
 70
     8
 71
     3
 72
     9
 73
     5
 74
     0
 42
0.000000001
 43
0.0000000001
 40
0.0
 40
0.0
 40
0.0
 40
0.0
 40
0.559892101662204
 40
1.0
 40
1.0
 40
1.0
 40
1.0
 10
-1294.667101033315
 20
824.3863440492114
 30
0.0
 10
-1294.806082551302
 20
824.6287306721624
 30
0.0
 10
-1295.054311661071
 20
825.0616473398823
 30
0.0
 10
-1295.327797167141
 20
825.4790261857616
 30
0.0
 10
-1295.448160298452
 20
825.6627179124317
 30
0.0
  0
SPLINE
  5
34EEF
330
2A44A
100
AcDbEntity
  8
0
100
AcDbSpline
210
0.0
220
0.0
230
1.0
 70
     8
 71
     3
 72
     9
 73
     5
 74
     0
 42
0.000000001
 43
0.0000000001
 40
0.0
 40
0.0
 40
0.0
 40
0.0
 40
0.5600557918678496
 40
1.0
 40
1.0
 40
1.0
 40
1.0
 10
-1295.448160298452
 20
825.6627179124317
 30
0.0
 10
-1296.568519502405
 20
827.408444557097
 30
0.0
 10
-1298.56896163732
 20
830.5255030180905
 30
0.0
 10
-1300.572154410525
 20
833.6407944121292
 30
0.0
 10
-1301.453447468862
 20
835.0113488175903
 30
0.0
  0
SPLINE
  5
34EF0
330
2A44A
100
AcDbEntity
  8
0
100
AcDbSpline
210
0.0
220
0.0
230
1.0
 70
     8
 71
     3
 72
    16
 73
    12
 74
     0
 42
0.000000001
 43
0.0000000001
 40
0.0
 40
0.0
 40
0.0
 40
0.0
 40
0.0957636198416745
 40
0.2149643937821881
 40
0.3492337071062969
 40
0.4901898104295272
 40
0.6294609729807764
 40
0.7564964565009062
 40
0.8658866943929483
 40
0.9496988272529316
 40
1.0
 40
1.0
 40
1.0
 40
1.0
 10
-1301.453447468862
 20
835.0113488175903
 30
0.0
 10
-1302.009381765929
 20
835.8752843504534
 30
0.0
 10
-1303.257309521308
 20
837.8145946897767
 30
0.0
 10
-1305.284176240872
 20
840.9655632750345
 30
0.0
 10
-1307.573443262336
 20
844.5242085245535
 30
0.0
 10
-1309.978686576527
 20
848.2642655962973
 30
0.0
 10
-1312.342016629285
 20
851.9390101792287
 30
0.0
 10
-1314.521829193392
 20
855.3291549137556
 30
0.0
 10
-1316.379672349685
 20
858.2189828047321
 30
0.0
 10
-1317.792328870091
 20
860.4163707212411
 30
0.0
 10
-1318.569669375684
 20
861.6270665486281
 30
0.0
 10
-1318.861222394094
 20
862.081155870188
 30
0.0
  0
SPLINE
  5
34EF1
330
2A44A
100
AcDbEntity
  8
0
100
AcDbSpline
210
0.0
220
0.0
230
1.0
 70
     8
 71
     3
 72
     9
 73
     5
 74
     0
 42
0.000000001
 43
0.0000000001
 40
0.0
 40
0.0
 40
0.0
 40
0.0
 40
0.5911511779404063
 40
1.0
 40
1.0
 40
1.0
 40
1.0
 10
-1318.861222394094
 20
862.081155870188
 30
0.0
 10
-1318.73757215085
 20
862.2871773271599
 30
0.0
 10
-1318.528403586439
 20
862.6356862444136
 30
0.0
 10
-1318.306872756504
 20
862.9764517277489
 30
0.0
 10
-1318.216300137625
 20
863.1157732941993
 30
0.0
  0
SPLINE
  5
34EF2
330
2A44A
100
AcDbEntity
  8
0
100
AcDbSpline
210
0.0
220
0.0
230
1.0
 70
     8
 71
     3
 72
    10
 73
     6
 74
     0
 42
0.000000001
 43
0.0000000001
 40
0.0
 40
0.0
 40
0.0
 40
0.0
 40
0.280154298642356
 40
0.5599843874808048
 40
1.0
 40
1.0
 40
1.0
 40
1.0
 10
-1318.216300137625
 20
863.1157732941993
 30
0.0
 10
-1316.474084834474
 20
865.7059526926223
 30
0.0
 10
-1312.991670414565
 20
870.8833139928739
 30
0.0
 10
-1307.167788703424
 20
880.3899745448125
 30
0.0
 10
-1303.470806892081
 20
887.5109159036419
 30
0.0
 10
-1301.210975773916
 20
891.8636895158179
 30
0.0
  0
SPLINE
  5
34EF3
330
2A44A
100
AcDbEntity
  8
0
100
AcDbSpline
210
0.0
220
0.0
230
1.0
 70
     8
 71
     3
 72
    10
 73
     6
 74
     0
 42
0.000000001
 43
0.0000000001
 40
0.0
 40
0.0
 40
0.0
 40
0.0
 40
0.2801695129458167
 40
0.5598933918360151
 40
1.0
 40
1.0
 40
1.0
 40
1.0
 10
-1301.210975773916
 20
891.8636895158179
 30
0.0
 10
-1300.26564573359
 20
893.8276221940377
 30
0.0
 10
-1298.376489282869
 20
897.7523637441681
 30
0.0
 10
-1295.302518232864
 20
904.9084308714864
 30
0.0
 10
-1293.644786900746
 20
910.2628349963033
 30
0.0
 10
-1292.631244786367
 20
913.536534402605
 30
0.0
  0
SPLINE
  5
34EF4
330
2A44A
100
AcDbEntity
  8
0
100
AcDbSpline
210
0.0
220
0.0
230
1.0
 70
     8
 71
     3
 72
     9
 73
     5
 74
     0
 42
0.000000001
 43
0.0000000001
 40
0.0
 40
0.0
 40
0.0
 40
0.0
 40
0.5596234280537127
 40
1.0
 40
1.0
 40
1.0
 40
1.0
 10
-1292.631244786367
 20
913.536534402605
 30
0.0
 10
-1292.260556451387
 20
914.9844149620458
 30
0.0
 10
-1291.598167572745
 20
917.5716557508694
 30
0.0
 10
-1291.401944084638
 20
920.233461794478
 30
0.0
 10
-1291.315531857595
 20
921.4056588151489
 30
0.0
  0
SPLINE
  5
34EF5
330
2A44A
100
AcDbEntity
  8
0
100
AcDbSpline
210
0.0
220
0.0
230
1.0
 70
     8
 71
     3
 72
     9
 73
     5
 74
     0
 42
0.000000001
 43
0.0000000001
 40
0.0
 40
0.0
 40
0.0
 40
0.0
 40
0.5593960527291024
 40
1.0
 40
1.0
 40
1.0
 40
1.0
 10
-1291.315531857595
 20
921.4056588151489
 30
0.0
 10
-1291.30806117929
 20
922.1552907821733
 30
0.0
 10
-1291.294706279375
 20
923.49536453383
 30
0.0
 10
-1291.680211284831
 20
924.7763501460632
 30
0.0
 10
-1291.850066311941
 20
925.3407574632129
 30
0.0
  0
SPLINE
  5
34EF6
330
2A44A
100
AcDbEntity
  8
0
100
AcDbSpline
210
0.0
220
0.0
230
1.0
 70
     8
 71
     3
 72
    11
 73
     7
 74
     0
 42
0.000000001
 43
0.0000000001
 40
0.0
 40
0.0
 40
0.0
 40
0.0
 40
0.2938224373548706
 40
0.5578977554549539
 40
0.7678870741602447
 40
1.0
 40
1.0
 40
1.0
 40
1.0
 10
-1291.850066311941
 20
925.3407574632129
 30
0.0
 10
-1292.105278328665
 20
925.8884677047735
 30
0.0
 10
-1292.589864232279
 20
926.9284370044752
 30
0.0
 10
-1293.859268565829
 20
927.9335849037288
 30
0.0
 10
-1295.265048789406
 20
928.3560098118668
 30
0.0
 10
-1296.167591490368
 20
928.2744975740042
 30
0.0
 10
-1296.641445286855
 20
928.2317019441235
 30
0.0
  0
SPLINE
  5
34EF7
330
2A44A
100
AcDbEntity
  8
0
100
AcDbSpline
210
0.0
220
0.0
230
1.0
 70
     8
 71
     3
 72
     9
 73
     5
 74
     0
 42
0.000000001
 43
0.0000000001
 40
0.0
 40
0.0
 40
0.0
 40
0.0
 40
0.5591200767014812
 40
1.0
 40
1.0
 40
1.0
 40
1.0
 10
-1296.641445286855
 20
928.2317019441235
 30
0.0
 10
-1297.254570235403
 20
928.0986508800689
 30
0.0
 10
-1298.351159276113
 20
927.8606857816976
 30
0.0
 10
-1299.376136795639
 20
927.4062552885133
 30
0.0
 10
-1299.828028805837
 20
927.2059060075171
 30
0.0
  0
SPLINE
  5
34EF8
330
2A44A
100
AcDbEntity
  8
0
100
AcDbSpline
210
0.0
220
0.0
230
1.0
 70
     8
 71
     3
 72
    10
 73
     6
 74
     0
 42
0.000000001
 43
0.0000000001
 40
0.0
 40
0.0
 40
0.0
 40
0.0
 40
0.280629029156748
 40
0.5598316732821296
 40
1.0
 40
1.0
 40
1.0
 40
1.0
 10
-1299.828028805837
 20
927.2059060075171
 30
0.0
 10
-1300.626263676087
 20
926.7901736259283
 30
0.0
 10
-1302.218676137585
 20
925.9608219528946
 30
0.0
 10
-1304.814626751635
 20
924.0685994742507
 30
0.0
 10
-1306.548052376769
 20
922.5503892767429
 30
0.0
 10
-1307.608699925527
 20
921.6214276292285
 30
0.0
  0
SPLINE
  5
34EF9
330
2A44A
100
AcDbEntity
  8
0
100
AcDbSpline
210
0.0
220
0.0
230
1.0
 70
     8
 71
     3
 72
    10
 73
     6
 74
     0
 42
0.000000001
 43
0.0000000001
 40
0.0
 40
0.0
 40
0.0
 40
0.0
 40
0.2803329982877978
 40
0.5600385272465438
 40
1.0
 40
1.0
 40
1.0
 40
1.0
 10
-1307.608699925527
 20
921.6214276292285
 30
0.0
 10
-1309.266743569249
 20
920.0804372710608
 30
0.0
 10
-1312.579119657741
 20
917.0019057533481
 30
0.0
 10
-1318.044238477909
 20
911.0506549811889
 30
0.0
 10
-1321.695767206365
 20
906.5315033502756
 30
0.0
 10
-1323.928094037161
 20
903.7687636353858
 30
0.0
  0
SPLINE
  5
34EFA
330
2A44A
100
AcDbEntity
  8
0
100
AcDbSpline
210
0.0
220
0.0
230
1.0
 70
     8
 71
     3
 72
    10
 73
     6
 74
     0
 42
0.000000001
 43
0.0000000001
 40
0.0
 40
0.0
 40
0.0
 40
0.0
 40
0.2438721690897656
 40
0.5201176562576345
 40
1.0
 40
1.0
 40
1.0
 40
1.0
 10
-1323.928094037161
 20
903.7687636353858
 30
0.0
 10
-1324.410779787395
 20
903.1606862083263
 30
0.0
 10
-1325.440226411236
 20
901.8638108520153
 30
0.0
 10
-1327.362994691146
 20
899.3263575314685
 30
0.0
 10
-1328.784249838987
 20
897.3836489380538
 30
0.0
 10
-1329.686260350332
 20
896.1506939866577
 30
0.0
  0
ARC
  5
34EFB
330
2A44A
100
AcDbEntity
  8
0
100
AcDbCircle
 10
-1327.64456631324
 20
894.6690122544223
 30
0.0
 40
2.522629080271086
100
AcDbArc
 50
144.0312493595597
 51
323.0243907001732
  0
SPLINE
  5
34EFC
330
2A44A
100
AcDbEntity
  8
0
100
AcDbSpline
210
0.0
220
0.0
230
1.0
 70
     8
 71
     3
 72
    11
 73
     7
 74
     0
 42
0.000000001
 43
0.0000000001
 40
0.0
 40
0.0
 40
0.0
 40
0.0
 40
0.3041885884256772
 40
0.5956626312071722
 40
0.8081443677224097
 40
1.0
 40
1.0
 40
1.0
 40
1.0
 10
-1325.62921059905
 20
893.1517458894214
 30
0.0
 10
-1324.72448601506
 20
894.3433566573713
 30
0.0
 10
-1322.952852736482
 20
896.6767709681498
 30
0.0
 10
-1320.471196148246
 20
899.7818544479214
 30
0.0
 10
-1318.279083717927
 20
902.4108553217793
 30
0.0
 10
-1316.939385151018
 20
903.8808231095517
 30
0.0
 10
-1316.303706296072
 20
904.5783139207324
 30
0.0
  0
SPLINE
  5
34EFD
330
2A44A
100
AcDbEntity
  8
0
100
AcDbSpline
210
0.0
220
0.0
230
1.0
 70
     8
 71
     3
 72
    18
 73
    14
 74
     0
 42
0.000000001
 43
0.0000000001
 40
0.0
 40
0.0
 40
0.0
 40
0.0
 40
0.2432061240492209
 40
0.4544698414383328
 40
0.6309056806350726
 40
0.7270427299787844
 40
0.8063795327382084
 40
0.8568833896403116
 40
0.8974071081126751
 40
0.9253849838473316
 40
0.9491887877423613
 40
0.972619120983545
 40
1.0
 40
1.0
 40
1.0
 40
1.0
 10
-1316.303706296072
 20
904.5783139207324
 30
0.0
 10
-1315.246946917286
 20
905.7156743050272
 30
0.0
 10
-1313.272221695246
 20
907.8410154966677
 30
0.0
 10
-1310.317177203535
 20
910.580765806857
 30
0.0
 10
-1307.908715782505
 20
912.519564094231
 30
0.0
 10
-1306.039543976389
 20
913.7680094893276
 30
0.0
 10
-1304.768981672292
 20
914.4573162517898
 30
0.0
 10
-1303.752953326497
 20
914.8522005259346
 30
0.0
 10
-1303.004560436027
 20
915.009741275031
 30
0.0
 10
-1302.40762639173
 20
914.9852946148222
 30
0.0
 10
-1301.953977602905
 20
914.7893317079779
 30
0.0
 10
-1301.638986809812
 20
914.4050587380171
 30
0.0
 10
-1301.570630187423
 20
914.0842976614058
 30
0.0
 10
-1301.53379453002
 20
913.9114476182349
 30
0.0
  0
SPLINE
  5
34EFE
330
2A44A
100
AcDbEntity
  8
0
100
AcDbSpline
210
0.0
220
0.0
230
1.0
 70
     8
 71
     3
 72
    11
 73
     7
 74
     0
 42
0.000000001
 43
0.0000000001
 40
0.0
 40
0.0
 40
0.0
 40
0.0
 40
0.2741361888068
 40
0.5817932785849412
 40
0.8119602212617705
 40
1.0
 40
1.0
 40
1.0
 40
1.0
 10
-1301.53379453002
 20
913.9114476182349
 30
0.0
 10
-1301.512745119798
 20
912.8822044175521
 30
0.0
 10
-1301.468072413721
 20
910.6978639304271
 30
0.0
 10
-1302.215561023702
 20
907.7286080776739
 30
0.0
 10
-1302.99269778662
 20
905.1309989591009
 30
0.0
 10
-1303.525643113993
 20
903.6597277192687
 30
0.0
 10
-1303.765273221121
 20
902.9981947877441
 30
0.0
  0
SPLINE
  5
34EFF
330
2A44A
100
AcDbEntity
  8
0
100
AcDbSpline
210
0.0
220
0.0
230
1.0
 70
     8
 71
     3
 72
     9
 73
     5
 74
     0
 42
0.000000001
 43
0.0000000001
 40
0.0
 40
0.0
 40
0.0
 40
0.0
 40
0.5599012236585547
 40
1.0
 40
1.0
 40
1.0
 40
1.0
 10
-1303.765273221121
 20
902.9981947877441
 30
0.0
 10
-1305.201579720036
 20
899.4815820223866
 30
0.0
 10
-1307.766865235135
 20
893.2008085274484
 30
0.0
 10
-1310.983988478918
 20
887.2293652614516
 30
0.0
 10
-1312.399840481863
 20
884.6013403870948
 30
0.0
  0
SPLINE
  5
34F00
330
2A44A
100
AcDbEntity
  8
0
100
AcDbSpline
210
0.0
220
0.0
230
1.0
 70
     8
 71
     3
 72
     9
 73
     5
 74
     0
 42
0.000000001
 43
0.0000000001
 40
0.0
 40
0.0
 40
0.0
 40
0.0
 40
0.5599874851446123
 40
1.0
 40
1.0
 40
1.0
 40
1.0
 10
-1312.399840481863
 20
884.6013403870948
 30
0.0
 10
-1314.754084528911
 20
880.4753725955725
 30
0.0
 10
-1318.958185708812
 20
873.1074083089024
 30
0.0
 10
-1323.69088688396
 20
866.0684167874114
 30
0.0
 10
-1325.773334630117
 20
862.9711724259815
 30
0.0
  0
SPLINE
  5
34F01
330
2A44A
100
AcDbEntity
  8
0
100
AcDbSpline
210
0.0
220
0.0
230
1.0
 70
     8
 71
     3
 72
    11
 73
     7
 74
     0
 42
0.000000001
 43
0.0000000001
 40
0.0
 40
0.0
 40
0.0
 40
0.0
 40
0.298088249783309
 40
0.5523080354842224
 40
0.7575117395717707
 40
0.9999999999999998
 40
0.9999999999999998
 40
0.9999999999999998
 40
0.9999999999999998
 10
-1325.773334630117
 20
862.9711724259815
 30
0.0
 10
-1325.928474855631
 20
862.7243969858591
 30
0.0
 10
-1326.215923935662
 20
862.2671630672249
 30
0.0
 10
-1326.352968341285
 20
861.5201045087943
 30
0.0
 10
-1326.19937183943
 20
860.8403358500344
 30
0.0
 10
-1325.969027865438
 20
860.4685321738198
 30
0.0
 10
-1325.8442641574
 20
860.2671481111011
 30
0.0
  0
SPLINE
  5
34F02
330
2A44A
100
AcDbEntity
  8
0
100
AcDbSpline
210
0.0
220
0.0
230
1.0
 70
     8
 71
     3
 72
    11
 73
     7
 74
     0
 42
0.000000001
 43
0.0000000001
 40
0.0
 40
0.0
 40
0.0
 40
0.0
 40
0.1723399371607533
 40
0.4284154727694117
 40
0.6883530378066496
 40
1.0
 40
1.0
 40
1.0
 40
1.0
 10
-1325.8442641574
 20
860.2671481111011
 30
0.0
 10
-1325.582195143645
 20
859.8778276460125
 30
0.0
 10
-1324.930724438301
 20
858.9100257896406
 30
0.0
 10
-1323.904317107568
 20
857.3414896265003
 30
0.0
 10
-1322.67340868085
 20
855.4534829248714
 30
0.0
 10
-1321.82734832909
 20
854.1470037392555
 30
0.0
 10
-1321.366047986135
 20
853.4346676804981
 30
0.0
  0
ARC
  5
34F03
330
2A44A
100
AcDbEntity
  8
0
100
AcDbCircle
 10
-1321.995752646027
 20
853.0271895000314
 30
0.0
 40
0.7500000000196201
100
AcDbArc
 50
225.4734086319791
 51
32.90471142643677
  0
SPLINE
  5
34F04
330
2A44A
100
AcDbEntity
  8
0
100
AcDbSpline
210
0.0
220
0.0
230
1.0
 70
     8
 71
     3
 72
    16
 73
    12
 74
     0
 42
0.000000001
 43
0.0000000001
 40
0.0
 40
0.0
 40
0.0
 40
0.0
 40
0.1923394794053071
 40
0.3644126212342548
 40
0.5162180043258184
 40
0.6477599244451381
 40
0.7590355167848446
 40
0.8485998824696981
 40
0.9186153991117699
 40
0.96908207584676
 40
1.0
 40
1.0
 40
1.0
 40
1.0
 10
-1322.521662839041
 20
852.4924374558814
 30
0.0
 10
-1325.206868793371
 20
855.1337400436368
 30
0.0
 10
-1330.294347159237
 20
860.1380376659781
 30
0.0
 10
-1337.500283508205
 20
867.2278785413345
 30
0.0
 10
-1343.856900399689
 20
873.483364532678
 30
0.0
 10
-1349.364054185738
 20
878.9046419131246
 30
0.0
 10
-1354.001593083019
 20
883.4718871090281
 30
0.0
 10
-1357.779687744209
 20
887.1947176261656
 30
0.0
 10
-1360.707994218384
 20
890.0833471467759
 30
0.0
 10
-1362.818097521311
 20
892.1660650858667
 30
0.0
 10
-1363.949114177572
 20
893.2889165363867
 30
0.0
 10
-1364.37878621398
 20
893.7154866196998
 30
0.0
  0
SPLINE
  5
34F05
330
2A44A
100
AcDbEntity
  8
0
100
AcDbSpline
210
0.0
220
0.0
230
1.0
 70
     8
 71
     3
 72
     9
 73
     5
 74
     0
 42
0.000000001
 43
0.0000000001
 40
0.0
 40
0.0
 40
0.0
 40
0.0
 40
0.56011778545129
 40
1.0
 40
1.0
 40
1.0
 40
1.0
 10
-1364.37878621398
 20
893.7154866196998
 30
0.0
 10
-1364.821723518973
 20
894.1629080077818
 30
0.0
 10
-1365.612516663757
 20
894.9617067599447
 30
0.0
 10
-1366.428812657185
 20
895.7343908453967
 30
0.0
 10
-1366.787886746511
 20
896.0742808320484
 30
0.0
  0
SPLINE
  5
34F06
330
2A44A
100
AcDbEntity
  8
0
100
AcDbSpline
210
0.0
220
0.0
230
1.0
 70
     8
 71
     3
 72
    11
 73
     7
 74
     0
 42
0.000000001
 43
0.0000000001
 40
0.0
 40
0.0
 40
0.0
 40
0.0
 40
0.2869350951617393
 40
0.5618187763779938
 40
0.777786640677311
 40
1.0
 40
1.0
 40
1.0
 40
1.0
 10
-1366.787886746511
 20
896.0742808320484
 30
0.0
 10
-1367.178384365798
 20
896.3583514775363
 30
0.0
 10
-1367.942978513914
 20
896.9145616628647
 30
0.0
 10
-1369.273428149456
 20
897.0608202168641
 30
0.0
 10
-1370.452510730676
 20
896.8052649645015
 30
0.0
 10
-1371.045810364441
 20
896.3735579890036
 30
0.0
 10
-1371.346688397512
 20
896.1546278932129
 30
0.0
  0
SPLINE
  5
34F07
330
2A44A
100
AcDbEntity
  8
0
100
AcDbSpline
210
0.0
220
0.0
230
1.0
 70
     8
 71
     3
 72
    11
 73
     7
 74
     0
 42
0.000000001
 43
0.0000000001
 40
0.0
 40
0.0
 40
0.0
 40
0.0
 40
0.2811796916844298
 40
0.5535049035261946
 40
0.7714569467279412
 40
1.0
 40
1.0
 40
1.0
 40
1.0
 10
-1371.346688397512
 20
896.1546278932129
 30
0.0
 10
-1371.653432849962
 20
895.8113129100294
 30
0.0
 10
-1372.257262228748
 20
895.1354940928922
 30
0.0
 10
-1372.526182380061
 20
893.8715160449483
 30
0.0
 10
-1372.396460713549
 20
892.6979958855282
 30
0.0
 10
-1372.047147676836
 20
892.0607610054267
 30
0.0
 10
-1371.868348248586
 20
891.7345858552344
 30
0.0
  0
SPLINE
  5
34F08
330
2A44A
100
AcDbEntity
  8
0
100
AcDbSpline
210
0.0
220
0.0
230
1.0
 70
     8
 71
     3
 72
     9
 73
     5
 74
     0
 42
0.000000001
 43
0.0000000001
 40
0.0
 40
0.0
 40
0.0
 40
0.0
 40
0.5599960349878387
 40
0.9999999999999998
 40
0.9999999999999998
 40
0.9999999999999998
 40
0.9999999999999998
 10
-1371.868348248586
 20
891.7345858552344
 30
0.0
 10
-1371.607214285519
 20
891.3481804215606
 30
0.0
 10
-1371.140900335529
 20
890.6581658329796
 30
0.0
 10
-1370.675594263732
 20
889.9674712312462
 30
0.0
 10
-1370.470857747183
 20
889.6635628678687
 30
0.0
  0
SPLINE
  5
34F09
330
2A44A
100
AcDbEntity
  8
0
100
AcDbSpline
210
0.0
220
0.0
230
1.0
 70
     8
 71
     3
 72
    16
 73
    12
 74
     0
 42
0.000000001
 43
0.0000000001
 40
0.0
 40
0.0
 40
0.0
 40
0.0
 40
0.0397609817035346
 40
0.0977457013058036
 40
0.1739517898490303
 40
0.2683816228904921
 40
0.3810316542873063
 40
0.5094085263617484
 40
0.6553610253252887
 40
0.8188926990509754
 40
1.0
 40
1.0
 40
1.0
 40
1.0
 10
-1370.470857747183
 20
889.6635628678687
 30
0.0
 10
-1370.06052791926
 20
889.0440660764561
 30
0.0
 10
-1369.051800893903
 20
887.5211371712849
 30
0.0
 10
-1367.258285393232
 20
884.8097843909108
 30
0.0
 10
-1364.901158109038
 20
881.2462880950461
 30
0.0
 10
-1361.981298782739
 20
876.830145487589
 30
0.0
 10
-1358.523915621852
 20
871.6005767069564
 30
0.0
 10
-1354.535966943738
 20
865.5675013402051
 30
0.0
 10
-1350.023828302648
 20
858.74106541107
 30
0.0
 10
-1344.968726779763
 20
851.0922613276251
 30
0.0
 10
-1341.417637031023
 20
845.7189321679161
 30
0.0
 10
-1339.551544316397
 20
842.8952551820312
 30
0.0
  0
ARC
  5
34F0A
330
2A44A
100
AcDbEntity
  8
0
100
AcDbCircle
 10
-1340.247686381532
 20
842.4351810208227
 30
0.0
 40
0.8344278177374595
100
AcDbArc
 50
240.7464939632126
 51
33.45907440111974
  0
SPLINE
  5
34F0B
330
2A44A
100
AcDbEntity
  8
0
100
AcDbSpline
210
0.0
220
0.0
230
1.0
 70
     8
 71
     3
 72
    13
 73
     9
 74
     0
 42
0.000000001
 43
0.0000000001
 40
0.0
 40
0.0
 40
0.0
 40
0.0
 40
0.1896507652542798
 40
0.3314295711945448
 40
0.4392494958212441
 40
0.5338282135803824
 40
0.715766625447503
 40
1.0
 40
1.0
 40
1.0
 40
1.0
 10
-1340.655422337637
 20
841.7072154023681
 30
0.0
 10
-1340.827244909182
 20
841.8030826082667
 30
0.0
 10
-1341.127518315006
 20
841.9706180616831
 30
0.0
 10
-1341.538958874524
 20
842.1663218884187
 30
0.0
 10
-1341.888615699128
 20
842.261494352153
 30
0.0
 10
-1342.295328848959
 20
842.2071629122637
 30
0.0
 10
-1342.774988282581
 20
841.8479801883496
 30
0.0
 10
-1343.118814916343
 20
841.5122235519502
 30
0.0
 10
-1343.328452237234
 20
841.3075066544971
 30
0.0
  0
SPLINE
  5
34F0C
330
2A44A
100
AcDbEntity
  8
0
100
AcDbSpline
210
0.0
220
0.0
230
1.0
 70
     8
 71
     3
 72
    11
 73
     7
 74
     0
 42
0.000000001
 43
0.0000000001
 40
0.0
 40
0.0
 40
0.0
 40
0.0
 40
0.2348464010178132
 40
0.5170990510044584
 40
0.754251270999207
 40
1.0
 40
1.0
 40
1.0
 40
1.0
 10
-1343.328452237234
 20
841.3075066544971
 30
0.0
 10
-1344.111215862875
 20
840.4692402564233
 30
0.0
 10
-1345.834752294431
 20
838.6234944538282
 30
0.0
 10
-1348.376648487894
 20
835.9621604182375
 30
0.0
 10
-1351.349953280725
 20
833.6304280346212
 30
0.0
 10
-1353.563549891602
 20
832.7822407499024
 30
0.0
 10
-1354.69005120574
 20
832.3505974748169
 30
0.0
  0
SPLINE
  5
34F0D
330
2A44A
100
AcDbEntity
  8
0
100
AcDbSpline
210
0.0
220
0.0
230
1.0
 70
     8
 71
     3
 72
    16
 73
    12
 74
     0
 42
0.000000001
 43
0.0000000001
 40
0.0
 40
0.0
 40
0.0
 40
0.0
 40
0.0417127740281874
 40
0.077784421899527
 40
0.112124856384778
 40
0.1484574240430604
 40
0.2300517592485125
 40
0.3340106122798762
 40
0.5403865903341099
 40
0.7598275146935685
 40
1.0
 40
1.0
 40
1.0
 40
1.0
 10
-1354.69005120574
 20
832.3505974748169
 30
0.0
 10
-1354.844489148345
 20
832.3417060949704
 30
0.0
 10
-1355.132479251239
 20
832.3251257822175
 30
0.0
 10
-1355.537120201967
 20
832.4480761610375
 30
0.0
 10
-1355.85820862039
 20
832.6879502119245
 30
0.0
 10
-1356.179221064398
 20
833.1580860393206
 30
0.0
 10
-1356.378550813497
 20
833.9698125454505
 30
0.0
 10
-1356.401677873589
 20
835.4171064175952
 30
0.0
 10
-1356.107477905629
 20
837.356805652451
 30
0.0
 10
-1355.53356283329
 20
839.743761338088
 30
0.0
 10
-1355.031461600469
 20
841.3622612325251
 30
0.0
 10
-1354.769086964712
 20
842.2080136277637
 30
0.0
  0
ARC
  5
34F0E
330
2A44A
100
AcDbEntity
  8
0
100
AcDbCircle
 10
-1356.718627509683
 20
842.834645982699
 30
0.0
 40
2.047751736841601
100
AcDbArc
 50
342.1797845287171
 51
160.4434222921752
  0
LINE
  5
34F0F
330
2A44A
100
AcDbEntity
  8
0
100
AcDbLine
 10
-1444.055771954641
 20
656.7317105271849
 30
0.0
 11
-1502.055859692678
 21
656.7317105271849
 31
0.0
  0
LINE
  5
34F10
330
2A44A
100
AcDbEntity
  8
0
100
AcDbLine
 10
-1502.055859692678
 20
656.7317105271849
 30
0.0
 11
-1502.055859692678
 21
806.7316866853198
 31
0.0
  0
LINE
  5
34F11
330
2A44A
100
AcDbEntity
  8
0
100
AcDbLine
 10
-1502.055859692678
 20
806.7316866853198
 30
0.0
 11
-1494.055843480215
 21
806.7316866853198
 31
0.0
  0
LWPOLYLINE
  5
34F12
330
2A44A
100
AcDbEntity
  8
0
100
AcDbPolyline
 90
        8
 70
   128
 43
0.0
 10
-1494.055843480215
 20
806.7316866853198
 10
-1495.159363873586
 20
807.835326287981
 10
-1496.220564969167
 20
808.8965273835547
 10
-1497.198557980642
 20
809.8745203950366
 10
-1498.055791981802
 20
810.731635186914
 10
-1498.75936520873
 20
811.4352084138355
 10
-1499.282097943411
 20
811.9579411485229
 10
-1499.712681897268
 20
812.3885251023803
  0
LINE
  5
34F13
330
2A44A
100
AcDbEntity
  8
0
100
AcDbLine
 10
-1287.58058560668
 20
1024.520621392968
 30
0.0
 11
-1499.712681897268
 21
812.3885251023803
 31
0.0
  0
LWPOLYLINE
  5
34F14
330
2A44A
100
AcDbEntity
  8
0
100
AcDbPolyline
 90
        7
 70
   128
 43
0.0
 10
-1287.58058560668
 20
1024.520621392968
 10
-1287.471985943899
 20
1024.411902520898
 10
-1287.150001652822
 20
1024.089918229829
 10
-1286.627268918142
 20
1023.567185495141
 10
-1285.066580899343
 20
1022.006497476342
 10
-1284.088587887869
 20
1021.028504464861
 10
-1281.923747189626
 20
1018.863663766626
  0
LINE
  5
34F15
330
2A44A
100
AcDbEntity
  8
0
100
AcDbLine
 10
-1281.923747189626
 20
1018.863663766626
 30
0.0
 11
-1281.923747189626
 21
1026.863679979096
 31
0.0
  0
LINE
  5
34F16
330
2A44A
100
AcDbEntity
  8
0
100
AcDbLine
 10
-1131.923771031484
 20
1026.863679979096
 30
0.0
 11
-1281.923747189626
 21
1026.863679979096
 31
0.0
  0
LINE
  5
34F17
330
2A44A
100
AcDbEntity
  8
0
100
AcDbLine
 10
1439.944052569328
 20
656.7317088101481
 30
0.0
 11
1497.944140307365
 21
656.7317088101481
 31
0.0
  0
ARC
  5
34F18
330
2A44A
100
AcDbEntity
  8
0
100
AcDbCircle
 10
1439.944095538863
 20
706.7316869298811
 30
0.0
 40
49.99999999999959
100
AcDbArc
 50
225.0000000000737
 51
270.0
  0
LINE
  5
34F19
330
2A44A
100
AcDbEntity
  8
0
100
AcDbLine
 10
1142.456674448905
 20
933.5083802197477
 30
0.0
 11
1404.588723055778
 21
671.3763316128752
 31
0.0
  0
ARC
  5
34F1A
330
2A44A
100
AcDbEntity
  8
0
100
AcDbCircle
 10
1177.812061182885
 20
968.8637212858376
 30
0.0
 40
50.00000000000266
100
AcDbArc
 50
180.0
 51
225.0000000000737
  0
LINE
  5
34F1B
330
2A44A
100
AcDbEntity
  8
0
100
AcDbLine
 10
1127.812051646142
 20
1026.863678262059
 30
0.0
 11
1127.812051646142
 21
968.8637097333048
 31
0.0
  0
LINE
  5
34F1C
330
2A44A
100
AcDbEntity
  8
0
100
AcDbLine
 10
1277.812027804313
 20
1018.863662049589
 30
0.0
 11
1127.812051646142
 21
1018.863662049589
 31
0.0
  0
LINE
  5
34F1D
330
2A44A
100
AcDbEntity
  8
0
100
AcDbLine
 10
1489.944124094902
 20
806.7316849682828
 30
0.0
 11
1277.812027804313
 21
1018.863662049589
 31
0.0
  0
LINE
  5
34F1E
330
2A44A
100
AcDbEntity
  8
0
100
AcDbLine
 10
1489.944124094902
 20
656.7317088101481
 30
0.0
 11
1489.944124094902
 21
806.7316849682828
 31
0.0
  0
SPLINE
  5
34F1F
330
2A44A
100
AcDbEntity
  8
0
100
AcDbSpline
210
0.0
220
0.0
230
1.0
 70
     8
 71
     3
 72
    10
 73
     6
 74
     0
 42
0.000000001
 43
0.0000000001
 40
0.0
 40
0.0
 40
0.0
 40
0.0
 40
0.599296363675263
 40
0.8113596857262875
 40
1.0
 40
1.0
 40
1.0
 40
1.0
 10
1314.600491396842
 20
883.4560950253507
 30
0.0
 10
1312.624121747787
 20
884.126582250632
 30
0.0
 10
1309.948406101052
 20
885.0343239579961
 30
0.0
 10
1306.565481806923
 20
885.8718650944139
 30
0.0
 10
1305.185775245794
 20
886.0804164873917
 30
0.0
 10
1304.536247126489
 20
886.1785967801187
 30
0.0
  0
SPLINE
  5
34F20
330
2A44A
100
AcDbEntity
  8
0
100
AcDbSpline
210
0.0
220
0.0
230
1.0
 70
     8
 71
     3
 72
    17
 73
    13
 74
     0
 42
0.000000001
 43
0.0000000001
 40
0.0
 40
0.0
 40
0.0
 40
0.0
 40
0.1480032116044974
 40
0.2612803065434726
 40
0.3496446974746623
 40
0.4332750809531716
 40
0.514174366283606
 40
0.5996957679834197
 40
0.6900502805265606
 40
0.8111271140106609
 40
0.9199382109877403
 40
1.0
 40
1.0
 40
1.0
 40
1.0
 10
1304.536247126489
 20
886.1785967801187
 30
0.0
 10
1303.689508149917
 20
886.288832915663
 30
0.0
 10
1302.194701267253
 20
886.4834403905987
 30
0.0
 10
1300.170432568055
 20
886.2988089923819
 30
0.0
 10
1298.608102370977
 20
885.7051226779148
 30
0.0
 10
1297.527479781384
 20
884.6578170296707
 30
0.0
 10
1296.997330761304
 20
883.2836671139011
 30
0.0
 10
1296.896442483958
 20
881.795782190602
 30
0.0
 10
1297.109537515171
 20
880.0927827204869
 30
0.0
 10
1297.613898956471
 20
878.3140766155266
 30
0.0
 10
1298.269396626063
 20
876.6509834906829
 30
0.0
 10
1298.772319690724
 20
875.68655546668
 30
0.0
 10
1298.985504977136
 20
875.2777417157266
 30
0.0
  0
SPLINE
  5
34F21
330
2A44A
100
AcDbEntity
  8
0
100
AcDbSpline
210
0.0
220
0.0
230
1.0
 70
     8
 71
     3
 72
    10
 73
     6
 74
     0
 42
0.000000001
 43
0.0000000001
 40
0.0
 40
0.0
 40
0.0
 40
0.0
 40
0.2823387494269969
 40
0.5559768570016877
 40
1.0
 40
1.0
 40
1.0
 40
1.0
 10
1298.985504977136
 20
875.2777417157266
 30
0.0
 10
1299.62957483733
 20
874.3180346081281
 30
0.0
 10
1300.897866693405
 20
872.4281950363002
 30
0.0
 10
1303.502863675028
 20
869.2650381928178
 30
0.0
 10
1305.547803573274
 20
867.156606376011
 30
0.0
 10
1306.813025347619
 20
865.8521016095255
 30
0.0
  0
LINE
  5
34F22
330
2A44A
100
AcDbEntity
  8
0
100
AcDbLine
 10
1306.813025347619
 20
865.8521016095255
 30
0.0
 11
1299.497985712914
 21
854.4435341809293
 31
0.0
  0
SPLINE
  5
34F23
330
2A44A
100
AcDbEntity
  8
0
100
AcDbSpline
210
0.0
220
0.0
230
1.0
 70
     8
 71
     3
 72
     9
 73
     5
 74
     0
 42
0.000000001
 43
0.0000000001
 40
0.0
 40
0.0
 40
0.0
 40
0.0
 40
0.5586799452009116
 40
1.0
 40
1.0
 40
1.0
 40
1.0
 10
1299.497985712914
 20
854.4435341809293
 30
0.0
 10
1299.296864938129
 20
854.0901192285964
 30
0.0
 10
1298.936872107639
 20
853.4575299341813
 30
0.0
 10
1298.924958960175
 20
852.7332691898337
 30
0.0
 10
1298.919701449304
 20
852.4136383984586
 30
0.0
  0
SPLINE
  5
34F24
330
2A44A
100
AcDbEntity
  8
0
100
AcDbSpline
210
0.0
220
0.0
230
1.0
 70
     8
 71
     3
 72
    14
 73
    10
 74
     0
 42
0.000000001
 43
0.0000000001
 40
0.0
 40
0.0
 40
0.0
 40
0.0
 40
0.1539168361724694
 40
0.3114148057753734
 40
0.4714718959198437
 40
0.5930553827356702
 40
0.7177677163428457
 40
0.8506762884692831
 40
1.0
 40
1.0
 40
1.0
 40
1.0
 10
1298.919701449304
 20
852.4136383984586
 30
0.0
 10
1298.974745346808
 20
852.0437461578548
 30
0.0
 10
1299.08611383041
 20
851.2953555130589
 30
0.0
 10
1299.727394394889
 20
850.322374485113
 30
0.0
 10
1300.543692117346
 20
849.6315713629227
 30
0.0
 10
1301.452446365343
 20
849.2391085750277
 30
0.0
 10
1302.367136515291
 20
849.1203093800287
 30
0.0
 10
1303.35409501916
 20
849.2763939586147
 30
0.0
 10
1303.948052577638
 20
849.6146773503278
 30
0.0
 10
1304.262304179101
 20
849.7936566327116
 30
0.0
  0
SPLINE
  5
34F25
330
2A44A
100
AcDbEntity
  8
0
100
AcDbSpline
210
0.0
220
0.0
230
1.0
 70
     8
 71
     3
 72
    14
 73
    10
 74
     0
 42
0.000000001
 43
0.0000000001
 40
0.0
 40
0.0
 40
0.0
 40
0.0
 40
0.0494268020949342
 40
0.1283425797441352
 40
0.2367489214670686
 40
0.3746402764300778
 40
0.5507313703403707
 40
0.7591856678264356
 40
1.0
 40
1.0
 40
1.0
 40
1.0
 10
1304.262304179101
 20
849.7936566327116
 30
0.0
 10
1304.83361162067
 20
850.1742071493353
 30
0.0
 10
1306.31707945119
 20
851.1623518998968
 30
0.0
 10
1309.054435184858
 20
852.9838608780556
 30
0.0
 10
1312.814667869468
 20
855.4859634559688
 30
0.0
 10
1317.69888214644
 20
858.7350953843488
 30
0.0
 10
1323.740181297871
 20
862.7535248532804
 30
0.0
 10
1330.971707534736
 20
867.5635215935253
 30
0.0
 10
1336.167142489685
 20
871.0188183085483
 30
0.0
 10
1338.951969019799
 20
872.8709061596964
 30
0.0
  0
SPLINE
  5
34F26
330
2A44A
100
AcDbEntity
  8
0
100
AcDbSpline
210
0.0
220
0.0
230
1.0
 70
     8
 71
     3
 72
    16
 73
    12
 74
     0
 42
0.000000001
 43
0.0000000001
 40
0.0
 40
0.0
 40
0.0
 40
0.0
 40
0.1889389127739418
 40
0.3584700946655362
 40
0.5085948219865866
 40
0.6393092899640874
 40
0.7506160335952617
 40
0.8410439976000782
 40
0.9127504178800897
 40
0.9657353124471997
 40
1.0
 40
1.0
 40
1.0
 40
1.0
 10
1338.951969019799
 20
872.8709061596964
 30
0.0
 10
1336.008307763193
 20
869.8842239153236
 30
0.0
 10
1330.423356977633
 20
864.2176502531802
 30
0.0
 10
1322.49865335042
 20
856.178759293718
 30
0.0
 10
1315.480573121713
 20
849.0607647315773
 30
0.0
 10
1309.368999347404
 20
842.8637816696719
 30
0.0
 10
1304.186799822106
 20
837.6111547818945
 30
0.0
 10
1299.923623616189
 20
833.2916223963692
 30
0.0
 10
1296.568206221731
 20
829.8949062185419
 30
0.0
 10
1294.08808018994
 20
827.385732017232
 30
0.0
 10
1292.724094615369
 20
826.0111086600518
 30
0.0
 10
1292.188429705529
 20
825.4712660763834
 30
0.0
  0
SPLINE
  5
34F27
330
2A44A
100
AcDbEntity
  8
0
100
AcDbSpline
210
0.0
220
0.0
230
1.0
 70
     8
 71
     3
 72
     9
 73
     5
 74
     0
 42
0.000000001
 43
0.0000000001
 40
0.0
 40
0.0
 40
0.0
 40
0.0
 40
0.5608034439010349
 40
1.0
 40
1.0
 40
1.0
 40
1.0
 10
1292.188429705529
 20
825.4712660763834
 30
0.0
 10
1292.006479507625
 20
825.290129051471
 30
0.0
 10
1291.682033928919
 20
824.9671334870145
 30
0.0
 10
1291.391295398491
 20
824.6136107233688
 30
0.0
 10
1291.263604037194
 20
824.4583447430558
 30
0.0
  0
SPLINE
  5
34F28
330
2A44A
100
AcDbEntity
  8
0
100
AcDbSpline
210
0.0
220
0.0
230
1.0
 70
     8
 71
     3
 72
    11
 73
     7
 74
     0
 42
0.000000001
 43
0.0000000001
 40
0.0
 40
0.0
 40
0.0
 40
0.0
 40
0.2820576974142158
 40
0.5559865393668641
 40
0.7739895475895708
 40
1.0
 40
1.0
 40
1.0
 40
1.0
 10
1291.263604037194
 20
824.4583447430558
 30
0.0
 10
1291.042498767223
 20
824.0938536634057
 30
0.0
 10
1290.606660444049
 20
823.3753760757972
 30
0.0
 10
1290.54176308083
 20
822.1834915723956
 30
0.0
 10
1290.80395210423
 20
821.1274542943865
 30
0.0
 10
1291.188817566632
 20
820.5820155152105
 30
0.0
 10
1291.384720675407
 20
820.3043778393766
 30
0.0
  0
SPLINE
  5
34F29
330
2A44A
100
AcDbEntity
  8
0
100
AcDbSpline
210
0.0
220
0.0
230
1.0
 70
     8
 71
     3
 72
    11
 73
     7
 74
     0
 42
0.000000001
 43
0.0000000001
 40
0.0
 40
0.0
 40
0.0
 40
0.0
 40
0.282146223901401
 40
0.5601838339701288
 40
0.7786842036614667
 40
1.0
 40
1.0
 40
1.0
 40
1.0
 10
1291.384720675407
 20
820.3043778393766
 30
0.0
 10
1291.693827762872
 20
820.0110330866518
 30
0.0
 10
1292.307540719856
 20
819.4286152679996
 30
0.0
 10
1293.457886937591
 20
819.0953869892108
 30
0.0
 10
1294.547065561135
 20
819.0957106729474
 30
0.0
 10
1295.158919204543
 20
819.3480576434085
 30
0.0
 10
1295.466804377465
 20
819.4750388119718
 30
0.0
  0
SPLINE
  5
34F2A
330
2A44A
100
AcDbEntity
  8
0
100
AcDbSpline
210
0.0
220
0.0
230
1.0
 70
     8
 71
     3
 72
     9
 73
     5
 74
     0
 42
0.000000001
 43
0.0000000001
 40
0.0
 40
0.0
 40
0.0
 40
0.0
 40
0.5598243740207857
 40
1.0
 40
1.0
 40
1.0
 40
1.0
 10
1295.466804377465
 20
819.4750388119718
 30
0.0
 10
1295.709143872918
 20
819.6140322682767
 30
0.0
 10
1296.142028732334
 20
819.8623127340106
 30
0.0
 10
1296.559442759833
 20
820.135741429789
 30
0.0
 10
1296.743178240685
 20
820.2560980771085
 30
0.0
  0
SPLINE
  5
34F2B
330
2A44A
100
AcDbEntity
  8
0
100
AcDbSpline
210
0.0
220
0.0
230
1.0
 70
     8
 71
     3
 72
     9
 73
     5
 74
     0
 42
0.000000001
 43
0.0000000001
 40
0.0
 40
0.0
 40
0.0
 40
0.0
 40
0.5600518199267893
 40
1.0
 40
1.0
 40
1.0
 40
1.0
 10
1296.743178240685
 20
820.2560980771085
 30
0.0
 10
1298.488861896905
 20
821.376462346423
 30
0.0
 10
1301.605865706391
 20
823.376927713085
 30
0.0
 10
1304.721133527979
 20
825.3800953092213
 30
0.0
 10
1306.091689936547
 20
826.2613852475187
 30
0.0
  0
SPLINE
  5
34F2C
330
2A44A
100
AcDbEntity
  8
0
100
AcDbSpline
210
0.0
220
0.0
230
1.0
 70
     8
 71
     3
 72
    16
 73
    12
 74
     0
 42
0.000000001
 43
0.0000000001
 40
0.0
 40
0.0
 40
0.0
 40
0.0
 40
0.095761615767439
 40
0.2149675089546005
 40
0.3492348186886491
 40
0.4901929258720779
 40
0.6294589697769668
 40
0.7564964568079427
 40
0.8658866948819717
 40
0.9497019438384761
 40
1.0
 40
1.0
 40
1.0
 40
1.0
 10
1306.091689936547
 20
826.2613852475187
 30
0.0
 10
1306.955632630757
 20
826.8172686771432
 30
0.0
 10
1308.895027735671
 20
828.0651264453627
 30
0.0
 10
1312.045922539131
 20
830.0921298842876
 30
0.0
 10
1315.604752797422
 20
832.3812107944249
 30
0.0
 10
1319.344622074415
 20
834.786644569831
 30
0.0
 10
1323.019448167055
 20
837.1498258281281
 30
0.0
 10
1326.409466876641
 20
839.3297725684096
 30
0.0
 10
1329.299331055743
 20
841.1876608706952
 30
0.0
 10
1331.496797052758
 20
842.6001958557318
 30
0.0
 10
1332.707451369024
 20
843.3776009820503
 30
0.0
 10
1333.16149698916
 20
843.6691601727579
 30
0.0
  0
SPLINE
  5
34F2D
330
2A44A
100
AcDbEntity
  8
0
100
AcDbSpline
210
0.0
220
0.0
230
1.0
 70
     8
 71
     3
 72
     9
 73
     5
 74
     0
 42
0.000000001
 43
0.0000000001
 40
0.0
 40
0.0
 40
0.0
 40
0.0
 40
0.5912339174971441
 40
1.0
 40
1.0
 40
1.0
 40
1.0
 10
1333.16149698916
 20
843.6691601727579
 30
0.0
 10
1333.367566592489
 20
843.545523285924
 30
0.0
 10
1333.716108171786
 20
843.3364065841306
 30
0.0
 10
1334.056836307827
 20
843.1148164481054
 30
0.0
 10
1334.196114413171
 20
843.0242379162736
 30
0.0
  0
SPLINE
  5
34F2E
330
2A44A
100
AcDbEntity
  8
0
100
AcDbSpline
210
0.0
220
0.0
230
1.0
 70
     8
 71
     3
 72
    10
 73
     6
 74
     0
 42
0.000000001
 43
0.0000000001
 40
0.0
 40
0.0
 40
0.0
 40
0.0
 40
0.2801562364681439
 40
0.5599844371298623
 40
1.0
 40
1.0
 40
1.0
 40
1.0
 10
1334.196114413171
 20
843.0242379162736
 30
0.0
 10
1336.786283269343
 20
841.2819662326583
 30
0.0
 10
1341.963588144914
 20
837.7994628967208
 30
0.0
 10
1351.470369174254
 20
831.9757737767432
 30
0.0
 10
1358.591270355326
 20
828.2787662302363
 30
0.0
 10
1362.944030634789
 20
826.0189135525724
 30
0.0
  0
SPLINE
  5
34F2F
330
2A44A
100
AcDbEntity
  8
0
100
AcDbSpline
210
0.0
220
0.0
230
1.0
 70
     8
 71
     3
 72
    10
 73
     6
 74
     0
 42
0.000000001
 43
0.0000000001
 40
0.0
 40
0.0
 40
0.0
 40
0.0
 40
0.2801741554344868
 40
0.5598933531028451
 40
1.0
 40
1.0
 40
1.0
 40
1.0
 10
1362.944030634789
 20
826.0189135525724
 30
0.0
 10
1364.908006597157
 20
825.0735914970137
 30
0.0
 10
1368.832769340857
 20
823.18448243686
 30
0.0
 10
1375.988794034572
 20
820.1104149706225
 30
0.0
 10
1381.343171197972
 20
818.4527132193979
 30
0.0
 10
1384.616875521598
 20
817.4391825650163
 30
0.0
  0
SPLINE
  5
34F30
330
2A44A
100
AcDbEntity
  8
0
100
AcDbSpline
210
0.0
220
0.0
230
1.0
 70
     8
 71
     3
 72
     9
 73
     5
 74
     0
 42
0.000000001
 43
0.0000000001
 40
0.0
 40
0.0
 40
0.0
 40
0.0
 40
0.5596403955245766
 40
1.0
 40
1.0
 40
1.0
 40
1.0
 10
1384.616875521598
 20
817.4391825650163
 30
0.0
 10
1386.064792250508
 20
817.0684306216353
 30
0.0
 10
1388.652019227877
 20
816.4059481661825
 30
0.0
 10
1391.313841105082
 20
816.2098314957038
 30
0.0
 10
1392.485999934106
 20
816.1234696362443
 30
0.0
  0
SPLINE
  5
34F31
330
2A44A
100
AcDbEntity
  8
0
100
AcDbSpline
210
0.0
220
0.0
230
1.0
 70
     8
 71
     3
 72
     9
 73
     5
 74
     0
 42
0.000000001
 43
0.0000000001
 40
0.0
 40
0.0
 40
0.0
 40
0.0
 40
0.5594294987319027
 40
1.0
 40
1.0
 40
1.0
 40
1.0
 10
1392.485999934106
 20
816.1234696362443
 30
0.0
 10
1393.235669848938
 20
816.116003641815
 30
0.0
 10
1394.57573131605
 20
816.1026579128956
 30
0.0
 10
1395.856728854553
 20
816.4880794996424
 30
0.0
 10
1396.421098582206
 20
816.657884881315
 30
0.0
  0
SPLINE
  5
34F32
330
2A44A
100
AcDbEntity
  8
0
100
AcDbSpline
210
0.0
220
0.0
230
1.0
 70
     8
 71
     3
 72
    11
 73
     7
 74
     0
 42
0.000000001
 43
0.0000000001
 40
0.0
 40
0.0
 40
0.0
 40
0.0
 40
0.2938411266030841
 40
0.5579092850849124
 40
0.7678929105532494
 40
1.0
 40
1.0
 40
1.0
 40
1.0
 10
1396.421098582206
 20
816.657884881315
 30
0.0
 10
1396.968851193807
 20
816.9131350479874
 30
0.0
 10
1398.008856285967
 20
817.3977725786535
 30
0.0
 10
1399.014037718436
 20
818.6672032685237
 30
0.0
 10
1399.436498179122
 20
820.0729888699207
 30
0.0
 10
1399.354889412578
 20
820.9755297711236
 30
0.0
 10
1399.312043063073
 20
821.4493830655191
 30
0.0
  0
SPLINE
  5
34F33
330
2A44A
100
AcDbEntity
  8
0
100
AcDbSpline
210
0.0
220
0.0
230
1.0
 70
     8
 71
     3
 72
     9
 73
     5
 74
     0
 42
0.000000001
 43
0.0000000001
 40
0.0
 40
0.0
 40
0.0
 40
0.0
 40
0.5591200767014812
 40
1.0
 40
1.0
 40
1.0
 40
1.0
 10
1399.312043063073
 20
821.4493830655191
 30
0.0
 10
1399.178991999033
 20
822.0625080140743
 30
0.0
 10
1398.941026900655
 20
823.1590970547696
 30
0.0
 10
1398.486596407478
 20
824.1840745743102
 30
0.0
 10
1398.286247126518
 20
824.6359665844938
 30
0.0
  0
SPLINE
  5
34F34
330
2A44A
100
AcDbEntity
  8
0
100
AcDbSpline
210
0.0
220
0.0
230
1.0
 70
     8
 71
     3
 72
    10
 73
     6
 74
     0
 42
0.000000001
 43
0.0000000001
 40
0.0
 40
0.0
 40
0.0
 40
0.0
 40
0.2806339353167038
 40
0.5598414606649449
 40
1.0
 40
1.0
 40
1.0
 40
1.0
 10
1398.286247126518
 20
824.6359665844938
 30
0.0
 10
1397.870514812115
 20
825.4342015109795
 30
0.0
 10
1397.041163273148
 20
827.0266140846652
 30
0.0
 10
1395.148972681425
 20
829.6225183163405
 30
0.0
 10
1393.63080764922
 20
831.3559087991452
 30
0.0
 10
1392.701887957482
 20
832.4165184948942
 30
0.0
  0
SPLINE
  5
34F35
330
2A44A
100
AcDbEntity
  8
0
100
AcDbSpline
210
0.0
220
0.0
230
1.0
 70
     8
 71
     3
 72
    10
 73
     6
 74
     0
 42
0.000000001
 43
0.0000000001
 40
0.0
 40
0.0
 40
0.0
 40
0.0
 40
0.28033556783715
 40
0.5600436172573425
 40
1.0
 40
1.0
 40
1.0
 40
1.0
 10
1392.701887957482
 20
832.4165184948942
 30
0.0
 10
1391.160846901526
 20
834.0745510378619
 30
0.0
 10
1388.082214339949
 20
837.3869046933615
 30
0.0
 10
1382.131071647709
 20
842.8521711798312
 30
0.0
 10
1377.611933399013
 20
846.5037141403445
 30
0.0
 10
1374.849223963647
 20
848.7360318158243
 30
0.0
  0
SPLINE
  5
34F36
330
2A44A
100
AcDbEntity
  8
0
100
AcDbSpline
210
0.0
220
0.0
230
1.0
 70
     8
 71
     3
 72
    10
 73
     6
 74
     0
 42
0.000000001
 43
0.0000000001
 40
0.0
 40
0.0
 40
0.0
 40
0.0
 40
0.2438813881960554
 40
0.5201262129028644
 40
1.0
 40
1.0
 40
1.0
 40
1.0
 10
1374.849223963647
 20
848.7360318158243
 30
0.0
 10
1374.241102714404
 20
849.21871234454
 30
0.0
 10
1372.944161587853
 20
850.2481258528568
 30
0.0
 10
1370.40673262826
 20
852.1709382290282
 30
0.0
 10
1368.463998996209
 20
853.5921200385709
 30
0.0
 10
1367.231035105615
 20
854.4940789196916
 30
0.0
  0
ARC
  5
34F37
330
2A44A
100
AcDbEntity
  8
0
100
AcDbCircle
 10
1365.749384790419
 20
852.4524726748714
 30
0.0
 40
2.522629080271733
100
AcDbArc
 50
54.03124935985864
 51
233.02439070047
  0
SPLINE
  5
34F38
330
2A44A
100
AcDbEntity
  8
0
100
AcDbSpline
210
0.0
220
0.0
230
1.0
 70
     8
 71
     3
 72
    11
 73
     7
 74
     0
 42
0.000000001
 43
0.0000000001
 40
0.0
 40
0.0
 40
0.0
 40
0.0
 40
0.3041933483636255
 40
0.5956658061827027
 40
0.8081454109850065
 40
1.0
 40
1.0
 40
1.0
 40
1.0
 10
1364.232087008415
 20
850.4371483776994
 30
0.0
 10
1365.423736174525
 20
849.5324226945594
 30
0.0
 10
1367.75720160055
 20
847.7608055427772
 30
0.0
 10
1370.862364024877
 20
845.2791996227752
 30
0.0
 10
1373.491169102803
 20
843.0868624163995
 30
0.0
 10
1374.961154288954
 20
841.7471919308299
 30
0.0
 10
1375.658655039726
 20
841.1115248654386
 30
0.0
  0
SPLINE
  5
34F39
330
2A44A
100
AcDbEntity
  8
0
100
AcDbSpline
210
0.0
220
0.0
230
1.0
 70
     8
 71
     3
 72
    18
 73
    14
 74
     0
 42
0.000000001
 43
0.0000000001
 40
0.0
 40
0.0
 40
0.0
 40
0.0
 40
0.2432023455516882
 40
0.4544665146978072
 40
0.6309027311771568
 40
0.7270451858832078
 40
0.8063766502053674
 40
0.8568864496854459
 40
0.8974052620735319
 40
0.9253836570258641
 40
0.9491875118218972
 40
0.9726131065862656
 40
1.0
 40
1.0
 40
1.0
 40
1.0
 10
1375.658655039726
 20
841.1115248654386
 30
0.0
 10
1376.796023596915
 20
840.0548123468324
 30
0.0
 10
1378.921397523481
 20
838.0801584664149
 30
0.0
 10
1381.661078204131
 20
835.1250980855621
 30
0.0
 10
1383.599990782437
 20
832.7166625273749
 30
0.0
 10
1384.848252713527
 20
830.8473939077448
 30
0.0
 10
1385.537765952576
 20
829.5768746629036
 30
0.0
 10
1385.932419687909
 20
828.5608218478664
 30
0.0
 10
1386.090300909382
 20
827.8124679194952
 30
0.0
 10
1386.065599660003
 20
827.2155622892896
 30
0.0
 10
1385.86968146127
 20
826.7619624338767
 30
0.0
 10
1385.485477744798
 20
826.4468619442123
 30
0.0
 10
1385.164687907956
 20
826.3785506832501
 30
0.0
 10
1384.991788737206
 20
826.3417323086832
 30
0.0
  0
SPLINE
  5
34F3A
330
2A44A
100
AcDbEntity
  8
0
100
AcDbSpline
210
0.0
220
0.0
230
1.0
 70
     8
 71
     3
 72
    11
 73
     7
 74
     0
 42
0.000000001
 43
0.0000000001
 40
0.0
 40
0.0
 40
0.0
 40
0.0
 40
0.2741367910575914
 40
0.5817923598250721
 40
0.8119598081564959
 40
1.0
 40
1.0
 40
1.0
 40
1.0
 10
1384.991788737206
 20
826.3417323086832
 30
0.0
 10
1383.962547911702
 20
826.3206940649906
 30
0.0
 10
1381.778220713568
 20
826.2760452260263
 30
0.0
 10
1378.808934840046
 20
827.0233512540144
 30
0.0
 10
1376.211341199545
 20
827.8005216555683
 30
0.0
 10
1374.740069186075
 20
828.3334633271588
 30
0.0
 10
1374.078535906701
 20
828.5730917904874
 30
0.0
  0
SPLINE
  5
34F3B
330
2A44A
100
AcDbEntity
  8
0
100
AcDbSpline
210
0.0
220
0.0
230
1.0
 70
     8
 71
     3
 72
     9
 73
     5
 74
     0
 42
0.000000001
 43
0.0000000001
 40
0.0
 40
0.0
 40
0.0
 40
0.0
 40
0.5599037578880831
 40
1.0
 40
1.0
 40
1.0
 40
1.0
 10
1374.078535906701
 20
828.5730917904874
 30
0.0
 10
1370.561932694567
 20
830.0094579624492
 30
0.0
 10
1364.281204689752
 20
832.5748384438483
 30
0.0
 10
1358.309712693437
 20
835.7918599677578
 30
0.0
 10
1355.681681506066
 20
837.2076590512296
 30
0.0
  0
SPLINE
  5
34F3C
330
2A44A
100
AcDbEntity
  8
0
100
AcDbSpline
210
0.0
220
0.0
230
1.0
 70
     8
 71
     3
 72
     9
 73
     5
 74
     0
 42
0.000000001
 43
0.0000000001
 40
0.0
 40
0.0
 40
0.0
 40
0.0
 40
0.5599860444297465
 40
1.0
 40
1.0
 40
1.0
 40
1.0
 10
1355.681681506066
 20
837.2076590512296
 30
0.0
 10
1351.555707305662
 20
839.5618933486476
 30
0.0
 10
1344.1877126182
 20
843.7659879343046
 30
0.0
 10
1337.148753701149
 20
848.4987785076882
 30
0.0
 10
1334.051513544975
 20
850.5812724087663
 30
0.0
  0
SPLINE
  5
34F3D
330
2A44A
100
AcDbEntity
  8
0
100
AcDbSpline
210
0.0
220
0.0
230
1.0
 70
     8
 71
     3
 72
    11
 73
     7
 74
     0
 42
0.000000001
 43
0.0000000001
 40
0.0
 40
0.0
 40
0.0
 40
0.0
 40
0.2980726848670661
 40
0.5523023847163256
 40
0.7575086788849906
 40
1.0
 40
1.0
 40
1.0
 40
1.0
 10
1334.051513544975
 20
850.5812724087663
 30
0.0
 10
1333.804729627845
 20
850.7363450832491
 30
0.0
 10
1333.347460804325
 20
851.0236810662318
 30
0.0
 10
1332.600459426779
 20
851.160942532755
 30
0.0
 10
1331.920674948684
 20
851.0072999537515
 30
0.0
 10
1331.548872582985
 20
850.7769622486158
 30
0.0
 10
1331.347489230094
 20
850.6522019360636
 30
0.0
  0
SPLINE
  5
34F3E
330
2A44A
100
AcDbEntity
  8
0
100
AcDbSpline
210
0.0
220
0.0
230
1.0
 70
     8
 71
     3
 72
    11
 73
     7
 74
     0
 42
0.000000001
 43
0.0000000001
 40
0.0
 40
0.0
 40
0.0
 40
0.0
 40
0.1723399321485178
 40
0.4284154603096228
 40
0.6883609852555271
 40
1.0
 40
1.0
 40
1.0
 40
1.0
 10
1331.347489230094
 20
850.6522019360636
 30
0.0
 10
1330.95816974638
 20
850.3901314154354
 30
0.0
 10
1329.990370329608
 20
849.7386569641895
 30
0.0
 10
1328.421790698099
 20
848.7122766199099
 30
0.0
 10
1326.533895119959
 20
847.481197425659
 30
0.0
 10
1325.227358170865
 20
846.6352259026971
 30
0.0
 10
1324.515008799491
 20
846.1739857647989
 30
0.0
  0
ARC
  5
34F3F
330
2A44A
100
AcDbEntity
  8
0
100
AcDbCircle
 10
1324.107562036013
 20
846.8036590076517
 30
0.0
 40
0.7500000000201
100
AcDbArc
 50
135.4734086321082
 51
302.9047114261318
  0
SPLINE
  5
34F40
330
2A44A
100
AcDbEntity
  8
0
100
AcDbSpline
210
0.0
220
0.0
230
1.0
 70
     8
 71
     3
 72
    16
 73
    12
 74
     0
 42
0.000000001
 43
0.0000000001
 40
0.0
 40
0.0
 40
0.0
 40
0.0
 40
0.1923368845295794
 40
0.3644117185451721
 40
0.5162187417405562
 40
0.6477608497202102
 40
0.7590366009770891
 40
0.8485996702737971
 40
0.9186138423047987
 40
0.9690805911132903
 40
0.9999999999999998
 40
0.9999999999999998
 40
0.9999999999999998
 40
0.9999999999999998
 10
1323.572897784142
 20
847.3296006176969
 30
0.0
 10
1326.214171416759
 20
850.0147562272177
 30
0.0
 10
1331.218469297273
 20
855.1021952414448
 30
0.0
 10
1338.308173775607
 20
862.3082658047424
 30
0.0
 10
1344.56383251724
 20
868.664791533105
 30
0.0
 10
1349.985084179549
 20
874.1720097567158
 30
0.0
 10
1354.552366763812
 20
878.8094726592753
 30
0.0
 10
1358.275017025611
 20
882.5876660738796
 30
0.0
 10
1361.163713537702
 20
885.5158276673973
 30
0.0
 10
1363.246451189705
 20
887.6259111895851
 30
0.0
 10
1364.369261108943
 20
888.7570087904315
 30
0.0
 10
1364.795827738671
 20
889.1867239926359
 30
0.0
  0
SPLINE
  5
34F41
330
2A44A
100
AcDbEntity
  8
0
100
AcDbSpline
210
0.0
220
0.0
230
1.0
 70
     8
 71
     3
 72
     9
 73
     5
 74
     0
 42
0.000000001
 43
0.0000000001
 40
0.0
 40
0.0
 40
0.0
 40
0.0
 40
0.5601424525075098
 40
1.0
 40
1.0
 40
1.0
 40
1.0
 10
1364.795827738671
 20
889.1867239926359
 30
0.0
 10
1365.243302088747
 20
889.6296484179401
 30
0.0
 10
1366.042160215082
 20
890.4203837448294
 30
0.0
 10
1366.814779518892
 20
891.2367428231082
 30
0.0
 10
1367.154621951042
 20
891.5958245251603
 30
0.0
  0
SPLINE
  5
34F42
330
2A44A
100
AcDbEntity
  8
0
100
AcDbSpline
210
0.0
220
0.0
230
1.0
 70
     8
 71
     3
 72
    11
 73
     7
 74
     0
 42
0.000000001
 43
0.0000000001
 40
0.0
 40
0.0
 40
0.0
 40
0.0
 40
0.2869336003890728
 40
0.5617952159198165
 40
0.7777674728254639
 40
1.0
 40
1.0
 40
1.0
 40
1.0
 10
1367.154621951042
 20
891.5958245251603
 30
0.0
 10
1367.438672157754
 20
891.9863222475614
 30
0.0
 10
1367.994821897642
 20
892.750888516457
 30
0.0
 10
1368.14137053326
 20
894.0813009456324
 30
0.0
 10
1367.885538611001
 20
895.2603368855633
 30
0.0
 10
1367.45388112327
 20
895.8537040966767
 30
0.0
 10
1367.23496901217
 20
896.1546261761759
 30
0.0
  0
SPLINE
  5
34F43
330
2A44A
100
AcDbEntity
  8
0
100
AcDbSpline
210
0.0
220
0.0
230
1.0
 70
     8
 71
     3
 72
    11
 73
     7
 74
     0
 42
0.000000001
 43
0.0000000001
 40
0.0
 40
0.0
 40
0.0
 40
0.0
 40
0.281158760308679
 40
0.5535067953520361
 40
0.7714579150782265
 40
1.0
 40
1.0
 40
1.0
 40
1.0
 10
1367.23496901217
 20
896.1546261761759
 30
0.0
 10
1366.891695622842
 20
896.4613738232293
 30
0.0
 10
1366.215906067278
 20
897.0652565083145
 30
0.0
 10
1364.951891283701
 20
897.3341094188144
 30
0.0
 10
1363.778338207565
 20
897.2044020998291
 30
0.0
 10
1363.141102531714
 20
896.8550866768783
 30
0.0
 10
1362.814926974206
 20
896.6762860272355
 30
0.0
  0
SPLINE
  5
34F44
330
2A44A
100
AcDbEntity
  8
0
100
AcDbSpline
210
0.0
220
0.0
230
1.0
 70
     8
 71
     3
 72
     9
 73
     5
 74
     0
 42
0.000000001
 43
0.0000000001
 40
0.0
 40
0.0
 40
0.0
 40
0.0
 40
0.5599960349878387
 40
0.9999999999999998
 40
0.9999999999999998
 40
0.9999999999999998
 40
0.9999999999999998
 10
1362.814926974206
 20
896.6762860272355
 30
0.0
 10
1362.428521540532
 20
896.4151520641898
 30
0.0
 10
1361.738506951944
 20
895.9488381141708
 30
0.0
 10
1361.047812350203
 20
895.483532042388
 30
0.0
 10
1360.74390398684
 20
895.2787955258463
 30
0.0
  0
SPLINE
  5
34F45
330
2A44A
100
AcDbEntity
  8
0
100
AcDbSpline
210
0.0
220
0.0
230
1.0
 70
     8
 71
     3
 72
    16
 73
    12
 74
     0
 42
0.000000001
 43
0.0000000001
 40
0.0
 40
0.0
 40
0.0
 40
0.0
 40
0.0397609816973578
 40
0.0977457012906191
 40
0.1739517898220074
 40
0.2683798492478826
 40
0.3810316543290759
 40
0.5094067526217913
 40
0.6553610253788272
 40
0.8188926990791099
 40
1.0
 40
1.0
 40
1.0
 40
1.0
 10
1360.74390398684
 20
895.2787955258463
 30
0.0
 10
1360.124407098534
 20
894.8684658444472
 30
0.0
 10
1358.60147795517
 20
893.8597391793591
 30
0.0
 10
1355.890127877203
 20
892.0662195915937
 30
0.0
 10
1352.326643760512
 20
889.7091339840189
 30
0.0
 10
1347.910580759861
 20
886.7891542572833
 30
0.0
 10
1342.68093818047
 20
883.3319428267932
 30
0.0
 10
1336.647940054005
 20
879.3438171934104
 30
0.0
 10
1329.821411960081
 20
874.8318179829658
 30
0.0
 10
1322.172608995046
 20
869.7766546515486
 30
0.0
 10
1316.79927554266
 20
866.2255713970152
 30
0.0
 10
1313.975596300988
 20
864.3594820950529
 30
0.0
  0
ARC
  5
34F46
330
2A44A
100
AcDbEntity
  8
0
100
AcDbCircle
 10
1313.515553556812
 20
865.0555927431705
 30
0.0
 40
0.8344278177379418
100
AcDbArc
 50
150.7464939632735
 51
303.4590744011198
  0
SPLINE
  5
34F47
330
2A44A
100
AcDbEntity
  8
0
100
AcDbSpline
210
0.0
220
0.0
230
1.0
 70
     8
 71
     3
 72
    13
 73
     9
 74
     0
 42
0.000000001
 43
0.0000000001
 40
0.0
 40
0.0
 40
0.0
 40
0.0
 40
0.1896213990731938
 40
0.3314540306226501
 40
0.4392680448429396
 40
0.5338109192080544
 40
0.7157861582364794
 40
0.9999999999999998
 40
0.9999999999999998
 40
0.9999999999999998
 40
0.9999999999999998
 10
1312.787556521325
 20
865.4633601163004
 30
0.0
 10
1312.883410703354
 20
865.6351470075824
 30
0.0
 10
1313.050961703055
 20
865.9354267112503
 30
0.0
 10
1313.246826122216
 20
866.3468195216628
 30
0.0
 10
1313.341802657545
 20
866.6965341191099
 30
0.0
 10
1313.287480507388
 20
867.103205621548
 30
0.0
 10
1312.928372701681
 20
867.5828899496991
 30
0.0
 10
1312.592644737677
 20
867.9267527990013
 30
0.0
 10
1312.387966982751
 20
868.1363900158903
 30
0.0
  0
SPLINE
  5
34F48
330
2A44A
100
AcDbEntity
  8
0
100
AcDbSpline
210
0.0
220
0.0
230
1.0
 70
     8
 71
     3
 72
    11
 73
     7
 74
     0
 42
0.000000001
 43
0.0000000001
 40
0.0
 40
0.0
 40
0.0
 40
0.0
 40
0.2348472934246657
 40
0.5171005794996834
 40
0.7542581711097749
 40
1.0
 40
1.0
 40
1.0
 40
1.0
 10
1312.387966982751
 20
868.1363900158903
 30
0.0
 10
1311.54963874301
 20
868.9190916690277
 30
0.0
 10
1309.703758331649
 20
870.6424901911232
 30
0.0
 10
1307.042680384962
 20
873.184672659714
 30
0.0
 10
1304.710773293009
 20
876.1578137730539
 30
0.0
 10
1303.862576138221
 20
878.371401199227
 30
0.0
 10
1303.430938593774
 20
879.4978697751066
 30
0.0
  0
SPLINE
  5
34F49
330
2A44A
100
AcDbEntity
  8
0
100
AcDbSpline
210
0.0
220
0.0
230
1.0
 70
     8
 71
     3
 72
    16
 73
    12
 74
     0
 42
0.000000001
 43
0.0000000001
 40
0.0
 40
0.0
 40
0.0
 40
0.0
 40
0.041723090075054
 40
0.077794336035065
 40
0.1121343878982162
 40
0.1484665507379942
 40
0.2300599768170379
 40
0.334017671535898
 40
0.5404020436264139
 40
0.759840522968839
 40
1.0
 40
1.0
 40
1.0
 40
1.0
 10
1303.430938593774
 20
879.4978697751066
 30
0.0
 10
1303.422043546212
 20
879.6523477121736
 30
0.0
 10
1303.405458381537
 20
879.9403778778069
 30
0.0
 10
1303.528416497422
 20
880.3450580366115
 30
0.0
 10
1303.768291544831
 20
880.6661463915515
 30
0.0
 10
1304.238427011318
 20
880.9871588025853
 30
0.0
 10
1305.050153778364
 20
881.1864891114165
 30
0.0
 10
1306.497486642729
 20
881.2096127353143
 30
0.0
 10
1308.437227632697
 20
880.9154279218855
 30
0.0
 10
1310.824186991573
 20
880.3415165977858
 30
0.0
 10
1312.442642774076
 20
879.8394013258658
 30
0.0
 10
1313.288354746757
 20
879.577024743361
 30
0.0
  0
ARC
  5
34F4A
330
2A44A
100
AcDbEntity
  8
0
100
AcDbCircle
 10
1313.915018518681
 20
881.5265338713288
 30
0.0
 40
2.04775173684043
100
AcDbArc
 50
252.1797845292345
 51
70.44342229227666
  0
LINE
  5
34F4B
330
2A44A
100
AcDbEntity
  8
0
100
AcDbLine
 10
1489.944124094902
 20
806.7316849682828
 30
0.0
 11
1497.944140307365
 21
806.7316849682828
 31
0.0
  0
LINE
  5
34F4C
330
2A44A
100
AcDbEntity
  8
0
100
AcDbLine
 10
1497.944140307365
 20
656.7317088101481
 30
0.0
 11
1497.944140307365
 21
806.7316849682828
 31
0.0
  0
LINE
  5
34F4D
330
2A44A
100
AcDbEntity
  8
0
100
AcDbLine
 10
1127.812051646142
 20
1026.863678262059
 30
0.0
 11
1277.812027804313
 21
1026.863678262059
 31
0.0
  0
LINE
  5
34F4E
330
2A44A
100
AcDbEntity
  8
0
100
AcDbLine
 10
1277.812027804313
 20
1026.863678262059
 30
0.0
 11
1277.812027804313
 21
1018.863662049589
 31
0.0
  0
LWPOLYLINE
  5
34F4F
330
2A44A
100
AcDbEntity
  8
0
100
AcDbPolyline
 90
        3
 70
   128
 43
0.0
 10
1277.812027804313
 20
1018.863662049589
 10
1283.360266558586
 20
1024.411900803861
 10
1283.468866221337
 20
1024.520619675931
  0
LINE
  5
34F50
330
2A44A
100
AcDbEntity
  8
0
100
AcDbLine
 10
1495.600962511955
 20
812.3885233853433
 30
0.0
 11
1283.468866221337
 21
1024.520619675931
 31
0.0
  0
LWPOLYLINE
  5
34F51
330
2A44A
100
AcDbEntity
  8
0
100
AcDbPolyline
 90
        6
 70
   128
 43
0.0
 10
1495.600962511955
 20
812.3885233853433
 10
1494.647645823417
 20
811.4352066967985
 10
1493.944072596488
 20
810.731633469877
 10
1493.086838595329
 20
809.8745186779996
 10
1491.047644488273
 20
807.835324570944
 10
1489.944124094902
 20
806.7316849682828
  0
ARC
  5
34F52
330
2A44A
100
AcDbEntity
  8
0
100
AcDbCircle
 10
1177.812061182885
 20
-918.268409698685
 30
0.0
 40
49.99999999999959
100
AcDbArc
 50
134.9999999999263
 51
180.0
  0
LINE
  5
34F53
330
2A44A
100
AcDbEntity
  8
0
100
AcDbLine
 10
1404.588723055778
 20
-620.7810296709649
 30
0.0
 11
1142.456674448905
 21
-882.9130708272568
 31
0.0
  0
ARC
  5
34F54
330
2A44A
100
AcDbEntity
  8
0
100
AcDbCircle
 10
1439.944095538863
 20
-656.1363753427358
 30
0.0
 40
50.0000000000023
100
AcDbArc
 50
90.0
 51
134.9999999999263
  0
LINE
  5
34F55
330
2A44A
100
AcDbEntity
  8
0
100
AcDbLine
 10
1497.944140307365
 20
-606.1363770659008
 30
0.0
 11
1439.944052569328
 21
-606.1363770659008
 31
0.0
  0
LINE
  5
34F56
330
2A44A
100
AcDbEntity
  8
0
100
AcDbLine
 10
1489.944124094902
 20
-756.1363681252041
 30
0.0
 11
1489.944124094902
 21
-606.1363770659008
 31
0.0
  0
LINE
  5
34F57
330
2A44A
100
AcDbEntity
  8
0
100
AcDbLine
 10
1277.812027804313
 20
-968.2684103990977
 30
0.0
 11
1489.944124094902
 21
-756.1363681252041
 31
0.0
  0
LINE
  5
34F58
330
2A44A
100
AcDbEntity
  8
0
100
AcDbLine
 10
1127.812051646142
 20
-968.2684103990977
 30
0.0
 11
1277.812027804313
 21
-968.2684103990977
 31
0.0
  0
SPLINE
  5
34F59
330
2A44A
100
AcDbEntity
  8
0
100
AcDbSpline
210
0.0
220
0.0
230
1.0
 70
     8
 71
     3
 72
    10
 73
     6
 74
     0
 42
0.000000001
 43
0.0000000001
 40
0.0
 40
0.0
 40
0.0
 40
0.0
 40
0.5993005585144921
 40
0.8113625885024692
 40
1.0
 40
1.0
 40
1.0
 40
1.0
 10
1354.536557070642
 20
-792.9247870142498
 30
0.0
 10
1355.207042082031
 20
-790.9484167933478
 30
0.0
 10
1356.114777685951
 20
-788.2727095284572
 30
0.0
 10
1356.952325232029
 20
-784.8898121259408
 30
0.0
 10
1357.160878250426
 20
-783.5101304558702
 30
0.0
 10
1357.259058825431
 20
-782.8606172497384
 30
0.0
  0
SPLINE
  5
34F5A
330
2A44A
100
AcDbEntity
  8
0
100
AcDbSpline
210
0.0
220
0.0
230
1.0
 70
     8
 71
     3
 72
    17
 73
    13
 74
     0
 42
0.000000001
 43
0.0000000001
 40
0.0
 40
0.0
 40
0.0
 40
0.0
 40
0.1480063500375586
 40
0.2612846323916752
 40
0.3496526494557326
 40
0.4332740579345471
 40
0.5141808788653443
 40
0.5996954279222889
 40
0.6900568884607655
 40
0.8111330683136175
 40
0.9199376584741061
 40
1.0
 40
1.0
 40
1.0
 40
1.0
 10
1357.259058825431
 20
-782.8606172497384
 30
0.0
 10
1357.369217035528
 20
-782.0138620111029
 30
0.0
 10
1357.563686039262
 20
-780.519033368997
 30
0.0
 10
1357.379350137482
 20
-778.4946781315666
 30
0.0
 10
1356.785459630621
 20
-776.9324451670327
 30
0.0
 10
1355.738213753815
 20
-775.8517934949704
 30
0.0
 10
1354.364085418543
 20
-775.32167144095
 30
0.0
 10
1352.876166257447
 20
-775.2208096650719
 30
0.0
 10
1351.173171512804
 20
-775.4338712835087
 30
0.0
 10
1349.394442779121
 20
-775.9381435278265
 30
0.0
 10
1347.7314099422
 20
-776.5936852351587
 30
0.0
 10
1346.767017948288
 20
-777.0965970034303
 30
0.0
 10
1346.358203761039
 20
-777.3097856934182
 30
0.0
  0
SPLINE
  5
34F5B
330
2A44A
100
AcDbEntity
  8
0
100
AcDbSpline
210
0.0
220
0.0
230
1.0
 70
     8
 71
     3
 72
    10
 73
     6
 74
     0
 42
0.000000001
 43
0.0000000001
 40
0.0
 40
0.0
 40
0.0
 40
0.0
 40
0.2823467962866084
 40
0.5559717856927371
 40
1.0
 40
1.0
 40
1.0
 40
1.0
 10
1346.358203761039
 20
-777.3097856934182
 30
0.0
 10
1345.398452553018
 20
-777.9538748877821
 30
0.0
 10
1343.508597240543
 20
-779.2221571004774
 30
0.0
 10
1340.345456780888
 20
-781.8272512301409
 30
0.0
 10
1338.236996407177
 20
-783.872162668209
 30
0.0
 10
1336.932444445519
 20
-785.1373954708614
 30
0.0
  0
LINE
  5
34F5C
330
2A44A
100
AcDbEntity
  8
0
100
AcDbLine
 10
1336.932444445519
 20
-785.1373954708614
 30
0.0
 11
1325.52387701696
 21
-777.8223111326806
 31
0.0
  0
SPLINE
  5
34F5D
330
2A44A
100
AcDbEntity
  8
0
100
AcDbSpline
210
0.0
220
0.0
230
1.0
 70
     8
 71
     3
 72
     9
 73
     5
 74
     0
 42
0.000000001
 43
0.0000000001
 40
0.0
 40
0.0
 40
0.0
 40
0.0
 40
0.5587108299269108
 40
1.0
 40
1.0
 40
1.0
 40
1.0
 10
1325.52387701696
 20
-777.8223111326806
 30
0.0
 10
1325.170462434173
 20
-777.6211902624418
 30
0.0
 10
1324.537908769874
 20
-777.2612171610526
 30
0.0
 10
1323.81369023845
 20
-777.2492384421784
 30
0.0
 10
1323.494100443749
 20
-777.243952363271
 30
0.0
  0
SPLINE
  5
34F5E
330
2A44A
100
AcDbEntity
  8
0
100
AcDbSpline
210
0.0
220
0.0
230
1.0
 70
     8
 71
     3
 72
    14
 73
    10
 74
     0
 42
0.000000001
 43
0.0000000001
 40
0.0
 40
0.0
 40
0.0
 40
0.0
 40
0.1539312471840695
 40
0.3114309161499431
 40
0.4714821144121319
 40
0.5930578382119821
 40
0.7177721488158591
 40
0.8506825381913197
 40
0.9999999999999998
 40
0.9999999999999998
 40
0.9999999999999998
 40
0.9999999999999998
 10
1323.494100443749
 20
-777.243952363271
 30
0.0
 10
1323.124164119297
 20
-777.2989977468678
 30
0.0
 10
1322.375715636292
 20
-777.4103645717477
 30
0.0
 10
1321.402743703096
 20
-778.0517408030864
 30
0.0
 10
1320.711920686233
 20
-778.8679950673468
 30
0.0
 10
1320.319438885221
 20
-779.7767339911879
 30
0.0
 10
1320.20065667983
 20
-780.6914319316711
 30
0.0
 10
1320.356724944249
 20
-781.6784043109801
 30
0.0
 10
1320.695019146769
 20
-782.2723583005863
 30
0.0
 10
1320.873999468742
 20
-782.586599796552
 30
0.0
  0
SPLINE
  5
34F5F
330
2A44A
100
AcDbEntity
  8
0
100
AcDbSpline
210
0.0
220
0.0
230
1.0
 70
     8
 71
     3
 72
    14
 73
    10
 74
     0
 42
0.000000001
 43
0.0000000001
 40
0.0
 40
0.0
 40
0.0
 40
0.0
 40
0.0494266501589303
 40
0.1283437705271726
 40
0.2367475985451874
 40
0.3746419010342611
 40
0.5507290823276911
 40
0.7591827390336201
 40
1.0
 40
1.0
 40
1.0
 40
1.0
 10
1320.873999468742
 20
-782.586599796552
 30
0.0
 10
1321.254544924326
 20
-783.1579106064674
 30
0.0
 10
1322.242688738908
 20
-784.6414055075438
 30
0.0
 10
1324.064357721647
 20
-787.37864482031
 30
0.0
 10
1326.566284463268
 20
-791.1390408248553
 30
0.0
 10
1329.815556562935
 20
-796.0231254690151
 30
0.0
 10
1333.833862624502
 20
-802.0645067183068
 30
0.0
 10
1338.643895029898
 20
-809.2960141937583
 30
0.0
 10
1342.09924090845
 20
-814.4914776493969
 30
0.0
 10
1343.951368205009
 20
-817.2763391430416
 30
0.0
  0
SPLINE
  5
34F60
330
2A44A
100
AcDbEntity
  8
0
100
AcDbSpline
210
0.0
220
0.0
230
1.0
 70
     8
 71
     3
 72
    16
 73
    12
 74
     0
 42
0.000000001
 43
0.0000000001
 40
0.0
 40
0.0
 40
0.0
 40
0.0
 40
0.1889406737511598
 40
0.3584717439422329
 40
0.5085946441223176
 40
0.6393104938228075
 40
0.7506170609658484
 40
0.8410439218540805
 40
0.9127502284362885
 40
0.9657359971242978
 40
1.0
 40
1.0
 40
1.0
 40
1.0
 10
1343.951368205009
 20
-817.2763391430416
 30
0.0
 10
1340.964645610853
 20
-814.3326536742316
 30
0.0
 10
1335.29802213722
 20
-808.7476833093532
 30
0.0
 10
1327.259109692757
 20
-800.8229815964586
 30
0.0
 10
1320.141204994863
 20
-793.804805267202
 30
0.0
 10
1313.944143902969
 20
-787.693310627772
 30
0.0
 10
1308.691485991985
 20
-782.5111226433728
 30
0.0
 10
1304.372076598192
 20
-778.2478521341618
 30
0.0
 10
1300.975382600671
 20
-774.8924123918259
 30
0.0
 10
1298.466098585159
 20
-772.4123870821204
 30
0.0
 10
1297.09144960087
 20
-771.0484169895862
 30
0.0
 10
1296.551608912377
 20
-770.5127700264638
 30
0.0
  0
SPLINE
  5
34F61
330
2A44A
100
AcDbEntity
  8
0
100
AcDbSpline
210
0.0
220
0.0
230
1.0
 70
     8
 71
     3
 72
     9
 73
     5
 74
     0
 42
0.000000001
 43
0.0000000001
 40
0.0
 40
0.0
 40
0.0
 40
0.0
 40
0.5607850030992701
 40
1.0
 40
1.0
 40
1.0
 40
1.0
 10
1296.551608912377
 20
-770.5127700264638
 30
0.0
 10
1296.370467673019
 20
-770.330834518143
 30
0.0
 10
1296.047453971892
 20
-770.0064044650644
 30
0.0
 10
1295.693951268062
 20
-769.7156383119727
 30
0.0
 10
1295.538687579064
 20
-769.5879294569603
 30
0.0
  0
SPLINE
  5
34F62
330
2A44A
100
AcDbEntity
  8
0
100
AcDbSpline
210
0.0
220
0.0
230
1.0
 70
     8
 71
     3
 72
    11
 73
     7
 74
     0
 42
0.000000001
 43
0.0000000001
 40
0.0
 40
0.0
 40
0.0
 40
0.0
 40
0.2820319900630109
 40
0.5559882307909474
 40
0.7739903995830658
 40
1.0
 40
1.0
 40
1.0
 40
1.0
 10
1295.538687579064
 20
-769.5879294569603
 30
0.0
 10
1295.174235174803
 20
-769.3668342638484
 30
0.0
 10
1294.45576615497
 20
-768.9309747529041
 30
0.0
 10
1293.263877000361
 20
-768.866147781926
 30
0.0
 10
1292.207796914146
 20
-769.1282830387426
 30
0.0
 10
1291.662358285561
 20
-769.5131448414395
 30
0.0
 10
1291.384720675407
 20
-769.7090460951512
 30
0.0
  0
SPLINE
  5
34F63
330
2A44A
100
AcDbEntity
  8
0
100
AcDbSpline
210
0.0
220
0.0
230
1.0
 70
     8
 71
     3
 72
    11
 73
     7
 74
     0
 42
0.000000001
 43
0.0000000001
 40
0.0
 40
0.0
 40
0.0
 40
0.0
 40
0.2821552063242447
 40
0.5601870299639903
 40
0.7786970037993683
 40
1.0
 40
1.0
 40
1.0
 40
1.0
 10
1291.384720675407
 20
-769.7090460951512
 30
0.0
 10
1291.091377052034
 20
-770.018163975059
 30
0.0
 10
1290.508976694247
 20
-770.6318823228939
 30
0.0
 10
1290.175725651199
 20
-771.7822187371857
 30
0.0
 10
1290.176043530046
 20
-772.8713755088465
 30
0.0
 10
1290.428401411009
 20
-773.4832101506326
 30
0.0
 10
1290.555381648002
 20
-773.7910701925793
 30
0.0
  0
SPLINE
  5
34F64
330
2A44A
100
AcDbEntity
  8
0
100
AcDbSpline
210
0.0
220
0.0
230
1.0
 70
     8
 71
     3
 72
     9
 73
     5
 74
     0
 42
0.000000001
 43
0.0000000001
 40
0.0
 40
0.0
 40
0.0
 40
0.0
 40
0.5598620150316988
 40
1.0
 40
1.0
 40
1.0
 40
1.0
 10
1290.555381648002
 20
-773.7910701925793
 30
0.0
 10
1290.694368470103
 20
-774.0334386115209
 30
0.0
 10
1290.942620393609
 20
-774.4663460287193
 30
0.0
 10
1291.216080661739
 20
-774.8837455657849
 30
0.0
 10
1291.336440913139
 20
-775.067458956968
 30
0.0
  0
SPLINE
  5
34F65
330
2A44A
100
AcDbEntity
  8
0
100
AcDbSpline
210
0.0
220
0.0
230
1.0
 70
     8
 71
     3
 72
     9
 73
     5
 74
     0
 42
0.000000001
 43
0.0000000001
 40
0.0
 40
0.0
 40
0.0
 40
0.0
 40
0.5600545730136615
 40
1.0
 40
1.0
 40
1.0
 40
1.0
 10
1291.336440913139
 20
-775.067458956968
 30
0.0
 10
1292.456801671469
 20
-776.8131597697647
 30
0.0
 10
1294.457250935396
 20
-779.9301788906014
 30
0.0
 10
1296.460435982611
 20
-783.0454404687916
 30
0.0
 10
1297.341728083549
 20
-784.415985553991
 30
0.0
  0
SPLINE
  5
34F66
330
2A44A
100
AcDbEntity
  8
0
100
AcDbSpline
210
0.0
220
0.0
230
1.0
 70
     8
 71
     3
 72
    16
 73
    12
 74
     0
 42
0.000000001
 43
0.0000000001
 40
0.0
 40
0.0
 40
0.0
 40
0.0
 40
0.0957638600709434
 40
0.2149663953201845
 40
0.3492358889444886
 40
0.4901913833457022
 40
0.6294611607486633
 40
0.7564952781176269
 40
0.8658865140325106
 40
0.9497000743441343
 40
1.0
 40
1.0
 40
1.0
 40
1.0
 10
1297.341728083549
 20
-784.415985553991
 30
0.0
 10
1297.897664425858
 20
-785.2799247383082
 30
0.0
 10
1299.145605261226
 20
-787.2192564662618
 30
0.0
 10
1301.172436785528
 20
-790.3702824612046
 30
0.0
 10
1303.4617196127
 20
-793.9289423775262
 30
0.0
 10
1305.866959749131
 20
-797.6689865915832
 30
0.0
 10
1308.230294224595
 20
-801.3436935596764
 30
0.0
 10
1310.410131116536
 20
-804.7338077503081
 30
0.0
 10
1312.267966604639
 20
-807.6236604498626
 30
0.0
 10
1313.6805799629
 20
-809.8210959613716
 30
0.0
 10
1314.45794747999
 20
-811.0317794034926
 30
0.0
 10
1314.749503008752
 20
-811.4858522112408
 30
0.0
  0
SPLINE
  5
34F67
330
2A44A
100
AcDbEntity
  8
0
100
AcDbSpline
210
0.0
220
0.0
230
1.0
 70
     8
 71
     3
 72
     9
 73
     5
 74
     0
 42
0.000000001
 43
0.0000000001
 40
0.0
 40
0.0
 40
0.0
 40
0.0
 40
0.5911882822391562
 40
1.0
 40
1.0
 40
1.0
 40
1.0
 10
1314.749503008752
 20
-811.4858522112408
 30
0.0
 10
1314.625858754058
 20
-811.6918923530466
 30
0.0
 10
1314.416713447186
 20
-812.0404110026939
 30
0.0
 10
1314.195156023335
 20
-812.3811547126825
 30
0.0
 10
1314.104580752282
 20
-812.5204547341054
 30
0.0
  0
SPLINE
  5
34F68
330
2A44A
100
AcDbEntity
  8
0
100
AcDbSpline
210
0.0
220
0.0
230
1.0
 70
     8
 71
     3
 72
    10
 73
     6
 74
     0
 42
0.000000001
 43
0.0000000001
 40
0.0
 40
0.0
 40
0.0
 40
0.0
 40
0.280155206925303
 40
0.5599841283745865
 40
0.9999999999999998
 40
0.9999999999999998
 40
0.9999999999999998
 40
0.9999999999999998
 10
1314.104580752282
 20
-812.5204547341054
 30
0.0
 10
1312.362368947964
 20
-815.1106462583703
 30
0.0
 10
1308.879974423202
 20
-820.2880126152667
 30
0.0
 10
1303.056047729646
 20
-829.7946377485351
 30
0.0
 10
1299.359081912284
 20
-836.9155715536763
 30
0.0
 10
1297.099256388603
 20
-841.2683486039822
 30
0.0
  0
SPLINE
  5
34F69
330
2A44A
100
AcDbEntity
  8
0
100
AcDbSpline
210
0.0
220
0.0
230
1.0
 70
     8
 71
     3
 72
    10
 73
     6
 74
     0
 42
0.000000001
 43
0.0000000001
 40
0.0
 40
0.0
 40
0.0
 40
0.0
 40
0.2801721033930721
 40
0.5598956751357587
 40
1.0
 40
1.0
 40
1.0
 40
1.0
 10
1297.099256388603
 20
-841.2683486039822
 30
0.0
 10
1296.153928541978
 20
-843.2323021843986
 30
0.0
 10
1294.264786238047
 20
-847.1570652229784
 30
0.0
 10
1291.190802946621
 20
-854.3131179093034
 30
0.0
 10
1289.533068070996
 20
-859.6674940471421
 30
0.0
 10
1288.519525401025
 20
-862.9411711390057
 30
0.0
  0
SPLINE
  5
34F6A
330
2A44A
100
AcDbEntity
  8
0
100
AcDbSpline
210
0.0
220
0.0
230
1.0
 70
     8
 71
     3
 72
     9
 73
     5
 74
     0
 42
0.000000001
 43
0.0000000001
 40
0.0
 40
0.0
 40
0.0
 40
0.0
 40
0.5596292764004538
 40
1.0
 40
1.0
 40
1.0
 40
1.0
 10
1288.519525401025
 20
-862.9411711390057
 30
0.0
 10
1288.148837540961
 20
-864.3890816739876
 30
0.0
 10
1287.486456433158
 20
-866.9763489883262
 30
0.0
 10
1287.290226423582
 20
-869.6381783397592
 30
0.0
 10
1287.203812472253
 20
-870.8103700573483
 30
0.0
  0
SPLINE
  5
34F6B
330
2A44A
100
AcDbEntity
  8
0
100
AcDbSpline
210
0.0
220
0.0
230
1.0
 70
     8
 71
     3
 72
     9
 73
     5
 74
     0
 42
0.000000001
 43
0.0000000001
 40
0.0
 40
0.0
 40
0.0
 40
0.0
 40
0.5594104734215235
 40
1.0
 40
1.0
 40
1.0
 40
1.0
 10
1287.203812472253
 20
-870.8103700573483
 30
0.0
 10
1287.196337728492
 20
-871.5600127912329
 30
0.0
 10
1287.182975905387
 20
-872.900071244716
 30
0.0
 10
1287.568492397746
 20
-874.1810366221615
 30
0.0
 10
1287.738346926628
 20
-874.7454165513554
 30
0.0
  0
SPLINE
  5
34F6C
330
2A44A
100
AcDbEntity
  8
0
100
AcDbSpline
210
0.0
220
0.0
230
1.0
 70
     8
 71
     3
 72
    11
 73
     7
 74
     0
 42
0.000000001
 43
0.0000000001
 40
0.0
 40
0.0
 40
0.0
 40
0.0
 40
0.2938307361765144
 40
0.5579022598397675
 40
0.7678895134108864
 40
0.9999999999999998
 40
0.9999999999999998
 40
0.9999999999999998
 40
0.9999999999999998
 10
1287.738346926628
 20
-874.7454165513554
 30
0.0
 10
1287.993552672815
 20
-875.293159140776
 30
0.0
 10
1288.478116896375
 20
-876.3331688839025
 30
0.0
 10
1289.747554216294
 20
-877.3383098578852
 30
0.0
 10
1291.153328209264
 20
-877.7607680407163
 30
0.0
 10
1292.055871793236
 20
-877.6792054411053
 30
0.0
 10
1292.529725901513
 20
-877.6363833840004
 30
0.0
  0
SPLINE
  5
34F6D
330
2A44A
100
AcDbEntity
  8
0
100
AcDbSpline
210
0.0
220
0.0
230
1.0
 70
     8
 71
     3
 72
     9
 73
     5
 74
     0
 42
0.000000001
 43
0.0000000001
 40
0.0
 40
0.0
 40
0.0
 40
0.0
 40
0.5591212948170359
 40
0.9999999999999998
 40
0.9999999999999998
 40
0.9999999999999998
 40
0.9999999999999998
 10
1292.529725901513
 20
-877.6363833840004
 30
0.0
 10
1293.142850066499
 20
-877.5033168063965
 30
0.0
 10
1294.239435316725
 20
-877.2653244801768
 30
0.0
 10
1295.26441687726
 20
-876.8108974119458
 30
0.0
 10
1295.716309420524
 20
-876.610550194513
 30
0.0
  0
SPLINE
  5
34F6E
330
2A44A
100
AcDbEntity
  8
0
100
AcDbSpline
210
0.0
220
0.0
230
1.0
 70
     8
 71
     3
 72
    10
 73
     6
 74
     0
 42
0.000000001
 43
0.0000000001
 40
0.0
 40
0.0
 40
0.0
 40
0.0
 40
0.2806276440388969
 40
0.5598341386150434
 40
1.0
 40
1.0
 40
1.0
 40
1.0
 10
1295.716309420524
 20
-876.610550194513
 30
0.0
 10
1296.514548508501
 20
-876.194844372163
 30
0.0
 10
1298.106984256468
 20
-875.3655379374395
 30
0.0
 10
1300.70287044267
 20
-873.4732542282072
 30
0.0
 10
1302.436323927504
 20
-871.955093227385
 30
0.0
 10
1303.496980540185
 20
-871.0261686737649
 30
0.0
  0
SPLINE
  5
34F6F
330
2A44A
100
AcDbEntity
  8
0
100
AcDbSpline
210
0.0
220
0.0
230
1.0
 70
     8
 71
     3
 72
    10
 73
     6
 74
     0
 42
0.000000001
 43
0.0000000001
 40
0.0
 40
0.0
 40
0.0
 40
0.0
 40
0.2803361310518598
 40
0.5600415930193031
 40
1.0
 40
1.0
 40
1.0
 40
1.0
 10
1303.496980540185
 20
-871.0261686737649
 30
0.0
 10
1305.15502010387
 20
-869.4851391870397
 30
0.0
 10
1308.467369157988
 20
-866.4065470505084
 30
0.0
 10
1313.932502139993
 20
-860.4553189902944
 30
0.0
 10
1317.584045012329
 20
-855.9362153076218
 30
0.0
 10
1319.816374651818
 20
-853.1735121305173
 30
0.0
  0
SPLINE
  5
34F70
330
2A44A
100
AcDbEntity
  8
0
100
AcDbSpline
210
0.0
220
0.0
230
1.0
 70
     8
 71
     3
 72
    10
 73
     6
 74
     0
 42
0.000000001
 43
0.0000000001
 40
0.0
 40
0.0
 40
0.0
 40
0.0
 40
0.2438740421793169
 40
0.5201218327866272
 40
1.0
 40
1.0
 40
1.0
 40
1.0
 10
1319.816374651818
 20
-853.1735121305173
 30
0.0
 10
1320.299060827725
 20
-852.5654200774516
 30
0.0
 10
1321.32850871898
 20
-851.268513074523
 30
0.0
 10
1323.25125278945
 20
-848.7310120348192
 30
0.0
 10
1324.672525147231
 20
-846.7883015501065
 30
0.0
 10
1325.57454096499
 20
-845.5553530748002
 30
0.0
  0
ARC
  5
34F71
330
2A44A
100
AcDbEntity
  8
0
100
AcDbCircle
 10
1323.532846927897
 20
-844.0736989502402
 30
0.0
 40
2.522629080271631
100
AcDbArc
 50
324.0312493595597
 51
143.0243907001732
  0
SPLINE
  5
34F72
330
2A44A
100
AcDbEntity
  8
0
100
AcDbSpline
210
0.0
220
0.0
230
1.0
 70
     8
 71
     3
 72
    11
 73
     7
 74
     0
 42
0.000000001
 43
0.0000000001
 40
0.0
 40
0.0
 40
0.0
 40
0.0
 40
0.3041919180816702
 40
0.5956656942459928
 40
0.8081449187883251
 40
1.0
 40
1.0
 40
1.0
 40
1.0
 10
1321.517491213708
 20
-842.5563975269906
 30
0.0
 10
1320.612768607207
 20
-843.7480320822142
 30
0.0
 10
1318.841149482956
 20
-846.081479430526
 30
0.0
 10
1316.359493210846
 20
-849.1865721830617
 30
0.0
 10
1314.16735296457
 20
-851.8155322586171
 30
0.0
 10
1312.827664135075
 20
-853.2854907696309
 30
0.0
 10
1312.191986910729
 20
-853.9829804594701
 30
0.0
  0
SPLINE
  5
34F73
330
2A44A
100
AcDbEntity
  8
0
100
AcDbSpline
210
0.0
220
0.0
230
1.0
 70
     8
 71
     3
 72
    18
 73
    14
 74
     0
 42
0.000000001
 43
0.0000000001
 40
0.0
 40
0.0
 40
0.0
 40
0.0
 40
0.2432064691099529
 40
0.4544671296007113
 40
0.6309040920699733
 40
0.727041046729809
 40
0.8063770502023835
 40
0.8568811526936682
 40
0.8974052354446714
 40
0.9253832508386889
 40
0.9491866521205258
 40
0.972615114318571
 40
1.0
 40
1.0
 40
1.0
 40
1.0
 10
1312.191986910729
 20
-853.9829804594701
 30
0.0
 10
1311.135235017449
 20
-855.1203588685675
 30
0.0
 10
1309.160538368123
 20
-857.2457180448909
 30
0.0
 10
1306.205417648736
 20
-859.9853882252864
 30
0.0
 10
1303.797004702261
 20
-861.9242404836914
 30
0.0
 10
1301.927834108377
 20
-863.1727020742619
 30
0.0
 10
1300.65725195605
 20
-863.8619873617644
 30
0.0
 10
1299.641232298796
 20
-864.2568583940738
 30
0.0
 10
1298.892842180263
 20
-864.4145276585915
 30
0.0
 10
1298.295911512592
 20
-864.389953958198
 30
0.0
 10
1297.842272507951
 20
-864.1940350028672
 30
0.0
 10
1297.527235703244
 20
-863.8097732673413
 30
0.0
 10
1297.458902189792
 20
-863.4889878792819
 30
0.0
 10
1297.422075144677
 20
-863.3161067063992
 30
0.0
  0
SPLINE
  5
34F74
330
2A44A
100
AcDbEntity
  8
0
100
AcDbSpline
210
0.0
220
0.0
230
1.0
 70
     8
 71
     3
 72
    11
 73
     7
 74
     0
 42
0.000000001
 43
0.0000000001
 40
0.0
 40
0.0
 40
0.0
 40
0.0
 40
0.2741315685228856
 40
0.5817945357358214
 40
0.8119583240508113
 40
1.0
 40
1.0
 40
1.0
 40
1.0
 10
1297.422075144677
 20
-863.3161067063992
 30
0.0
 10
1297.401029172055
 20
-862.2868814875182
 30
0.0
 10
1297.356362912185
 20
-860.1025376280523
 30
0.0
 10
1298.103823127421
 20
-857.1332821755131
 30
0.0
 10
1298.880989947261
 20
-854.5356642265396
 30
0.0
 10
1299.413925145221
 20
-853.0643947001081
 30
0.0
 10
1299.653553835778
 20
-852.4028538758866
 30
0.0
  0
SPLINE
  5
34F75
330
2A44A
100
AcDbEntity
  8
0
100
AcDbSpline
210
0.0
220
0.0
230
1.0
 70
     8
 71
     3
 72
     9
 73
     5
 74
     0
 42
0.000000001
 43
0.0000000001
 40
0.0
 40
0.0
 40
0.0
 40
0.0
 40
0.5599020319662971
 40
0.9999999999999998
 40
0.9999999999999998
 40
0.9999999999999998
 40
0.9999999999999998
 10
1299.653553835778
 20
-852.4028538758866
 30
0.0
 10
1301.089858631392
 20
-848.8862328521282
 30
0.0
 10
1303.655137400892
 20
-842.6054536747178
 30
0.0
 10
1306.872268317318
 20
-836.634011563874
 30
0.0
 10
1308.28812109652
 20
-834.0059920246639
 30
0.0
  0
SPLINE
  5
34F76
330
2A44A
100
AcDbEntity
  8
0
100
AcDbSpline
210
0.0
220
0.0
230
1.0
 70
     8
 71
     3
 72
     9
 73
     5
 74
     0
 42
0.000000001
 43
0.0000000001
 40
0.0
 40
0.0
 40
0.0
 40
0.0
 40
0.5599880334949027
 40
0.9999999999999998
 40
0.9999999999999998
 40
0.9999999999999998
 40
0.9999999999999998
 10
1308.28812109652
 20
-834.0059920246639
 30
0.0
 10
1310.642363465122
 20
-829.8800231325367
 30
0.0
 10
1314.84645753097
 20
-822.5120640952955
 30
0.0
 10
1319.579166614181
 20
-815.47308770816
 30
0.0
 10
1321.661615244775
 20
-812.3758538658657
 30
0.0
  0
SPLINE
  5
34F77
330
2A44A
100
AcDbEntity
  8
0
100
AcDbSpline
210
0.0
220
0.0
230
1.0
 70
     8
 71
     3
 72
    11
 73
     7
 74
     0
 42
0.000000001
 43
0.0000000001
 40
0.0
 40
0.0
 40
0.0
 40
0.0
 40
0.2980935553578094
 40
0.5523000989769454
 40
0.7575012541041827
 40
1.0
 40
1.0
 40
1.0
 40
1.0
 10
1321.661615244775
 20
-812.3758538658657
 30
0.0
 10
1321.816754579071
 20
-812.1290683303524
 30
0.0
 10
1322.104192761289
 20
-811.671830415471
 30
0.0
 10
1322.241251427498
 20
-810.924775976353
 30
0.0
 10
1322.087643574974
 20
-810.2450067085737
 30
0.0
 10
1321.857307425198
 20
-809.8731842316629
 30
0.0
 10
1321.732544772058
 20
-809.6717848475018
 30
0.0
  0
SPLINE
  5
34F78
330
2A44A
100
AcDbEntity
  8
0
100
AcDbSpline
210
0.0
220
0.0
230
1.0
 70
     8
 71
     3
 72
    11
 73
     7
 74
     0
 42
0.000000001
 43
0.0000000001
 40
0.0
 40
0.0
 40
0.0
 40
0.0
 40
0.1723399345923837
 40
0.4284108945114206
 40
0.6883515119803184
 40
1.0
 40
1.0
 40
1.0
 40
1.0
 10
1321.732544772058
 20
-809.6717848475018
 30
0.0
 10
1321.47047721687
 20
-809.2824634243006
 30
0.0
 10
1320.81901708943
 20
-808.3146695141913
 30
0.0
 10
1319.792574182291
 20
-806.7461616608852
 30
0.0
 10
1318.561698195866
 20
-804.8581337021387
 30
0.0
 10
1317.715631154708
 20
-803.5516439945494
 30
0.0
 10
1317.254328600793
 20
-802.8393044168987
 30
0.0
  0
ARC
  5
34F79
330
2A44A
100
AcDbEntity
  8
0
100
AcDbCircle
 10
1317.884033260656
 20
-802.4318761958712
 30
0.0
 40
0.7500000000197758
100
AcDbArc
 50
45.47340863197913
 51
212.9047114264368
  0
SPLINE
  5
34F7A
330
2A44A
100
AcDbEntity
  8
0
100
AcDbSpline
210
0.0
220
0.0
230
1.0
 70
     8
 71
     3
 72
    16
 73
    12
 74
     0
 42
0.000000001
 43
0.0000000001
 40
0.0
 40
0.0
 40
0.0
 40
0.0
 40
0.1923389049071318
 40
0.3644117245674572
 40
0.5162183722148345
 40
0.6477602080830289
 40
0.7590360576602011
 40
0.8485995969482168
 40
0.9186154306418725
 40
0.969082232461465
 40
1.0
 40
1.0
 40
1.0
 40
1.0
 10
1318.409943453727
 20
-801.8971785004177
 30
0.0
 10
1321.095147353066
 20
-804.5384633072535
 30
0.0
 10
1326.182624503148
 20
-809.5427298751674
 30
0.0
 10
1333.388613343784
 20
-816.6325174161684
 30
0.0
 10
1339.745139864528
 20
-822.8881101322986
 30
0.0
 10
1345.252355449418
 20
-828.3093570237905
 30
0.0
 10
1349.889836299255
 20
-832.8766363052054
 30
0.0
 10
1353.667999497404
 20
-836.5993848555589
 30
0.0
 10
1356.596271270297
 20
-839.4880346985519
 30
0.0
 10
1358.706370865599
 20
-841.5707613092891
 30
0.0
 10
1359.837394247319
 20
-842.6936034924365
 30
0.0
 10
1360.267066828666
 20
-843.1201680596059
 30
0.0
  0
SPLINE
  5
34F7B
330
2A44A
100
AcDbEntity
  8
0
100
AcDbSpline
210
0.0
220
0.0
230
1.0
 70
     8
 71
     3
 72
     9
 73
     5
 74
     0
 42
0.000000001
 43
0.0000000001
 40
0.0
 40
0.0
 40
0.0
 40
0.0
 40
0.560128745831358
 40
1.0
 40
1.0
 40
1.0
 40
1.0
 10
1360.267066828666
 20
-843.1201680596059
 30
0.0
 10
1360.70999841109
 20
-843.5676102423604
 30
0.0
 10
1361.500765865399
 20
-844.3664304887571
 30
0.0
 10
1362.317089889075
 20
-845.1390807370335
 30
0.0
 10
1362.676167361169
 20
-845.478947370786
 30
0.0
  0
SPLINE
  5
34F7C
330
2A44A
100
AcDbEntity
  8
0
100
AcDbSpline
210
0.0
220
0.0
230
1.0
 70
     8
 71
     3
 72
    11
 73
     7
 74
     0
 42
0.000000001
 43
0.0000000001
 40
0.0
 40
0.0
 40
0.0
 40
0.0
 40
0.2869359751832277
 40
0.5618200011451629
 40
0.7777887450553497
 40
0.9999999999999998
 40
0.9999999999999998
 40
0.9999999999999998
 40
0.9999999999999998
 10
1362.676167361169
 20
-845.478947370786
 30
0.0
 10
1363.066664521721
 20
-845.7630183483198
 30
0.0
 10
1363.831257093458
 20
-846.3192286904376
 30
0.0
 10
1365.161712067805
 20
-846.4655624456499
 30
0.0
 10
1366.340783113577
 20
-846.209941291665
 30
0.0
 10
1366.934089541806
 20
-845.7782515696381
 30
0.0
 10
1367.23496901217
 20
-845.5593316848389
 30
0.0
  0
SPLINE
  5
34F7D
330
2A44A
100
AcDbEntity
  8
0
100
AcDbSpline
210
0.0
220
0.0
230
1.0
 70
     8
 71
     3
 72
    11
 73
     7
 74
     0
 42
0.000000001
 43
0.0000000001
 40
0.0
 40
0.0
 40
0.0
 40
0.0
 40
0.281175432807172
 40
0.5535150903289692
 40
0.7714560032143507
 40
1.0
 40
1.0
 40
1.0
 40
1.0
 10
1367.23496901217
 20
-845.5593316848389
 30
0.0
 10
1367.541714241895
 20
-845.2160245626583
 30
0.0
 10
1368.145565410021
 20
-844.540198546012
 30
0.0
 10
1368.414459629326
 20
-843.2762070116513
 30
0.0
 10
1368.284733315835
 20
-842.1026827476962
 30
0.0
 10
1367.935428765246
 20
-841.4654599501954
 30
0.0
 10
1367.756628863244
 20
-841.1392821962872
 30
0.0
  0
SPLINE
  5
34F7E
330
2A44A
100
AcDbEntity
  8
0
100
AcDbSpline
210
0.0
220
0.0
230
1.0
 70
     8
 71
     3
 72
     9
 73
     5
 74
     0
 42
0.000000001
 43
0.0000000001
 40
0.0
 40
0.0
 40
0.0
 40
0.0
 40
0.5599932653901069
 40
0.9999999999999998
 40
0.9999999999999998
 40
0.9999999999999998
 40
0.9999999999999998
 10
1367.756628863244
 20
-841.1392821962872
 30
0.0
 10
1367.49549408038
 20
-840.7528773151424
 30
0.0
 10
1367.029176360134
 20
-840.0628603005898
 30
0.0
 10
1366.563874370789
 20
-839.3721579803022
 30
0.0
 10
1366.35913836184
 20
-839.0682443077748
 30
0.0
  0
SPLINE
  5
34F7F
330
2A44A
100
AcDbEntity
  8
0
100
AcDbSpline
210
0.0
220
0.0
230
1.0
 70
     8
 71
     3
 72
    16
 73
    12
 74
     0
 42
0.000000001
 43
0.0000000001
 40
0.0
 40
0.0
 40
0.0
 40
0.0
 40
0.0397616376849829
 40
0.0977453469832782
 40
0.1739520836788533
 40
0.2683807872895469
 40
0.3810313479998399
 40
0.5094077481804247
 40
0.6553613234298832
 40
0.8188920739813283
 40
1.0
 40
1.0
 40
1.0
 40
1.0
 10
1366.35913836184
 20
-839.0682443077748
 30
0.0
 10
1365.948812234819
 20
-838.4487301656699
 30
0.0
 10
1364.94011460567
 20
-836.9257892531386
 30
0.0
 10
1363.146522416522
 20
-834.2144797704895
 30
0.0
 10
1360.789485027773
 20
-830.6509562951905
 30
0.0
 10
1357.86953409449
 20
-826.2348717846252
 30
0.0
 10
1354.412228177265
 20
-821.0052742829866
 30
0.0
 10
1350.424208061937
 20
-814.9722188218365
 30
0.0
 10
1345.912156901111
 20
-808.1457300369002
 30
0.0
 10
1340.856970634449
 20
-800.4969620956108
 30
0.0
 10
1337.305910262767
 20
-795.1236184873559
 30
0.0
 10
1335.439824931083
 20
-792.299921720747
 30
0.0
  0
ARC
  5
34F80
330
2A44A
100
AcDbEntity
  8
0
100
AcDbCircle
 10
1336.135966996189
 20
-791.8398677166623
 30
0.0
 40
0.8344278177379237
100
AcDbArc
 50
60.7464939632126
 51
213.4590744011197
  0
SPLINE
  5
34F81
330
2A44A
100
AcDbEntity
  8
0
100
AcDbSpline
210
0.0
220
0.0
230
1.0
 70
     8
 71
     3
 72
    13
 73
     9
 74
     0
 42
0.000000001
 43
0.0000000001
 40
0.0
 40
0.0
 40
0.0
 40
0.0
 40
0.1896558036067056
 40
0.3314427626637554
 40
0.4392608642728592
 40
0.533841049483724
 40
0.7157724162619684
 40
1.0
 40
1.0
 40
1.0
 40
1.0
 10
1336.543702952294
 20
-791.1118521387688
 30
0.0
 10
1336.715528750115
 20
-791.2077214292731
 30
0.0
 10
1337.015811768324
 20
-791.3752627430367
 30
0.0
 10
1337.427220520614
 20
-791.5710662306446
 30
0.0
 10
1337.776904713471
 20
-791.6661921603227
 30
0.0
 10
1338.183593424699
 20
-791.6118110508032
 30
0.0
 10
1338.663281168607
 20
-791.252715940238
 30
0.0
 10
1339.007099246453
 20
-790.9169635025173
 30
0.0
 10
1339.216732851921
 20
-790.7122476990334
 30
0.0
  0
SPLINE
  5
34F82
330
2A44A
100
AcDbEntity
  8
0
100
AcDbSpline
210
0.0
220
0.0
230
1.0
 70
     8
 71
     3
 72
    11
 73
     7
 74
     0
 42
0.000000001
 43
0.0000000001
 40
0.0
 40
0.0
 40
0.0
 40
0.0
 40
0.2348480206301962
 40
0.5170985038875213
 40
0.7542531409981218
 40
1.0
 40
1.0
 40
1.0
 40
1.0
 10
1339.216732851921
 20
-790.7122476990334
 30
0.0
 10
1339.999492121591
 20
-789.873961664518
 30
0.0
 10
1341.723005252213
 20
-788.0281873074636
 30
0.0
 10
1344.264968416151
 20
-785.3669021737732
 30
0.0
 10
1347.238197557184
 20
-783.0350617326694
 30
0.0
 10
1349.451824777519
 20
-782.1869134628505
 30
0.0
 10
1350.578331820397
 20
-781.7552938158696
 30
0.0
  0
SPLINE
  5
34F83
330
2A44A
100
AcDbEntity
  8
0
100
AcDbSpline
210
0.0
220
0.0
230
1.0
 70
     8
 71
     3
 72
    16
 73
    12
 74
     0
 42
0.000000001
 43
0.0000000001
 40
0.0
 40
0.0
 40
0.0
 40
0.0
 40
0.041712738265936
 40
0.0777843878735252
 40
0.1121256270501158
 40
0.1484636851582459
 40
0.2300554416512554
 40
0.334016992814056
 40
0.5403943175017325
 40
0.7598352524236198
 40
1.0
 40
1.0
 40
1.0
 40
1.0
 10
1350.578331820397
 20
-781.7552938158696
 30
0.0
 10
1350.732769807037
 20
-781.7463706707058
 30
0.0
 10
1351.020760112929
 20
-781.7297311161674
 30
0.0
 10
1351.425403643712
 20
-781.8527013325729
 30
0.0
 10
1351.746510509248
 20
-782.0925931305901
 30
0.0
 10
1352.06745869782
 20
-782.5627912531417
 30
0.0
 10
1352.26685299709
 20
-783.3745022431249
 30
0.0
 10
1352.289945955701
 20
-784.8218197185997
 30
0.0
 10
1351.995763707549
 20
-786.7615241021049
 30
0.0
 10
1351.421854933746
 20
-789.1484622973075
 30
0.0
 10
1350.919743502389
 20
-790.7669285679585
 30
0.0
 10
1350.65736757937
 20
-791.6126503641644
 30
0.0
  0
ARC
  5
34F84
330
2A44A
100
AcDbEntity
  8
0
100
AcDbCircle
 10
1352.60690812434
 20
-792.2393326785386
 30
0.0
 40
2.047751736840979
100
AcDbArc
 50
162.1797845287171
 51
340.4434222921752
  0
LWPOLYLINE
  5
34F85
330
2A44A
100
AcDbEntity
  8
0
100
AcDbPolyline
 90
        9
 70
   128
 43
0.0
 10
1489.944124094902
 20
-756.1363681252041
 10
1491.047644488273
 20
-757.2399779255501
 10
1492.108845583854
 20
-758.3011641199773
 10
1493.086838595329
 20
-759.2791571314373
 10
1493.944072596488
 20
-760.1363762314504
 10
1494.647645823417
 20
-760.8398749525731
 10
1495.170378558097
 20
-761.3626225884072
 10
1495.492243639884
 20
-761.6845323736779
 10
1495.600962511955
 20
-761.7932363445797
  0
LINE
  5
34F86
330
2A44A
100
AcDbEntity
  8
0
100
AcDbLine
 10
1283.468866221337
 20
-973.9252655799646
 30
0.0
 11
1495.600962511955
 21
-761.7932363445797
 31
0.0
  0
LWPOLYLINE
  5
34F87
330
2A44A
100
AcDbEntity
  8
0
100
AcDbPolyline
 90
        9
 70
   128
 43
0.0
 10
1283.468866221337
 20
-973.9252655799646
 10
1283.360266558586
 20
-973.816569059636
 10
1283.03828226748
 20
-973.4946629996411
 10
1282.515549532829
 20
-972.9719116385094
 10
1281.81209551519
 20
-972.2684091921109
 10
1280.95486151403
 20
-971.4111900920979
 10
1279.976868502526
 20
-970.4331933553403
 10
1278.915667406974
 20
-969.3720071609131
 10
1277.812027804313
 20
-968.2684103990977
  0
LINE
  5
34F88
330
2A44A
100
AcDbEntity
  8
0
100
AcDbLine
 10
1277.812027804313
 20
-968.2684103990977
 30
0.0
 11
1277.812027804313
 21
-976.268409847762
 31
0.0
  0
LINE
  5
34F89
330
2A44A
100
AcDbEntity
  8
0
100
AcDbLine
 10
1127.812051646142
 20
-976.268409847762
 30
0.0
 11
1277.812027804313
 21
-976.268409847762
 31
0.0
  0
LINE
  5
34F8A
330
2A44A
100
AcDbEntity
  8
0
100
AcDbLine
 10
1127.812051646142
 20
-976.268409847762
 30
0.0
 11
1127.812051646142
 21
-918.2684096540251
 31
0.0
  0
LINE
  5
34F8B
330
2A44A
100
AcDbEntity
  8
0
100
AcDbLine
 10
1497.944140307365
 20
-606.1363770659008
 30
0.0
 11
1497.944140307365
 21
-756.1363681252041
 31
0.0
  0
LINE
  5
34F8C
330
2A44A
100
AcDbEntity
  8
0
100
AcDbLine
 10
1497.944140307365
 20
-756.1363681252041
 30
0.0
 11
1489.944124094902
 21
-756.1363681252041
 31
0.0
  0
LINE
  5
34F8D
330
2A44A
100
AcDbEntity
  8
0
100
AcDbLine
 10
1430.312061182914
 20
657.6682169888445
 30
0.0
 11
1430.312061182914
 21
-607.0729150469341
 31
0.0
  0
LINE
  5
34F8E
330
2A44A
100
AcDbEntity
  8
0
100
AcDbLine
 10
-1434.423780568228
 20
657.6682187058813
 30
0.0
 11
-1434.423780568228
 21
-607.0729133298973
 31
0.0
  0
LINE
  5
34F8F
102
{ACAD_REACTORS
330
34E98
102
}
330
2A44A
100
AcDbEntity
  8
0
100
AcDbLine
 10
1128.653073183923
 20
959.7316821072672
 30
0.0
 11
-1132.764792569265
 21
959.7316838243042
 31
0.0
  0
LINE
  5
34F90
102
{ACAD_REACTORS
330
34E98
102
}
330
2A44A
100
AcDbEntity
  8
0
100
AcDbLine
 10
-1132.764792569265
 20
-909.1363747230152
 30
0.0
 11
1128.653073183923
 21
-909.136376440052
 31
0.0
  0
LINE
  5
34F91
330
2A44A
100
AcDbEntity
  8
0
100
AcDbLine
 10
-633.0558420497181
 20
-973.2049173708073
 30
0.0
 11
-633.0558420497181
 21
-977.2049180264584
 31
0.0
  0
LINE
  5
34F92
330
2A44A
100
AcDbEntity
  8
0
100
AcDbLine
 10
628.9441226643612
 20
-973.2049173708073
 30
0.0
 11
628.9441226643612
 21
-977.2049180264584
 31
0.0
  0
LINE
  5
34F93
330
2A44A
100
AcDbEntity
  8
0
100
AcDbLine
 10
632.9441307705929
 20
-973.2049173708073
 30
0.0
 11
632.9441307705929
 21
-977.2049180264584
 31
0.0
  0
LINE
  5
34F94
330
2A44A
100
AcDbEntity
  8
0
100
AcDbLine
 10
-637.0558501559498
 20
-973.2049173708073
 30
0.0
 11
-637.0558501559498
 21
-977.2049180264584
 31
0.0
  0
LINE
  5
34F95
330
2A44A
100
AcDbEntity
  8
0
100
AcDbLine
 10
632.9441307705929
 20
-977.2049180264584
 30
0.0
 11
-637.0558501559498
 21
-977.2049180264584
 31
0.0
  0
ARC
  5
34F96
330
2A44A
100
AcDbEntity
  8
0
100
AcDbCircle
 10
581.944140307336
 20
-1072.492528897004
 30
0.0
 40
9.999999999999918
100
AcDbArc
 50
270.0
 51
0.0
  0
LINE
  5
34F97
330
2A44A
100
AcDbEntity
  8
0
100
AcDbLine
 10
-586.0558511096241
 20
-1082.492525785688
 30
0.0
 11
581.9441317242672
 21
-1082.492525785688
 31
0.0
  0
ARC
  5
34F98
330
2A44A
100
AcDbEntity
  8
0
100
AcDbCircle
 10
-586.055859692693
 20
-1072.492528897004
 30
0.0
 40
9.999999999999918
100
AcDbArc
 50
180.0
 51
270.0
  0
LINE
  5
34F99
330
2A44A
100
AcDbEntity
  8
0
100
AcDbLine
 10
-596.055841572881
 20
-977.1752975929921
 30
0.0
 11
-596.055841572881
 21
-1072.492535322431
 31
0.0
  0
LINE
  5
34F9A
330
2A44A
100
AcDbEntity
  8
0
100
AcDbLine
 10
591.944122187524
 20
-1072.492535322431
 30
0.0
 11
591.944122187524
 21
-977.2350214163379
 31
0.0
  0
LINE
  5
34F9B
330
2A44A
100
AcDbEntity
  8
0
100
AcDbLine
 10
-504.485046990514
 20
-979.0979354674782
 30
0.0
 11
-502.5556446391346
 21
-979.0686211581196
 31
0.0
  0
ARC
  5
34F9C
330
2A44A
100
AcDbEntity
  8
0
100
AcDbCircle
 10
-500.4955442563877
 20
-963.5682035301725
 30
0.0
 40
15.63671833307989
100
AcDbArc
 50
262.4294078787002
 51
270.0383843957683
  0
LINE
  5
34F9D
330
2A44A
100
AcDbEntity
  8
0
100
AcDbLine
 10
-500.4850686866047
 20
-977.2049180264584
 30
0.0
 11
-500.4850686866047
 21
-1059.312264531385
 31
0.0
  0
ARC
  5
34F9E
330
2A44A
100
AcDbEntity
  8
0
100
AcDbCircle
 10
-500.4956518172766
 20
-1043.676760106042
 30
0.0
 40
15.63550800700423
100
AcDbArc
 50
262.429216032898
 51
270.0387815202489
  0
LINE
  5
34F9F
330
2A44A
100
AcDbEntity
  8
0
100
AcDbLine
 10
-502.5556446391346
 20
-1059.175971060518
 30
0.0
 11
-504.485046990514
 21
-1057.529839783426
 31
0.0
  0
LINE
  5
34FA0
330
2A44A
100
AcDbEntity
  8
0
100
AcDbLine
 10
-504.485046990514
 20
-979.0979354674782
 30
0.0
 11
-504.485046990514
 21
-1057.529839783426
 31
0.0
  0
LINE
  5
34FA1
330
2A44A
100
AcDbEntity
  8
0
100
AcDbLine
 10
-502.5556446391346
 20
-979.0686211581196
 30
0.0
 11
-501.5203417616795
 21
-977.1367712910141
 31
0.0
  0
LINE
  5
34FA2
330
2A44A
100
AcDbEntity
  8
0
100
AcDbLine
 10
498.4439252537777
 20
-979.0686211581196
 30
0.0
 11
497.4086223763515
 21
-977.1367712910141
 31
0.0
  0
ARC
  5
34FA3
330
2A44A
100
AcDbEntity
  8
0
100
AcDbCircle
 10
496.3838248710599
 20
-963.5682035301725
 30
0.0
 40
15.63671833307981
100
AcDbArc
 50
269.9616156042317
 51
277.5705921212998
  0
LINE
  5
34FA4
330
2A44A
100
AcDbEntity
  8
0
100
AcDbLine
 10
498.4439252537777
 20
-979.0686211581196
 30
0.0
 11
500.3733276051571
 21
-979.0335251982323
 31
0.0
  0
LINE
  5
34FA5
330
2A44A
100
AcDbEntity
  8
0
100
AcDbLine
 10
500.3733276051571
 20
-979.0335251982323
 30
0.0
 11
500.3733276051571
 21
-1057.634900420438
 31
0.0
  0
LINE
  5
34FA6
330
2A44A
100
AcDbEntity
  8
0
100
AcDbLine
 10
500.3733276051571
 20
-1057.634900420438
 30
0.0
 11
498.4439252537777
 21
-1059.175971060518
 31
0.0
  0
ARC
  5
34FA7
330
2A44A
100
AcDbEntity
  8
0
100
AcDbCircle
 10
496.3839324319487
 20
-1043.676760106042
 30
0.0
 40
15.6355080070041
100
AcDbArc
 50
269.9612184797512
 51
277.570783967102
  0
LINE
  5
34FA8
330
2A44A
100
AcDbEntity
  8
0
100
AcDbLine
 10
496.3733493012478
 20
-977.2049180264584
 30
0.0
 11
496.3733493012478
 21
-1059.312264531385
 31
0.0
  0
LINE
  5
34FA9
330
2A44A
100
AcDbEntity
  8
0
100
AcDbLine
 10
496.3733493012478
 20
-979.204918354284
 30
0.0
 11
-500.4850686866047
 21
-979.204918354284
 31
0.0
  0
LINE
  5
34FAA
330
2A44A
100
AcDbEntity
  8
0
100
AcDbLine
 10
-500.4850686866047
 20
-1059.312264531385
 30
0.0
 11
496.3733493012478
 21
-1059.312264531385
 31
0.0
  0
LINE
  5
34FAB
330
2A44A
100
AcDbEntity
  8
0
100
AcDbLine
 10
498.3733533543636
 20
-977.301473825697
 30
0.0
 11
500.3733276051571
 21
-979.0335251982323
 31
0.0
  0
LINE
  5
34FAC
330
2A44A
100
AcDbEntity
  8
0
100
AcDbLine
 10
-502.4850727397206
 20
-977.3658840949646
 30
0.0
 11
-504.485046990514
 21
-979.0979354674782
 31
0.0
  0
LINE
  5
34FAD
330
2A44A
100
AcDbEntity
  8
0
100
AcDbLine
 10
553.8311837834408
 20
-977.2049180264584
 30
0.0
 11
554.6438335103085
 21
-977.9087184960953
 31
0.0
  0
LINE
  5
34FAE
330
2A44A
100
AcDbEntity
  8
0
100
AcDbLine
 10
554.6438335103085
 20
-977.9087184960953
 30
0.0
 11
500.3733276051571
 21
-979.0335251982323
 31
0.0
  0
LINE
  5
34FAF
330
2A44A
100
AcDbEntity
  8
0
100
AcDbLine
 10
503.0319927853634
 20
-977.2049180264584
 30
0.0
 11
498.3733533543636
 21
-977.301473825697
 31
0.0
  0
LINE
  5
34FB0
330
2A44A
100
AcDbEntity
  8
0
100
AcDbLine
 10
558.1059096974422
 20
-992.5255953366868
 30
0.0
 11
554.6438335103085
 21
-977.9087184960953
 31
0.0
  0
LINE
  5
34FB1
330
2A44A
100
AcDbEntity
  8
0
100
AcDbLine
 10
500.3733276051571
 20
-1057.634900420438
 30
0.0
 11
558.1059096974422
 21
-992.5255953366868
 31
0.0
  0
LINE
  5
34FB2
330
2A44A
100
AcDbEntity
  8
0
100
AcDbLine
 10
-504.485046990514
 20
-979.0979354674782
 30
0.0
 11
-551.6475797969105
 21
-980.3535743649117
 31
0.0
  0
LINE
  5
34FB3
330
2A44A
100
AcDbEntity
  8
0
100
AcDbLine
 10
-549.6476055461171
 20
-978.6215229923763
 30
0.0
 11
-551.6475797969105
 21
-980.3535743649117
 31
0.0
  0
LINE
  5
34FB4
330
2A44A
100
AcDbEntity
  8
0
100
AcDbLine
 10
-502.4850727397206
 20
-977.3658840949646
 30
0.0
 11
-549.6476055461171
 21
-978.6215229923763
 31
0.0
  0
LINE
  5
34FB5
330
2A44A
100
AcDbEntity
  8
0
100
AcDbLine
 10
-555.3964139300587
 20
-996.1813195641079
 30
0.0
 11
-504.485046990514
 21
-1057.529839783426
 31
0.0
  0
LINE
  5
34FB6
330
2A44A
100
AcDbEntity
  8
0
100
AcDbLine
 10
-551.6475797969105
 20
-980.3535743649117
 30
0.0
 11
-555.3964139300587
 21
-996.1813195641079
 31
0.0
  0
LINE
  5
34FB7
330
2A44A
100
AcDbEntity
  8
0
100
AcDbLine
 10
1127.812051646142
 20
-972.2684091921109
 30
0.0
 11
-1131.923771031484
 21
-972.2684074750741
 31
0.0
  0
LINE
  5
34FB8
330
2A44A
100
AcDbEntity
  8
0
100
AcDbLine
 10
1128.1733750028
 20
-912.2684105332082
 30
0.0
 11
-1132.285094388113
 21
-912.2684088161713
 31
0.0
  0
LINE
  5
34FB9
330
2A44A
100
AcDbEntity
  8
0
100
AcDbLine
 10
-1498.055791981802
 20
-606.136375348864
 30
0.0
 11
-1498.055791981802
 21
656.7317105271849
 31
0.0
  0
LINE
  5
34FBA
330
2A44A
100
AcDbEntity
  8
0
100
AcDbLine
 10
-1438.055849202261
 20
-606.49766890317
 30
0.0
 11
-1438.055849202261
 21
657.0930338838061
 31
0.0
  0
LINE
  5
34FBB
330
2A44A
100
AcDbEntity
  8
0
100
AcDbLine
 10
1493.944072596488
 20
656.7317088101481
 30
0.0
 11
1493.944072596488
 21
-606.1363770659008
 31
0.0
  0
LINE
  5
34FBC
330
2A44A
100
AcDbEntity
  8
0
100
AcDbLine
 10
1433.944129816947
 20
657.0930321667693
 30
0.0
 11
1433.944129816947
 21
-606.4976706202068
 31
0.0
  0
LINE
  5
34FBD
330
2A44A
100
AcDbEntity
  8
0
100
AcDbLine
 10
941.4441226643612
 20
961.9271595929458
 30
0.0
 11
941.4441226643612
 21
960.9272320721938
 31
0.0
  0
LINE
  5
34FBE
330
2A44A
100
AcDbEntity
  8
0
100
AcDbLine
 10
1035.444164149194
 20
961.9271595929458
 30
0.0
 11
1035.444164149194
 21
960.9272320721938
 31
0.0
  0
LINE
  5
34FBF
330
2A44A
100
AcDbEntity
  8
0
100
AcDbLine
 10
1038.444185130058
 20
960.9272320721938
 30
0.0
 11
938.444161288171
 21
960.9272320721938
 31
0.0
  0
LINE
  5
34FC0
330
2A44A
100
AcDbEntity
  8
0
100
AcDbLine
 10
938.444161288171
 20
959.9271853421377
 30
0.0
 11
1038.444185130058
 21
959.9271853421377
 31
0.0
  0
LINE
  5
34FC1
330
2A44A
100
AcDbEntity
  8
0
100
AcDbLine
 10
1038.444185130058
 20
958.7951739285708
 30
0.0
 11
1038.444185130058
 21
961.9271595929458
 31
0.0
  0
LINE
  5
34FC2
330
2A44A
100
AcDbEntity
  8
0
100
AcDbLine
 10
938.444161288171
 20
961.9271595929458
 30
0.0
 11
938.444161288171
 21
958.7951739285708
 31
0.0
  0
LINE
  5
34FC3
330
2A44A
100
AcDbEntity
  8
0
100
AcDbLine
 10
-877.9237629252529
 20
-912.2684088161713
 30
0.0
 11
-877.9237629252529
 21
-911.2684086522586
 31
0.0
  0
LINE
  5
34FC4
330
2A44A
100
AcDbEntity
  8
0
100
AcDbLine
 10
-971.9238044100857
 20
-912.2684088161713
 30
0.0
 11
-971.9238044100857
 21
-911.2684086522586
 31
0.0
  0
LINE
  5
34FC5
330
2A44A
100
AcDbEntity
  8
0
100
AcDbLine
 10
-974.9238253908915
 20
-912.2684088161713
 30
0.0
 11
-974.9238253908915
 21
-909.1363747230152
 31
0.0
  0
LINE
  5
34FC6
330
2A44A
100
AcDbEntity
  8
0
100
AcDbLine
 10
-974.9238253908915
 20
-911.2684086522586
 30
0.0
 11
-874.9238015490627
 21
-911.2684086522586
 31
0.0
  0
LINE
  5
34FC7
330
2A44A
100
AcDbEntity
  8
0
100
AcDbLine
 10
-874.9238015490627
 20
-912.2684088161713
 30
0.0
 11
-874.9238015490627
 21
-909.1363747230152
 31
0.0
  0
LINE
  5
34FC8
330
2A44A
100
AcDbEntity
  8
0
100
AcDbLine
 10
-874.9238015490627
 20
-910.2684084883458
 30
0.0
 11
-974.9238253908915
 21
-910.2684084883458
 31
0.0
  0
LINE
  5
34FC9
330
2A44A
100
AcDbEntity
  8
0
100
AcDbLine
 10
941.4441226643612
 20
-913.2049187119045
 30
0.0
 11
941.4441226643612
 21
-912.2049185479918
 31
0.0
  0
LINE
  5
34FCA
330
2A44A
100
AcDbEntity
  8
0
100
AcDbLine
 10
938.444161288171
 20
-913.2049187119045
 30
0.0
 11
938.444161288171
 21
-910.0728846187484
 31
0.0
  0
LINE
  5
34FCB
330
2A44A
100
AcDbEntity
  8
0
100
AcDbLine
 10
938.444161288171
 20
-912.2049185479918
 30
0.0
 11
1038.444185130058
 21
-912.2049185479918
 31
0.0
  0
LINE
  5
34FCC
330
2A44A
100
AcDbEntity
  8
0
100
AcDbLine
 10
1035.444164149194
 20
-913.2049187119045
 30
0.0
 11
1035.444164149194
 21
-912.2049185479918
 31
0.0
  0
LINE
  5
34FCD
330
2A44A
100
AcDbEntity
  8
0
100
AcDbLine
 10
1038.444185130058
 20
-913.2049187119045
 30
0.0
 11
1038.444185130058
 21
-910.0728846187484
 31
0.0
  0
LINE
  5
34FCE
330
2A44A
100
AcDbEntity
  8
0
100
AcDbLine
 10
1038.444185130058
 20
-911.204918384079
 30
0.0
 11
938.444161288171
 21
-911.204918384079
 31
0.0
  0
LINE
  5
34FCF
330
2A44A
100
AcDbEntity
  8
0
100
AcDbLine
 10
-971.9238044100857
 20
962.8636694886791
 30
0.0
 11
-971.9238044100857
 21
961.8637419679272
 31
0.0
  0
LINE
  5
34FD0
330
2A44A
100
AcDbEntity
  8
0
100
AcDbLine
 10
-877.9237629252529
 20
962.8636694886791
 30
0.0
 11
-877.9237629252529
 21
961.8637419679272
 31
0.0
  0
LINE
  5
34FD1
330
2A44A
100
AcDbEntity
  8
0
100
AcDbLine
 10
-874.9238015490627
 20
961.8637419679272
 30
0.0
 11
-974.9238253908915
 21
961.8637419679272
 31
0.0
  0
LINE
  5
34FD2
330
2A44A
100
AcDbEntity
  8
0
100
AcDbLine
 10
-974.9238253908915
 20
960.8636952378711
 30
0.0
 11
-874.9238015490627
 21
960.8636952378711
 31
0.0
  0
LINE
  5
34FD3
330
2A44A
100
AcDbEntity
  8
0
100
AcDbLine
 10
-874.9238015490627
 20
959.7316838243042
 30
0.0
 11
-874.9238015490627
 21
962.8636694886791
 31
0.0
  0
LINE
  5
34FD4
330
2A44A
100
AcDbEntity
  8
0
100
AcDbLine
 10
-974.9238253908915
 20
962.8636694886791
 30
0.0
 11
-974.9238253908915
 21
959.7316838243042
 31
0.0
  0
LINE
  5
34FD5
330
2A44A
100
AcDbEntity
  8
0
100
AcDbLine
 10
1128.1733750028
 20
962.8636677716421
 30
0.0
 11
500.944161288171
 21
961.9271595929458
 31
0.0
  0
LINE
  5
34FD6
330
2A44A
100
AcDbEntity
  8
0
100
AcDbLine
 10
500.944161288171
 20
1021.927221581769
 30
0.0
 11
500.944161288171
 21
961.9271595929458
 31
0.0
  0
LINE
  5
34FD7
330
2A44A
100
AcDbEntity
  8
0
100
AcDbLine
 10
1127.812051646142
 20
1022.863729760465
 30
0.0
 11
500.944161288171
 21
1021.927221581769
 31
0.0
  0
LINE
  5
34FD8
330
2A44A
100
AcDbEntity
  8
0
100
AcDbLine
 10
-1131.923771031484
 20
1022.863731477502
 30
0.0
 11
-505.055880673528
 21
1021.927221581769
 31
0.0
  0
LINE
  5
34FD9
330
2A44A
100
AcDbEntity
  8
0
100
AcDbLine
 10
-1132.285094388113
 20
962.8636694886791
 30
0.0
 11
-505.055880673528
 21
961.9271595929458
 31
0.0
  0
LINE
  5
34FDA
330
2A44A
100
AcDbEntity
  8
0
100
AcDbLine
 10
-505.055880673528
 20
961.9271595929458
 30
0.0
 11
-505.055880673528
 21
1021.927221581769
 31
0.0
  0
LINE
  5
34FDB
330
2A44A
100
AcDbEntity
  8
0
100
AcDbLine
 10
588.9547704381039
 20
-981.2049186821095
 30
0.0
 11
555.4245351475765
 21
-981.2049186821095
 31
0.0
  0
LINE
  5
34FDC
330
2A44A
100
AcDbEntity
  8
0
100
AcDbLine
 10
-551.8492223101857
 20
-981.2049186821095
 30
0.0
 11
-593.0678607302906
 21
-981.2049186821095
 31
0.0
  0
LINE
  5
34FDD
330
2A44A
100
AcDbEntity
  8
0
100
AcDbLine
 10
1127.812051646142
 20
-969.2684105630105
 30
0.0
 11
-1131.923771031484
 21
-969.2684088459737
 31
0.0
  0
LINE
  5
34FDE
330
2A44A
100
AcDbEntity
  8
0
100
AcDbLine
 10
1127.902173869042
 20
-915.2684091622868
 30
0.0
 11
-1132.013893254385
 21
-915.2684074452499
 31
0.0
  0
LINE
  5
34FDF
330
2A44A
100
AcDbEntity
  8
0
100
AcDbLine
 10
-1441.055870183096
 20
-606.2264677694493
 30
0.0
 11
-1441.055870183096
 21
656.8217135407812
 31
0.0
  0
LINE
  5
34FE0
330
2A44A
100
AcDbEntity
  8
0
100
AcDbLine
 10
-1495.055771000967
 20
-606.136375348864
 30
0.0
 11
-1495.055771000967
 21
656.7317105271849
 31
0.0
  0
LINE
  5
34FE1
330
2A44A
100
AcDbEntity
  8
0
100
AcDbLine
 10
1436.944150797753
 20
656.8217118237444
 30
0.0
 11
1436.944150797753
 21
-606.2264694864861
 31
0.0
  0
LINE
  5
34FE2
330
2A44A
100
AcDbEntity
  8
0
100
AcDbLine
 10
1490.944051615653
 20
656.7317088101481
 30
0.0
 11
1490.944051615653
 21
-606.1363770659008
 31
0.0
  0
LINE
  5
34FE3
330
2A44A
100
AcDbEntity
  8
0
100
AcDbLine
 10
1127.902173869042
 20
965.8636887524625
 30
0.0
 11
500.944161288171
 21
964.9271805737662
 31
0.0
  0
LINE
  5
34FE4
330
2A44A
100
AcDbEntity
  8
0
100
AcDbLine
 10
1127.812051646142
 20
1019.863708779623
 30
0.0
 11
500.944161288171
 21
1018.927200600927
 31
0.0
  0
LINE
  5
34FE5
330
2A44A
100
AcDbEntity
  8
0
100
AcDbLine
 10
-1131.923771031484
 20
1019.86371049666
 30
0.0
 11
-505.055880673528
 21
1018.927200600927
 31
0.0
  0
LINE
  5
34FE6
330
2A44A
100
AcDbEntity
  8
0
100
AcDbLine
 10
-1132.013893254385
 20
965.8636904694995
 30
0.0
 11
-505.055880673528
 21
964.9271805737662
 31
0.0
  0
LINE
  5
34FE7
330
2A44A
100
AcDbEntity
  8
0
100
AcDbLine
 10
-446.6106356459568
 20
1020.795081645716
 30
0.0
 11
582.3376415890743
 21
1020.795081645716
 31
0.0
  0
LINE
  5
34FE8
330
2A44A
100
AcDbEntity
  8
0
100
AcDbLine
 10
-600.0697971659611
 20
1020.795081645716
 30
0.0
 11
-446.6106356459568
 21
1020.795081645716
 31
0.0
  0
LINE
  5
34FE9
330
2A44A
100
AcDbEntity
  8
0
100
AcDbLine
 10
-705.0558687525627
 20
1021.795009166468
 30
0.0
 11
-602.320945389838
 21
1021.795009166468
 31
0.0
  0
ATTDEF
  5
34FEA
102
{ACAD_XDICTIONARY
360
34FEB
102
}
330
2A44A
100
AcDbEntity
  8
0
100
AcDbText
 10
-189.4888208631601
 20
-1423.698702050697
 30
0.0
 40
100.0
  1
925H
  7
Annotative
 72
     1
 11
-22.50382768444251
 21
-1373.698702050696
 31
0.0
100
AcDbAttributeDefinition
280
     0
  3
Tag Number?
  2
925H
 70
     0
 74
     2
280
     1
1001
AcadAnnotative
1000
AnnotativeData
1002
{
1070
     1
1070
     1
1002
}
1001
AcadAnnoPO
1070
     1
  0
ENDBLK
  5
2A44C
330
2A44A
100
AcDbEntity
  8
0
100
AcDbBlockEnd
  0
ENDSEC
  0
SECTION
  2
ENTITIES
  0
INSERT
  5
2A5A4
330
1F
100
AcDbEntity
  8
0
100
AcDbBlockReference
 66
     1
  2
925H - Lifting Platform – 3.0×2.0m Oak-Rubber
 10
35336.53930231284
 20
3827.664753947276
 30
0.0
  0
ATTRIB
  5
2A5A6
102
{ACAD_XDICTIONARY
360
2A5A7
102
}
330
2A5A4
100
AcDbEntity
  8
0
100
AcDbText
 10
35147.05048144968
 20
2403.966051896579
 30
0.0
 40
100.0
  1
925H
  7
Annotative
 72
     1
 11
35314.0354746284
 21
2453.966051896579
 31
0.0
100
AcDbAttribute
280
     0
  2
XXX
 70
     0
 74
     2
280
     1
1001
AcadAnnotative
1000
AnnotativeData
1002
{
1070
     1
1070
     1
1002
}
1001
AcadAnnoPO
1070
     1
  0
SEQEND
  5
2A5A5
330
2A5A4
100
AcDbEntity
  8
0
  0
VIEWPORT
  5
27942
102
{ACAD_XDICTIONARY
360
27943
102
}
330
D2
100
AcDbEntity
 67
     1
  8
0
100
AcDbViewport
 10
132.9126456575008
 20
79.43971249921216
 30
0.0
 40
59.17324646995997
 41
34.90838257121704
 68
     1
 69
     1
 12
132.9126456575008
 22
79.43971249921216
 13
0.0
 23
0.0
 14
10.0
 24
10.0
 15
10.0
 25
10.0
 16
0.0
 26
0.0
 36
1.0
 17
0.0
 27
0.0
 37
0.0
 42
50.0
 43
0.0
 44
0.0
 45
34.90838257121704
 50
0.0
 51
0.0
 72
  1000
 90
   557088
  1

281
     0
 71
     1
 74
     0
110
0.0
120
0.0
130
0.0
111
1.0
121
0.0
131
0.0
112
0.0
122
1.0
132
0.0
 79
     0
146
0.0
170
     0
 61
     5
348
F5
292
     1
282
     1
141
0.0
142
0.0
 63
   250
421
  3355443
  0
VIEWPORT
  5
27946
102
{ACAD_XDICTIONARY
360
27947
102
}
330
D2
100
AcDbEntity
 67
     1
  8
0
100
AcDbViewport
 10
128.5
 20
97.5
 30
0.0
 40
205.6
 41
156.0
 68
     2
 69
     2
 12
24354.21263936498
 22
7931.021756414132
 13
0.0
 23
0.0
 14
10.0
 24
10.0
 15
10.0
 25
10.0
 16
0.0
 26
0.0
 36
1.0
 17
0.0
 27
0.0
 37
0.0
 42
50.0
 43
0.0
 44
0.0
 45
40739.08749714598
 50
0.0
 51
0.0
 72
  1000
 90
   819808
  1

281
     0
 71
     1
 74
     0
110
0.0
120
0.0
130
0.0
111
1.0
121
0.0
131
0.0
112
0.0
122
1.0
132
0.0
 79
     0
146
0.0
170
     0
 61
     5
348
F5
292
     1
282
     1
141
0.0
142
0.0
 63
   250
421
  3355443
  0
ENDSEC
  0
SECTION
  2
OBJECTS
  0
DICTIONARY
  5
C
330
0
100
AcDbDictionary
281
     1
  3
ACAD_CIP_PREVIOUS_PRODUCT_INFO
350
216
  3
ACAD_COLOR
350
6B
  3
ACAD_DETAILVIEWSTYLE
350
21B
  3
ACAD_GROUP
350
D
  3
ACAD_LAST_SAVED_VERSION_INFO
350
11342
  3
ACAD_LAYOUT
350
1A
  3
ACAD_MATERIAL
350
6A
  3
ACAD_MLEADERSTYLE
350
12D
  3
ACAD_MLINESTYLE
350
17
  3
ACAD_PLOTSETTINGS
350
19
  3
ACAD_PLOTSTYLENAME
350
E
  3
ACAD_SCALELIST
350
10C
  3
ACAD_SECTIONVIEWSTYLE
350
219
  3
ACAD_TABLESTYLE
350
7E
  3
ACAD_VISUALSTYLE
350
EF
  3
ACDB_RECOMPOSE_DATA
350
352BB
  3
AcDbVariableDictionary
350
5E
  0
DICTIONARY
  5
1FF
330
2
100
AcDbDictionary
280
     1
281
     1
  3
ACAD_LAYERSTATES
360
200
  0
DICTIONARY
  5
13C
330
10
100
AcDbDictionary
280
     1
281
     1
  0
DICTIONARY
  5
1CE
330
1F
100
AcDbDictionary
280
     1
281
     1
  3
ACAD_SORTENTS
360
10C81
  0
DICTIONARY
  5
34FEF
330
2A44A
100
AcDbDictionary
280
     1
281
     1
  0
DICTIONARY
  5
34FEB
330
34FEA
100
AcDbDictionary
280
     1
281
     1
  3
AcDbContextDataManager
360
34FEC
  0
DICTIONARY
  5
2A5A7
330
2A5A6
100
AcDbDictionary
280
     1
281
     1
  3
AcDbContextDataManager
360
2A5A8
  0
DICTIONARY
  5
27943
330
27942
100
AcDbDictionary
280
     1
281
     1
  3
ASDK_XREC_ANNOTATION_SCALE_INFO
360
27944
  0
DICTIONARY
  5
27947
330
27946
100
AcDbDictionary
280
     1
281
     1
  3
ASDK_XREC_ANNOTATION_SCALE_INFO
360
27948
  0
XRECORD
  5
216
102
{ACAD_REACTORS
330
C
102
}
330
C
100
AcDbXrecord
280
     1
300
ACDLT
300
2019
300
ACDLT_F_S
  0
DICTIONARY
  5
6B
102
{ACAD_REACTORS
330
C
102
}
330
C
100
AcDbDictionary
281
     1
  0
DICTIONARY
  5
21B
102
{ACAD_REACTORS
330
C
102
}
330
C
100
AcDbDictionary
281
     1
  3
Metric50
350
21C
  0
DICTIONARY
  5
D
102
{ACAD_REACTORS
330
C
102
}
330
C
100
AcDbDictionary
281
     1
  0
XRECORD
  5
11342
102
{ACAD_REACTORS
330
C
102
}
330
C
100
AcDbXrecord
280
     1
300
{3D74595D-0D62-CC42-A1C3-C6954A981475}
301
{999202B2-484E-9C47-848E-DA00BEB8D0DD}
302
{3D74595D-0D62-CC42-A1C3-C6954A981475}
303

  0
DICTIONARY
  5
1A
102
{ACAD_REACTORS
330
C
102
}
330
C
100
AcDbDictionary
281
     1
  3
Layout1
350
D3
  3
Layout2
350
D7
  3
Model
350
22
  0
DICTIONARY
  5
6A
102
{ACAD_REACTORS
330
C
102
}
330
C
100
AcDbDictionary
281
     1
  3
ByBlock
350
ED
  3
ByLayer
350
EC
  3
Global
350
EE
  0
DICTIONARY
  5
12D
102
{ACAD_REACTORS
330
C
102
}
330
C
100
AcDbDictionary
281
     1
  3
Standard
350
12E
  0
DICTIONARY
  5
17
102
{ACAD_REACTORS
330
C
102
}
330
C
100
AcDbDictionary
281
     1
  3
Standard
350
18
  0
DICTIONARY
  5
19
102
{ACAD_REACTORS
330
C
102
}
330
C
100
AcDbDictionary
281
     1
  0
ACDBDICTIONARYWDFLT
  5
E
102
{ACAD_REACTORS
330
C
102
}
330
C
100
AcDbDictionary
281
     1
  3
Normal
350
F
100
AcDbDictionaryWithDefault
340
F
  0
DICTIONARY
  5
10C
102
{ACAD_REACTORS
330
C
102
}
330
C
100
AcDbDictionary
281
     1
  3
A0
350
10D
  3
A1
350
1BE
  3
A2
350
1BF
  3
A3
350
1C0
  3
A4
350
1C1
  3
A5
350
1C2
  3
A6
350
1C3
  3
A7
350
1C4
  3
A8
350
1C5
  3
A9
350
1C6
  3
B0
350
1C7
  3
B1
350
1C8
  3
B2
350
1C9
  3
B3
350
1CA
  3
B4
350
1CB
  3
B5
350
1CC
  3
B6
350
1CD
  0
DICTIONARY
  5
219
102
{ACAD_REACTORS
330
C
102
}
330
C
100
AcDbDictionary
281
     1
  3
Metric50
350
21A
  0
DICTIONARY
  5
7E
102
{ACAD_REACTORS
330
C
102
}
330
C
100
AcDbDictionary
281
     1
  3
Standard
350
7F
  0
DICTIONARY
  5
EF
102
{ACAD_REACTORS
330
C
102
}
330
C
100
AcDbDictionary
281
     1
  3
2dWireframe
350
F5
  3
Basic
350
F4
  3
Brighten
350
FB
  3
ColorChange
350
FF
  3
Conceptual
350
F8
  3
Dim
350
FA
  3
EdgeColorOff
350
1E6
  3
Facepattern
350
FE
  3
Flat
350
F0
  3
FlatWithEdges
350
F1
  3
Gouraud
350
F2
  3
GouraudWithEdges
350
F3
  3
Hidden
350
F7
  3
JitterOff
350
1E4
  3
Linepattern
350
FD
  3
OverhangOff
350
1E5
  3
Realistic
350
F9
  3
Shaded
350
1F3
  3
Shaded with edges
350
1F2
  3
Shades of Gray
350
1EF
  3
Sketchy
350
1F0
  3
Thicken
350
FC
  3
Wireframe
350
F6
  3
X-Ray
350
1F1
  0
XRECORD
  5
352BB
102
{ACAD_REACTORS
330
C
102
}
330
C
100
AcDbXrecord
280
     1
 90
        1
330
7F
  0
DICTIONARY
  5
5E
102
{ACAD_REACTORS
330
C
102
}
330
C
100
AcDbDictionary
281
     1
  3
CANNOSCALE
350
146
  3
CENTEREXE
350
259
  3
CENTERLTYPEFILE
350
25A
  3
CMLEADERSTYLE
350
145
  3
CTABLESTYLE
350
84
  3
CVIEWDETAILSTYLE
350
227
  3
CVIEWSECTIONSTYLE
350
228
  3
DIMASSOC
350
5F
  3
HIDETEXT
350
63
  3
HPCOLOR
350
1FFCA
  3
HPTRANSPARENCY
350
1FFC9
  3
LAYEREVAL
350
1AE
  3
LAYERNOTIFY
350
1AF
  0
DICTIONARY
  5
200
102
{ACAD_REACTORS
330
1FF
102
}
330
1FF
100
AcDbDictionary
281
     1
  0
SORTENTSTABLE
  5
10C81
102
{ACAD_REACTORS
330
1CE
102
}
330
1CE
100
AcDbSortentsTable
330
1F
  0
DICTIONARY
  5
34FEC
102
{ACAD_REACTORS
330
34FEB
102
}
330
34FEB
100
AcDbDictionary
281
     1
  3
ACDB_ANNOTATIONSCALES
350
34FED
  0
DICTIONARY
  5
2A5A8
102
{ACAD_REACTORS
330
2A5A7
102
}
330
2A5A7
100
AcDbDictionary
281
     1
  3
ACDB_ANNOTATIONSCALES
350
2A5A9
  0
XRECORD
  5
27944
102
{ACAD_REACTORS
330
27943
102
}
330
27943
100
AcDbXrecord
280
     1
 90
        1
340
10D
  0
XRECORD
  5
27948
102
{ACAD_REACTORS
330
27947
102
}
330
27947
100
AcDbXrecord
280
     1
 90
        1
340
10D
  0
ACDBDETAILVIEWSTYLE
  5
21C
102
{ACAD_REACTORS
330
21B
102
}
330
21B
100
AcDbModelDocViewStyle
 70
     0
  3
Metric50
290
     0
300
Metric50
 90
        0
100
AcDbDetailViewStyle
 70
     0
 71
     0
 90
        3
 71
     1
340
11
 62
   256
 40
5.0
340
0
 62
   256
 40
5.0
300

 40
0.0
280
     1
 71
     2
340
16
 90
       25
 62
   256
 71
     3
340
11
 62
   256
 40
5.0
 90
        0
 40
15.0
 90
        1
300
%<\AcVar ViewDetailId>% (%<\AcVar ViewScale \f "%sn">%)
 71
     4
340
16
 90
       25
 62
   256
340
16
 90
       25
 62
   256
280
     0
  0
LAYOUT
  5
D3
102
{ACAD_REACTORS
330
1A
102
}
330
1A
100
AcDbPlotSettings
  1

  2
none_device
  4
ISO_A4_(210.00_x_297.00_MM)
  6

 40
7.5
 41
20.0
 42
7.5
 43
20.0
 44
210.0
 45
297.0
 46
0.0
 47
0.0
 48
0.0
 49
0.0
140
0.0
141
0.0
142
1.0
143
1.0
 70
   688
 72
     1
 73
     1
 74
     5
  7

 75
    16
147
1.0
 76
     0
 77
     2
 78
   300
148
0.0
149
0.0
100
AcDbLayout
  1
Layout1
 70
     1
 71
     1
 10
-20.0
 20
-7.5
 11
277.0
 21
202.5
 12
0.0
 22
0.0
 32
0.0
 14
25.69999999999999
 24
19.5
 34
0.0
 15
231.3
 25
175.5
 35
0.0
146
0.0
 13
0.0
 23
0.0
 33
0.0
 16
1.0
 26
0.0
 36
0.0
 17
0.0
 27
1.0
 37
0.0
 76
     0
330
D2
331
27942
1001
ACAD_PSEXT
1000
None
1000
None
1000
Not applicable
1000
The layout will not be plotted unless a new plotter configuration name is selected.
1070
     0
  0
LAYOUT
  5
D7
102
{ACAD_REACTORS
330
1A
102
}
330
1A
100
AcDbPlotSettings
  1

  2
C:\Documents and Settings\basas\Application Data\Autodesk\AutoCAD 2005\R16.1\enu\plotters\Default Windows System Printer.pc3
  4

  6

 40
0.0
 41
0.0
 42
0.0
 43
0.0
 44
0.0
 45
0.0
 46
0.0
 47
0.0
 48
0.0
 49
0.0
140
0.0
141
0.0
142
1.0
143
1.0
 70
   688
 72
     0
 73
     0
 74
     5
  7

 75
    16
147
1.0
 76
     0
 77
     2
 78
   300
148
0.0
149
0.0
100
AcDbLayout
  1
Layout2
 70
     1
 71
     2
 10
0.0
 20
0.0
 11
12.0
 21
9.0
 12
0.0
 22
0.0
 32
0.0
 14
0.0
 24
0.0
 34
0.0
 15
0.0
 25
0.0
 35
0.0
146
0.0
 13
0.0
 23
0.0
 33
0.0
 16
1.0
 26
0.0
 36
0.0
 17
0.0
 27
1.0
 37
0.0
 76
     0
330
D6
  0
LAYOUT
  5
22
102
{ACAD_XDICTIONARY
360
205
102
}
102
{ACAD_REACTORS
330
1A
102
}
330
1A
100
AcDbPlotSettings
  1

  2
none_device
  4
ISO_A4_(210.00_x_297.00_MM)
  6

 40
7.5
 41
20.0
 42
7.5
 43
20.0
 44
210.0
 45
297.0
 46
11.54999923706054
 47
-13.65000009536743
 48
0.0
 49
0.0
140
0.0
141
0.0
142
1.0
143
8.704084754739808
 70
 11952
 72
     1
 73
     0
 74
     0
  7

 75
     0
147
0.1148885871608098
 76
     0
 77
     2
 78
   300
148
0.0
149
0.0
100
AcDbLayout
  1
Model
 70
     1
 71
     0
 10
0.0
 20
0.0
 11
12.0
 21
9.0
 12
0.0
 22
0.0
 32
0.0
 14
0.0
 24
0.0
 34
0.0
 15
0.0
 25
0.0
 35
0.0
146
0.0
 13
0.0
 23
0.0
 33
0.0
 16
1.0
 26
0.0
 36
0.0
 17
0.0
 27
1.0
 37
0.0
 76
     0
330
1F
331
EA
1001
ACAD_PSEXT
1000
None
1000
None
1000
Not applicable
1000
The layout will not be plotted unless a new plotter configuration name is selected.
1070
     0
  0
MATERIAL
  5
ED
102
{ACAD_XDICTIONARY
360
1F9
102
}
102
{ACAD_REACTORS
330
6A
102
}
330
6A
100
AcDbMaterial
  1
ByBlock
 94
       63
  0
MATERIAL
  5
EC
102
{ACAD_XDICTIONARY
360
1F7
102
}
102
{ACAD_REACTORS
330
6A
102
}
330
6A
100
AcDbMaterial
  1
ByLayer
 94
       63
  0
MATERIAL
  5
EE
102
{ACAD_XDICTIONARY
360
173
102
}
102
{ACAD_REACTORS
330
6A
102
}
330
6A
100
AcDbMaterial
  1
Global
 43
0.0007999999797903
 43
0.0
 43
0.0
 43
0.0
 43
0.0
 43
0.0007999999797903
 43
0.0
 43
0.0
 43
0.0
 43
0.0
 43
1.0
 43
0.0
 43
0.0
 43
0.0
 43
0.0
 43
1.0
 49
0.0007999999797903
 49
0.0
 49
0.0
 49
0.0
 49
0.0
 49
0.0007999999797903
 49
0.0
 49
0.0
 49
0.0
 49
0.0
 49
1.0
 49
0.0
 49
0.0
 49
0.0
 49
0.0
 49
1.0
142
0.0007999999797903
142
0.0
142
0.0
142
0.0
142
0.0
142
0.0007999999797903
142
0.0
142
0.0
142
0.0
142
0.0
142
1.0
142
0.0
142
0.0
142
0.0
142
0.0
142
1.0
144
0.0007999999797903
144
0.0
144
0.0
144
0.0
144
0.0
144
0.0007999999797903
144
0.0
144
0.0
144
0.0
144
0.0
144
1.0
144
0.0
144
0.0
144
0.0
144
0.0
144
1.0
 94
       63
1001
ACAD
1070
    -1
1070
     3
1070
     0
1000

1071
        0
1070
     0
  0
MLEADERSTYLE
  5
12E
102
{ACAD_REACTORS
330
12D
102
}
330
12D
100
AcDbMLeaderStyle
179
     2
170
     2
171
     1
172
     0
 90
        2
 40
0.0
 41
0.0
173
     1
 91
-1056964608
340
14
 92
       -2
290
     1
 42
2.0
291
     1
 43
8.0
  3
Standard
 44
4.0
300

342
11
174
     1
178
     1
175
     1
176
     0
 93
-1056964608
 45
4.0
292
     0
297
     0
 46
4.0
 94
-1056964608
 47
1.0
 49
1.0
140
1.0
293
     1
141
0.0
294
     1
177
     0
142
1.0
295
     0
296
     0
143
3.75
271
     0
272
     9
273
     9
298
     0
  0
MLINESTYLE
  5
18
102
{ACAD_REACTORS
330
17
102
}
330
17
100
AcDbMlineStyle
  2
STANDARD
 70
     0
  3

 62
   256
 51
90.0
 52
90.0
 71
     2
 49
0.5
 62
   256
  6
BYLAYER
 49
-0.5
 62
   256
  6
BYLAYER
  0
ACDBPLACEHOLDER
  5
F
102
{ACAD_REACTORS
330
E
102
}
330
E
  0
SCALE
  5
10D
102
{ACAD_REACTORS
330
10C
102
}
330
10C
100
AcDbScale
 70
     0
300
1:1
140
1.0
141
1.0
290
     1
  0
SCALE
  5
1BE
102
{ACAD_REACTORS
330
10C
102
}
330
10C
100
AcDbScale
 70
     0
300
1:2
140
1.0
141
2.0
290
     0
  0
SCALE
  5
1BF
102
{ACAD_REACTORS
330
10C
102
}
330
10C
100
AcDbScale
 70
     0
300
1:4
140
1.0
141
4.0
290
     0
  0
SCALE
  5
1C0
102
{ACAD_REACTORS
330
10C
102
}
330
10C
100
AcDbScale
 70
     0
300
1:5
140
1.0
141
5.0
290
     0
  0
SCALE
  5
1C1
102
{ACAD_REACTORS
330
10C
102
}
330
10C
100
AcDbScale
 70
     0
300
1:8
140
1.0
141
8.0
290
     0
  0
SCALE
  5
1C2
102
{ACAD_REACTORS
330
10C
102
}
330
10C
100
AcDbScale
 70
     0
300
1:10
140
1.0
141
10.0
290
     0
  0
SCALE
  5
1C3
102
{ACAD_REACTORS
330
10C
102
}
330
10C
100
AcDbScale
 70
     0
300
1:16
140
1.0
141
16.0
290
     0
  0
SCALE
  5
1C4
102
{ACAD_REACTORS
330
10C
102
}
330
10C
100
AcDbScale
 70
     0
300
1:20
140
1.0
141
20.0
290
     0
  0
SCALE
  5
1C5
102
{ACAD_REACTORS
330
10C
102
}
330
10C
100
AcDbScale
 70
     0
300
1:30
140
1.0
141
30.0
290
     0
  0
SCALE
  5
1C6
102
{ACAD_REACTORS
330
10C
102
}
330
10C
100
AcDbScale
 70
     0
300
1:40
140
1.0
141
40.0
290
     0
  0
SCALE
  5
1C7
102
{ACAD_REACTORS
330
10C
102
}
330
10C
100
AcDbScale
 70
     0
300
1:50
140
1.0
141
50.0
290
     0
  0
SCALE
  5
1C8
102
{ACAD_REACTORS
330
10C
102
}
330
10C
100
AcDbScale
 70
     0
300
1:100
140
1.0
141
100.0
290
     0
  0
SCALE
  5
1C9
102
{ACAD_REACTORS
330
10C
102
}
330
10C
100
AcDbScale
 70
     0
300
2:1
140
2.0
141
1.0
290
     0
  0
SCALE
  5
1CA
102
{ACAD_REACTORS
330
10C
102
}
330
10C
100
AcDbScale
 70
     0
300
4:1
140
4.0
141
1.0
290
     0
  0
SCALE
  5
1CB
102
{ACAD_REACTORS
330
10C
102
}
330
10C
100
AcDbScale
 70
     0
300
8:1
140
8.0
141
1.0
290
     0
  0
SCALE
  5
1CC
102
{ACAD_REACTORS
330
10C
102
}
330
10C
100
AcDbScale
 70
     0
300
10:1
140
10.0
141
1.0
290
     0
  0
SCALE
  5
1CD
102
{ACAD_REACTORS
330
10C
102
}
330
10C
100
AcDbScale
 70
     0
300
100:1
140
100.0
141
1.0
290
     0
  0
ACDBSECTIONVIEWSTYLE
  5
21A
102
{ACAD_REACTORS
330
219
102
}
330
219
100
AcDbModelDocViewStyle
 70
     0
  3
Metric50
290
     0
300
Metric50
 90
        0
100
AcDbSectionViewStyle
 70
     0
 71
     0
 90
      102
 71
     1
340
11
 62
   256
 40
5.0
340
0
340
0
 62
   256
 40
5.0
300
I, O, Q, S, X, Z
 40
10.0
 90
        0
 40
2.5
 90
        0
 71
     2
340
16
 90
       25
 62
   256
340
16
 90
       50
 62
   256
 40
5.0
 40
2.5
 40
5.0
 71
     3
340
11
 62
   256
 40
5.0
 90
        0
 40
15.0
 90
        1
300
%<\AcVar ViewSectionStartId>%-%<\AcVar ViewSectionEndId>% (%<\AcVar ViewScale \f "%sn">%)
 71
     4
 62
   256
 62
   257
300
ANSI31
 40
1.0
 90
        0
290
     0
290
     0
 90
        6
 40
0.0
 40
1.570796326794896
 40
0.2617993877991494
 40
1.308996938995747
 40
-0.2617993877991494
 40
1.832595714594046
  0
TABLESTYLE
  5
7F
102
{ACAD_XDICTIONARY
360
162
102
}
102
{ACAD_REACTORS
330
7E
102
}
330
7E
100
AcDbTableStyle
280
     0
  3
Standard
 70
     0
 71
     0
 40
1.5
 41
1.5
280
     0
281
     0
  7
Standard
140
4.5
170
     2
 62
     0
 63
     7
283
     0
 90
      512
 91
        0
  1

274
    -2
284
     1
 64
     0
275
    -2
285
     1
 65
     0
276
    -2
286
     1
 66
     0
277
    -2
287
     1
 67
     0
278
    -2
288
     1
 68
     0
279
    -2
289
     1
 69
     0
  7
Standard
140
6.0
170
     5
 62
     0
 63
     7
283
     0
 90
      512
 91
        0
  1

274
    -2
284
     1
 64
     0
275
    -2
285
     1
 65
     0
276
    -2
286
     1
 66
     0
277
    -2
287
     1
 67
     0
278
    -2
288
     1
 68
     0
279
    -2
289
     1
 69
     0
  7
Standard
140
4.5
170
     5
 62
     0
 63
     7
283
     0
 90
      512
 91
        0
  1

274
    -2
284
     1
 64
     0
275
    -2
285
     1
 65
     0
276
    -2
286
     1
 66
     0
277
    -2
287
     1
 67
     0
278
    -2
288
     1
 68
     0
279
    -2
289
     1
 69
     0
  0
VISUALSTYLE
  5
F5
102
{ACAD_REACTORS
330
EF
102
}
330
EF
100
AcDbVisualStyle
  2
2dWireframe
 70
     4
177
     3
291
     0
 70
    58
 90
        0
176
     1
 90
        2
176
     1
 90
        1
176
     1
 90
        0
176
     1
 40
0.6
176
     1
 40
30.0
176
     1
 62
     7
420
 16777215
176
     1
 90
        1
176
     1
 90
        4
176
     1
 62
     7
176
     1
 62
   257
176
     1
 90
        1
176
     1
 90
        1
176
     1
 40
1.0
176
     1
 90
        0
176
     1
 62
   257
176
     1
 40
1.0
176
     1
 90
        1
176
     1
 90
        6
176
     1
 90
        2
176
     1
 62
     7
176
     1
 90
        5
176
     1
 90
        0
176
     1
 90
        0
176
     1
290
     0
176
     1
 90
        1
176
     1
 40
0.0
176
     1
 90
        0
176
     1
290
     1
176
     1
290
     1
176
     1
290
     0
176
     1
290
     0
176
     1
290
     0
176
     1
290
     0
176
     1
290
     0
176
     1
290
     0
176
     1
290
     0
176
     1
 90
       50
176
     1
 40
0.0
176
     1
 40
1.0
176
     1
 90
        0
176
     1
 62
    18
420
        0
176
     1
 90
       50
176
     1
 90
        3
176
     1
 62
     5
420
      255
176
     1
290
     0
176
     1
 90
       50
176
     1
 90
       50
176
     1
 90
       50
176
     1
290
     0
176
     1
 90
       50
176
     1
 62
   256
176
     0
 40
1.0
176
     0
 90
        2
176
     1
  1
strokes_ogs.tif
176
     1
290
     0
176
     1
 40
1.0
176
     1
 40
1.0
176
     1
  0
VISUALSTYLE
  5
F4
102
{ACAD_REACTORS
330
EF
102
}
330
EF
100
AcDbVisualStyle
  2
Basic
 70
     7
177
     3
291
     1
 70
    58
 90
        1
176
     1
 90
        0
176
     1
 90
        1
176
     1
 90
        0
176
     1
 40
0.6
176
     1
 40
30.0
176
     1
 62
     7
420
 16777215
176
     1
 90
        0
176
     1
 90
        4
176
     1
 62
     7
176
     1
 62
   257
176
     1
 90
        1
176
     1
 90
        1
176
     1
 40
1.0
176
     1
 90
        8
176
     1
 62
     7
176
     1
 40
1.0
176
     1
 90
        1
176
     1
 90
        6
176
     1
 90
        2
176
     1
 62
     7
176
     1
 90
        5
176
     1
 90
        0
176
     1
 90
        0
176
     1
290
     0
176
     1
 90
        1
176
     1
 40
0.0
176
     1
 90
        0
176
     1
290
     0
176
     1
290
     1
176
     1
290
     1
176
     1
290
     0
176
     1
290
     0
176
     1
290
     0
176
     1
290
     0
176
     1
290
     0
176
     1
290
     0
176
     1
 90
       50
176
     1
 40
0.0
176
     1
 40
1.0
176
     1
 90
        0
176
     1
 62
    18
420
        0
176
     1
 90
       50
176
     1
 90
        3
176
     1
 62
     5
420
      255
176
     1
290
     0
176
     1
 90
       50
176
     1
 90
       50
176
     1
 90
       50
176
     1
290
     0
176
     1
 90
       50
176
     1
 62
   256
176
     0
 40
1.0
176
     0
 90
        2
176
     1
  1
strokes_ogs.tif
176
     1
290
     0
176
     1
 40
1.0
176
     1
 40
1.0
176
     1
  0
VISUALSTYLE
  5
FB
102
{ACAD_REACTORS
330
EF
102
}
330
EF
100
AcDbVisualStyle
  2
Brighten
 70
    12
177
     3
291
     1
 70
    58
 90
        2
176
     1
 90
        2
176
     1
 90
        1
176
     1
 90
        0
176
     1
 40
0.6
176
     1
 40
30.0
176
     1
 62
     7
420
 16777215
176
     1
 90
        1
176
     1
 90
        4
176
     1
 62
     7
176
     1
 62
   257
176
     1
 90
        1
176
     1
 90
        1
176
     1
 40
1.0
176
     1
 90
        8
176
     1
 62
     7
176
     1
 40
1.0
176
     1
 90
        1
176
     1
 90
        6
176
     1
 90
        2
176
     1
 62
     7
176
     1
 90
        5
176
     1
 90
        0
176
     1
 90
        0
176
     1
290
     0
176
     1
 90
        1
176
     1
 40
50.0
176
     1
 90
        0
176
     1
290
     0
176
     1
290
     1
176
     1
290
     1
176
     1
290
     0
176
     1
290
     0
176
     1
290
     0
176
     1
290
     0
176
     1
290
     0
176
     1
290
     0
176
     1
 90
       50
176
     1
 40
0.0
176
     1
 40
1.0
176
     1
 90
        0
176
     1
 62
    18
420
        0
176
     1
 90
       50
176
     1
 90
        3
176
     1
 62
     5
420
      255
176
     1
290
     0
176
     1
 90
       50
176
     1
 90
       50
176
     1
 90
       50
176
     1
290
     0
176
     1
 90
       50
176
     1
 62
   256
176
     0
 40
1.0
176
     0
 90
        2
176
     1
  1
strokes_ogs.tif
176
     1
290
     0
176
     1
 40
1.0
176
     1
 40
1.0
176
     1
  0
VISUALSTYLE
  5
FF
102
{ACAD_REACTORS
330
EF
102
}
330
EF
100
AcDbVisualStyle
  2
ColorChange
 70
    16
177
     3
291
     1
 70
    58
 90
        2
176
     1
 90
        2
176
     1
 90
        3
176
     1
 90
        0
176
     1
 40
0.6
176
     1
 40
30.0
176
     1
 62
     8
420
  8421504
176
     1
 90
        1
176
     1
 90
        4
176
     1
 62
     7
176
     1
 62
   257
176
     1
 90
        1
176
     1
 90
        1
176
     1
 40
1.0
176
     1
 90
        8
176
     1
 62
     8
420
  8421504
176
     1
 40
1.0
176
     1
 90
        1
176
     1
 90
        6
176
     1
 90
        2
176
     1
 62
     7
176
     1
 90
        5
176
     1
 90
        0
176
     1
 90
        0
176
     1
290
     0
176
     1
 90
        1
176
     1
 40
0.0
176
     1
 90
        0
176
     1
290
     0
176
     1
290
     1
176
     1
290
     1
176
     1
290
     0
176
     1
290
     0
176
     1
290
     0
176
     1
290
     0
176
     1
290
     0
176
     1
290
     0
176
     1
 90
       50
176
     1
 40
0.0
176
     1
 40
1.0
176
     1
 90
        0
176
     1
 62
    18
420
        0
176
     1
 90
       50
176
     1
 90
        3
176
     1
 62
     5
420
      255
176
     1
290
     0
176
     1
 90
       50
176
     1
 90
       50
176
     1
 90
       50
176
     1
290
     0
176
     1
 90
       50
176
     1
 62
   256
176
     0
 40
1.0
176
     0
 90
        2
176
     1
  1
strokes_ogs.tif
176
     1
290
     0
176
     1
 40
1.0
176
     1
 40
1.0
176
     1
  0
VISUALSTYLE
  5
F8
102
{ACAD_REACTORS
330
EF
102
}
330
EF
100
AcDbVisualStyle
  2
Conceptual
 70
     9
177
     3
291
     0
 70
    58
 90
        3
176
     1
 90
        2
176
     1
 90
        1
176
     1
 90
        0
176
     1
 40
0.6
176
     1
 40
30.0
176
     1
 62
     7
420
 16777215
176
     1
 90
        2
176
     1
 90
        2
176
     1
 62
     7
176
     1
 62
   257
176
     1
 90
        1
176
     1
 90
        1
176
     1
 40
40.0
176
     1
 90
        8
176
     1
 62
     7
176
     1
 40
1.0
176
     1
 90
        1
176
     1
 90
        6
176
     1
 90
        2
176
     1
 62
     7
176
     1
 90
        3
176
     1
 90
        0
176
     1
 90
        0
176
     1
290
     0
176
     1
 90
        1
176
     1
 40
0.0
176
     1
 90
        0
176
     1
290
     0
176
     1
290
     1
176
     1
290
     1
176
     1
290
     0
176
     1
290
     0
176
     1
290
     0
176
     1
290
     0
176
     1
290
     0
176
     1
290
     0
176
     1
 90
       50
176
     1
 40
0.0
176
     1
 40
1.0
176
     1
 90
        0
176
     1
 62
    18
420
        0
176
     1
 90
       50
176
     1
 90
        3
176
     1
 62
     5
420
      255
176
     1
290
     0
176
     1
 90
       50
176
     1
 90
       50
176
     1
 90
       50
176
     1
290
     0
176
     1
 90
       50
176
     1
 62
   256
176
     0
 40
1.0
176
     0
 90
        2
176
     1
  1
strokes_ogs.tif
176
     1
290
     0
176
     1
 40
1.0
176
     1
 40
1.0
176
     1
  0
VISUALSTYLE
  5
FA
102
{ACAD_REACTORS
330
EF
102
}
330
EF
100
AcDbVisualStyle
  2
Dim
 70
    11
177
     3
291
     1
 70
    58
 90
        2
176
     1
 90
        2
176
     1
 90
        1
176
     1
 90
        0
176
     1
 40
0.6
176
     1
 40
30.0
176
     1
 62
     7
420
 16777215
176
     1
 90
        1
176
     1
 90
        4
176
     1
 62
     7
176
     1
 62
   257
176
     1
 90
        1
176
     1
 90
        1
176
     1
 40
1.0
176
     1
 90
        8
176
     1
 62
     7
176
     1
 40
1.0
176
     1
 90
        1
176
     1
 90
        6
176
     1
 90
        2
176
     1
 62
     7
176
     1
 90
        5
176
     1
 90
        0
176
     1
 90
        0
176
     1
290
     0
176
     1
 90
        1
176
     1
 40
-50.0
176
     1
 90
        0
176
     1
290
     0
176
     1
290
     1
176
     1
290
     1
176
     1
290
     0
176
     1
290
     0
176
     1
290
     0
176
     1
290
     0
176
     1
290
     0
176
     1
290
     0
176
     1
 90
       50
176
     1
 40
0.0
176
     1
 40
1.0
176
     1
 90
        0
176
     1
 62
    18
420
        0
176
     1
 90
       50
176
     1
 90
        3
176
     1
 62
     5
420
      255
176
     1
290
     0
176
     1
 90
       50
176
     1
 90
       50
176
     1
 90
       50
176
     1
290
     0
176
     1
 90
       50
176
     1
 62
   256
176
     0
 40
1.0
176
     0
 90
        2
176
     1
  1
strokes_ogs.tif
176
     1
290
     0
176
     1
 40
1.0
176
     1
 40
1.0
176
     1
  0
VISUALSTYLE
  5
1E6
102
{ACAD_REACTORS
330
EF
102
}
330
EF
100
AcDbVisualStyle
  2
EdgeColorOff
 70
    22
177
     3
291
     1
 70
    58
 90
        2
176
     0
 90
        2
176
     0
 90
        0
176
     0
 90
        0
176
     0
 40
0.6
176
     0
 40
30.0
176
     0
 62
     7
420
 16777215
176
     0
 90
        1
176
     0
 90
        4
176
     0
 62
     7
176
     0
 62
   257
176
     0
 90
        1
176
     0
 90
        1
176
     0
 40
1.0
176
     0
 90
        8
176
     2
 62
     7
176
     0
 40
1.0
176
     0
 90
        1
176
     0
 90
        6
176
     0
 90
        2
176
     0
 62
     7
176
     0
 90
        5
176
     0
 90
        0
176
     0
 90
        0
176
     0
290
     0
176
     0
 90
        1
176
     0
 40
0.0
176
     0
 90
        0
176
     0
290
     0
176
     1
290
     1
176
     1
290
     1
176
     1
290
     0
176
     1
290
     0
176
     1
290
     0
176
     1
290
     0
176
     1
290
     0
176
     1
290
     0
176
     1
 90
       50
176
     1
 40
0.0
176
     1
 40
1.0
176
     1
 90
        0
176
     1
 62
    18
420
        0
176
     1
 90
       50
176
     1
 90
        3
176
     1
 62
     5
420
      255
176
     1
290
     0
176
     1
 90
       50
176
     1
 90
       50
176
     1
 90
       50
176
     1
290
     0
176
     1
 90
       50
176
     1
 62
   256
176
     0
 40
1.0
176
     0
 90
        2
176
     1
  1
strokes_ogs.tif
176
     1
290
     0
176
     1
 40
1.0
176
     1
 40
1.0
176
     1
  0
VISUALSTYLE
  5
FE
102
{ACAD_REACTORS
330
EF
102
}
330
EF
100
AcDbVisualStyle
  2
Facepattern
 70
    15
177
     3
291
     1
 70
    58
 90
        2
176
     1
 90
        2
176
     1
 90
        1
176
     1
 90
        0
176
     1
 40
0.6
176
     1
 40
30.0
176
     1
 62
     7
420
 16777215
176
     1
 90
        1
176
     1
 90
        4
176
     1
 62
     7
176
     1
 62
   257
176
     1
 90
        1
176
     1
 90
        1
176
     1
 40
1.0
176
     1
 90
        8
176
     1
 62
     7
176
     1
 40
1.0
176
     1
 90
        1
176
     1
 90
        6
176
     1
 90
        2
176
     1
 62
     7
176
     1
 90
        5
176
     1
 90
        0
176
     1
 90
        0
176
     1
290
     0
176
     1
 90
        1
176
     1
 40
0.0
176
     1
 90
        0
176
     1
290
     0
176
     1
290
     1
176
     1
290
     1
176
     1
290
     0
176
     1
290
     0
176
     1
290
     0
176
     1
290
     0
176
     1
290
     0
176
     1
290
     0
176
     1
 90
       50
176
     1
 40
0.0
176
     1
 40
1.0
176
     1
 90
        0
176
     1
 62
    18
420
        0
176
     1
 90
       50
176
     1
 90
        3
176
     1
 62
     5
420
      255
176
     1
290
     0
176
     1
 90
       50
176
     1
 90
       50
176
     1
 90
       50
176
     1
290
     0
176
     1
 90
       50
176
     1
 62
   256
176
     0
 40
1.0
176
     0
 90
        2
176
     1
  1
strokes_ogs.tif
176
     1
290
     0
176
     1
 40
1.0
176
     1
 40
1.0
176
     1
  0
VISUALSTYLE
  5
F0
102
{ACAD_REACTORS
330
EF
102
}
330
EF
100
AcDbVisualStyle
  2
Flat
 70
     0
177
     3
291
     1
 70
    58
 90
        2
176
     1
 90
        1
176
     1
 90
        1
176
     1
 90
        2
176
     1
 40
0.6
176
     1
 40
30.0
176
     1
 62
     7
420
 16777215
176
     1
 90
        0
176
     1
 90
        0
176
     1
 62
     7
176
     1
 62
   257
176
     1
 90
        1
176
     1
 90
        1
176
     1
 40
1.0
176
     1
 90
        8
176
     1
 62
     7
176
     1
 40
1.0
176
     1
 90
        1
176
     1
 90
        6
176
     1
 90
        2
176
     1
 62
     7
176
     1
 90
        5
176
     1
 90
        0
176
     1
 90
        0
176
     1
290
     0
176
     1
 90
       13
176
     1
 40
0.0
176
     1
 90
        0
176
     1
290
     0
176
     1
290
     1
176
     1
290
     1
176
     1
290
     0
176
     1
290
     0
176
     1
290
     0
176
     1
290
     0
176
     1
290
     0
176
     1
290
     0
176
     1
 90
       50
176
     1
 40
0.0
176
     1
 40
1.0
176
     1
 90
        0
176
     1
 62
    18
420
        0
176
     1
 90
       50
176
     1
 90
        3
176
     1
 62
     5
420
      255
176
     1
290
     0
176
     1
 90
       50
176
     1
 90
       50
176
     1
 90
       50
176
     1
290
     0
176
     1
 90
       50
176
     1
 62
   256
176
     0
 40
1.0
176
     0
 90
        2
176
     1
  1
strokes_ogs.tif
176
     1
290
     0
176
     1
 40
1.0
176
     1
 40
1.0
176
     1
  0
VISUALSTYLE
  5
F1
102
{ACAD_REACTORS
330
EF
102
}
330
EF
100
AcDbVisualStyle
  2
FlatWithEdges
 70
     1
177
     3
291
     1
 70
    58
 90
        2
176
     1
 90
        1
176
     1
 90
        1
176
     1
 90
        2
176
     1
 40
0.6
176
     1
 40
30.0
176
     1
 62
     7
420
 16777215
176
     1
 90
        1
176
     1
 90
        0
176
     1
 62
     7
176
     1
 62
   257
176
     1
 90
        1
176
     1
 90
        1
176
     1
 40
1.0
176
     1
 90
        0
176
     1
 62
   257
176
     1
 40
1.0
176
     1
 90
        1
176
     1
 90
        6
176
     1
 90
        2
176
     1
 62
     7
176
     1
 90
        5
176
     1
 90
        0
176
     1
 90
        0
176
     1
290
     0
176
     1
 90
       13
176
     1
 40
0.0
176
     1
 90
        0
176
     1
290
     0
176
     1
290
     1
176
     1
290
     1
176
     1
290
     0
176
     1
290
     0
176
     1
290
     0
176
     1
290
     0
176
     1
290
     0
176
     1
290
     0
176
     1
 90
       50
176
     1
 40
0.0
176
     1
 40
1.0
176
     1
 90
        0
176
     1
 62
    18
420
        0
176
     1
 90
       50
176
     1
 90
        3
176
     1
 62
     5
420
      255
176
     1
290
     0
176
     1
 90
       50
176
     1
 90
       50
176
     1
 90
       50
176
     1
290
     0
176
     1
 90
       50
176
     1
 62
   256
176
     0
 40
1.0
176
     0
 90
        2
176
     1
  1
strokes_ogs.tif
176
     1
290
     0
176
     1
 40
1.0
176
     1
 40
1.0
176
     1
  0
VISUALSTYLE
  5
F2
102
{ACAD_REACTORS
330
EF
102
}
330
EF
100
AcDbVisualStyle
  2
Gouraud
 70
     2
177
     3
291
     1
 70
    58
 90
        2
176
     1
 90
        2
176
     1
 90
        1
176
     1
 90
        2
176
     1
 40
0.6
176
     1
 40
30.0
176
     1
 62
     7
420
 16777215
176
     1
 90
        0
176
     1
 90
        0
176
     1
 62
     7
176
     1
 62
   257
176
     1
 90
        1
176
     1
 90
        1
176
     1
 40
1.0
176
     1
 90
        0
176
     1
 62
     7
176
     1
 40
1.0
176
     1
 90
        1
176
     1
 90
        6
176
     1
 90
        2
176
     1
 62
     7
176
     1
 90
        5
176
     1
 90
        0
176
     1
 90
        0
176
     1
290
     0
176
     1
 90
       13
176
     1
 40
0.0
176
     1
 90
        0
176
     1
290
     0
176
     1
290
     1
176
     1
290
     1
176
     1
290
     0
176
     1
290
     0
176
     1
290
     0
176
     1
290
     0
176
     1
290
     0
176
     1
290
     0
176
     1
 90
       50
176
     1
 40
0.0
176
     1
 40
1.0
176
     1
 90
        0
176
     1
 62
    18
420
        0
176
     1
 90
       50
176
     1
 90
        3
176
     1
 62
     5
420
      255
176
     1
290
     0
176
     1
 90
       50
176
     1
 90
       50
176
     1
 90
       50
176
     1
290
     0
176
     1
 90
       50
176
     1
 62
   256
176
     0
 40
1.0
176
     0
 90
        2
176
     1
  1
strokes_ogs.tif
176
     1
290
     0
176
     1
 40
1.0
176
     1
 40
1.0
176
     1
  0
VISUALSTYLE
  5
F3
102
{ACAD_REACTORS
330
EF
102
}
330
EF
100
AcDbVisualStyle
  2
GouraudWithEdges
 70
     3
177
     3
291
     1
 70
    58
 90
        2
176
     1
 90
        2
176
     1
 90
        1
176
     1
 90
        2
176
     1
 40
0.6
176
     1
 40
30.0
176
     1
 62
     7
420
 16777215
176
     1
 90
        1
176
     1
 90
        0
176
     1
 62
     7
176
     1
 62
   257
176
     1
 90
        1
176
     1
 90
        1
176
     1
 40
1.0
176
     1
 90
        0
176
     1
 62
   257
176
     1
 40
1.0
176
     1
 90
        1
176
     1
 90
        6
176
     1
 90
        2
176
     1
 62
     7
176
     1
 90
        5
176
     1
 90
        0
176
     1
 90
        0
176
     1
290
     0
176
     1
 90
       13
176
     1
 40
0.0
176
     1
 90
        0
176
     1
290
     0
176
     1
290
     1
176
     1
290
     1
176
     1
290
     0
176
     1
290
     0
176
     1
290
     0
176
     1
290
     0
176
     1
290
     0
176
     1
290
     0
176
     1
 90
       50
176
     1
 40
0.0
176
     1
 40
1.0
176
     1
 90
        0
176
     1
 62
    18
420
        0
176
     1
 90
       50
176
     1
 90
        3
176
     1
 62
     5
420
      255
176
     1
290
     0
176
     1
 90
       50
176
     1
 90
       50
176
     1
 90
       50
176
     1
290
     0
176
     1
 90
       50
176
     1
 62
   256
176
     0
 40
1.0
176
     0
 90
        2
176
     1
  1
strokes_ogs.tif
176
     1
290
     0
176
     1
 40
1.0
176
     1
 40
1.0
176
     1
  0
VISUALSTYLE
  5
F7
102
{ACAD_REACTORS
330
EF
102
}
330
EF
100
AcDbVisualStyle
  2
Hidden
 70
     6
177
     3
291
     0
 70
    58
 90
        1
176
     1
 90
        2
176
     1
 90
        2
176
     1
 90
        0
176
     1
 40
0.6
176
     1
 40
30.0
176
     1
 62
     7
420
 16777215
176
     1
 90
        2
176
     1
 90
        2
176
     1
 62
     7
176
     1
 62
   257
176
     1
 90
        2
176
     1
 90
        1
176
     1
 40
40.0
176
     1
 90
        0
176
     1
 62
   257
176
     1
 40
1.0
176
     1
 90
        1
176
     1
 90
        6
176
     1
 90
        2
176
     1
 62
     7
176
     1
 90
        3
176
     1
 90
        0
176
     1
 90
        0
176
     1
290
     0
176
     1
 90
        1
176
     1
 40
0.0
176
     1
 90
        0
176
     1
290
     0
176
     1
290
     1
176
     1
290
     1
176
     1
290
     0
176
     1
290
     0
176
     1
290
     0
176
     1
290
     0
176
     1
290
     0
176
     1
290
     0
176
     1
 90
       50
176
     1
 40
0.0
176
     1
 40
1.0
176
     1
 90
        0
176
     1
 62
    18
420
        0
176
     1
 90
       50
176
     1
 90
        3
176
     1
 62
     5
420
      255
176
     1
290
     0
176
     1
 90
       50
176
     1
 90
       50
176
     1
 90
       50
176
     1
290
     0
176
     1
 90
       50
176
     1
 62
   256
176
     0
 40
1.0
176
     0
 90
        2
176
     1
  1
strokes_ogs.tif
176
     1
290
     0
176
     1
 40
1.0
176
     1
 40
1.0
176
     1
  0
VISUALSTYLE
  5
1E4
102
{ACAD_REACTORS
330
EF
102
}
330
EF
100
AcDbVisualStyle
  2
JitterOff
 70
    20
177
     3
291
     1
 70
    58
 90
        2
176
     0
 90
        2
176
     0
 90
        0
176
     0
 90
        0
176
     0
 40
0.6
176
     0
 40
30.0
176
     0
 62
     7
420
 16777215
176
     0
 90
        1
176
     0
 90
        4
176
     0
 62
     7
176
     0
 62
   257
176
     0
 90
        1
176
     0
 90
        1
176
     0
 40
1.0
176
     0
 90
       10
176
     2
 62
     7
176
     0
 40
1.0
176
     0
 90
        1
176
     0
 90
        6
176
     0
 90
        2
176
     0
 62
     7
176
     0
 90
        5
176
     0
 90
        0
176
     0
 90
        0
176
     0
290
     0
176
     0
 90
        1
176
     0
 40
0.0
176
     0
 90
        0
176
     0
290
     0
176
     1
290
     1
176
     1
290
     1
176
     1
290
     0
176
     1
290
     0
176
     1
290
     0
176
     1
290
     0
176
     1
290
     0
176
     1
290
     0
176
     1
 90
       50
176
     1
 40
0.0
176
     1
 40
1.0
176
     1
 90
        0
176
     1
 62
    18
420
        0
176
     1
 90
       50
176
     1
 90
        3
176
     1
 62
     5
420
      255
176
     1
290
     0
176
     1
 90
       50
176
     1
 90
       50
176
     1
 90
       50
176
     1
290
     0
176
     1
 90
       50
176
     1
 62
   256
176
     0
 40
1.0
176
     0
 90
        2
176
     1
  1
strokes_ogs.tif
176
     1
290
     0
176
     1
 40
1.0
176
     1
 40
1.0
176
     1
  0
VISUALSTYLE
  5
FD
102
{ACAD_REACTORS
330
EF
102
}
330
EF
100
AcDbVisualStyle
  2
Linepattern
 70
    14
177
     3
291
     1
 70
    58
 90
        2
176
     1
 90
        2
176
     1
 90
        1
176
     1
 90
        0
176
     1
 40
0.6
176
     1
 40
30.0
176
     1
 62
     7
420
 16777215
176
     1
 90
        1
176
     1
 90
        4
176
     1
 62
     7
176
     1
 62
   257
176
     1
 90
        7
176
     1
 90
        7
176
     1
 40
1.0
176
     1
 90
        8
176
     1
 62
     7
176
     1
 40
1.0
176
     1
 90
        1
176
     1
 90
        6
176
     1
 90
        2
176
     1
 62
     7
176
     1
 90
        5
176
     1
 90
        0
176
     1
 90
        0
176
     1
290
     0
176
     1
 90
        1
176
     1
 40
0.0
176
     1
 90
        0
176
     1
290
     0
176
     1
290
     1
176
     1
290
     1
176
     1
290
     0
176
     1
290
     0
176
     1
290
     0
176
     1
290
     0
176
     1
290
     0
176
     1
290
     0
176
     1
 90
       50
176
     1
 40
0.0
176
     1
 40
1.0
176
     1
 90
        0
176
     1
 62
    18
420
        0
176
     1
 90
       50
176
     1
 90
        3
176
     1
 62
     5
420
      255
176
     1
290
     0
176
     1
 90
       50
176
     1
 90
       50
176
     1
 90
       50
176
     1
290
     0
176
     1
 90
       50
176
     1
 62
   256
176
     0
 40
1.0
176
     0
 90
        2
176
     1
  1
strokes_ogs.tif
176
     1
290
     0
176
     1
 40
1.0
176
     1
 40
1.0
176
     1
  0
VISUALSTYLE
  5
1E5
102
{ACAD_REACTORS
330
EF
102
}
330
EF
100
AcDbVisualStyle
  2
OverhangOff
 70
    21
177
     3
291
     1
 70
    58
 90
        2
176
     0
 90
        2
176
     0
 90
        0
176
     0
 90
        0
176
     0
 40
0.6
176
     0
 40
30.0
176
     0
 62
     7
420
 16777215
176
     0
 90
        1
176
     0
 90
        4
176
     0
 62
     7
176
     0
 62
   257
176
     0
 90
        1
176
     0
 90
        1
176
     0
 40
1.0
176
     0
 90
        9
176
     2
 62
     7
176
     0
 40
1.0
176
     0
 90
        1
176
     0
 90
        6
176
     0
 90
        2
176
     0
 62
     7
176
     0
 90
        5
176
     0
 90
        0
176
     0
 90
        0
176
     0
290
     0
176
     0
 90
        1
176
     0
 40
0.0
176
     0
 90
        0
176
     0
290
     0
176
     1
290
     1
176
     1
290
     1
176
     1
290
     0
176
     1
290
     0
176
     1
290
     0
176
     1
290
     0
176
     1
290
     0
176
     1
290
     0
176
     1
 90
       50
176
     1
 40
0.0
176
     1
 40
1.0
176
     1
 90
        0
176
     1
 62
    18
420
        0
176
     1
 90
       50
176
     1
 90
        3
176
     1
 62
     5
420
      255
176
     1
290
     0
176
     1
 90
       50
176
     1
 90
       50
176
     1
 90
       50
176
     1
290
     0
176
     1
 90
       50
176
     1
 62
   256
176
     0
 40
1.0
176
     0
 90
        2
176
     1
  1
strokes_ogs.tif
176
     1
290
     0
176
     1
 40
1.0
176
     1
 40
1.0
176
     1
  0
VISUALSTYLE
  5
F9
102
{ACAD_REACTORS
330
EF
102
}
330
EF
100
AcDbVisualStyle
  2
Realistic
 70
     8
177
     3
291
     0
 70
    58
 90
        2
176
     1
 90
        3
176
     1
 90
        0
176
     1
 90
        2
176
     1
 40
0.6
176
     1
 40
30.0
176
     1
 62
     7
420
 16777215
176
     1
 90
        0
176
     1
 90
        0
176
     1
 62
     7
176
     1
 62
   257
176
     1
 90
        1
176
     1
 90
        1
176
     1
 40
1.0
176
     1
 90
        8
176
     1
 62
   257
176
     1
 40
1.0
176
     1
 90
        1
176
     1
 90
        6
176
     1
 90
        2
176
     1
 62
     7
176
     1
 90
        3
176
     1
 90
        0
176
     1
 90
        0
176
     1
290
     0
176
     1
 90
       13
176
     1
 40
0.0
176
     1
 90
        0
176
     1
290
     0
176
     1
290
     1
176
     1
290
     1
176
     1
290
     0
176
     1
290
     0
176
     1
290
     0
176
     1
290
     0
176
     1
290
     0
176
     1
290
     0
176
     1
 90
       50
176
     1
 40
0.0
176
     1
 40
1.0
176
     1
 90
        0
176
     1
 62
    18
420
        0
176
     1
 90
       50
176
     1
 90
        3
176
     1
 62
     5
420
      255
176
     1
290
     0
176
     1
 90
       50
176
     1
 90
       50
176
     1
 90
       50
176
     1
290
     0
176
     1
 90
       50
176
     1
 62
   256
176
     0
 40
1.0
176
     0
 90
        2
176
     1
  1
strokes_ogs.tif
176
     1
290
     0
176
     1
 40
1.0
176
     1
 40
1.0
176
     1
  0
VISUALSTYLE
  5
1F3
102
{ACAD_REACTORS
330
EF
102
}
330
EF
100
AcDbVisualStyle
  2
Shaded
 70
    27
177
     3
291
     0
 70
    58
 90
        2
176
     1
 90
        2
176
     1
 90
        1
176
     1
 90
        2
176
     1
 40
0.6
176
     1
 40
30.0
176
     1
 62
     7
420
 16777215
176
     1
 90
        0
176
     1
 90
        4
176
     1
 62
     7
176
     1
 62
   257
176
     1
 90
        1
176
     1
 90
        1
176
     1
 40
1.0
176
     1
 90
        8
176
     1
 62
   257
176
     1
 40
1.0
176
     1
 90
        1
176
     1
 90
        6
176
     1
 90
        2
176
     1
 62
     8
420
  7895160
176
     1
 90
        3
176
     1
 90
        0
176
     1
 90
        0
176
     1
290
     0
176
     1
 90
        5
176
     1
 40
0.0
176
     1
 90
        0
176
     1
290
     0
176
     1
290
     1
176
     1
290
     1
176
     1
290
     0
176
     1
290
     0
176
     1
290
     0
176
     1
290
     0
176
     1
290
     0
176
     1
290
     0
176
     1
 90
       50
176
     1
 40
0.0
176
     1
 40
1.0
176
     1
 90
        0
176
     1
 62
    18
420
        0
176
     1
 90
       50
176
     1
 90
        3
176
     1
 62
     5
420
      255
176
     1
290
     0
176
     1
 90
       50
176
     1
 90
       50
176
     1
 90
       50
176
     1
290
     0
176
     1
 90
       50
176
     1
 62
   256
176
     0
 40
1.0
176
     0
 90
        2
176
     1
  1
strokes_ogs.tif
176
     1
290
     0
176
     1
 40
1.0
176
     1
 40
1.0
176
     1
  0
VISUALSTYLE
  5
1F2
102
{ACAD_REACTORS
330
EF
102
}
330
EF
100
AcDbVisualStyle
  2
Shaded with edges
 70
    26
177
     3
291
     0
 70
    58
 90
        2
176
     1
 90
        2
176
     1
 90
        1
176
     1
 90
        2
176
     1
 40
0.6
176
     1
 40
30.0
176
     1
 62
     7
420
 16777215
176
     1
 90
        1
176
     1
 90
        2
176
     1
 62
     7
176
     1
 62
   257
176
     1
 90
        2
176
     1
 90
        1
176
     1
 40
1.0
176
     1
 90
        8
176
     1
 62
   257
176
     1
 40
1.0
176
     1
 90
        1
176
     1
 90
        6
176
     1
 90
        2
176
     1
 62
     7
176
     1
 90
        3
176
     1
 90
        0
176
     1
 90
        0
176
     1
290
     0
176
     1
 90
        5
176
     1
 40
0.0
176
     1
 90
        0
176
     1
290
     0
176
     1
290
     1
176
     1
290
     1
176
     1
290
     0
176
     1
290
     0
176
     1
290
     0
176
     1
290
     0
176
     1
290
     0
176
     1
290
     0
176
     1
 90
       50
176
     1
 40
0.0
176
     1
 40
1.0
176
     1
 90
        0
176
     1
 62
    18
420
        0
176
     1
 90
       50
176
     1
 90
        3
176
     1
 62
     5
420
      255
176
     1
290
     0
176
     1
 90
       50
176
     1
 90
       50
176
     1
 90
       50
176
     1
290
     0
176
     1
 90
       50
176
     1
 62
   256
176
     0
 40
1.0
176
     0
 90
        2
176
     1
  1
strokes_ogs.tif
176
     1
290
     0
176
     1
 40
1.0
176
     1
 40
1.0
176
     1
  0
VISUALSTYLE
  5
1EF
102
{ACAD_REACTORS
330
EF
102
}
330
EF
100
AcDbVisualStyle
  2
Shades of Gray
 70
    23
177
     3
291
     0
 70
    58
 90
        2
176
     1
 90
        2
176
     1
 90
        3
176
     1
 90
        0
176
     1
 40
0.6
176
     1
 40
30.0
176
     1
 62
     7
420
 16777215
176
     1
 90
        2
176
     1
 90
        2
176
     1
 62
     7
176
     1
 62
     7
176
     1
 90
        1
176
     1
 90
        1
176
     1
 40
40.0
176
     1
 90
        8
176
     1
 62
     7
176
     1
 40
1.0
176
     1
 90
        1
176
     1
 90
        6
176
     1
 90
        2
176
     1
 62
     7
176
     1
 90
        3
176
     1
 90
        0
176
     1
 90
        0
176
     1
290
     0
176
     1
 90
        1
176
     1
 40
0.0
176
     1
 90
        0
176
     1
290
     0
176
     1
290
     1
176
     1
290
     1
176
     1
290
     0
176
     1
290
     0
176
     1
290
     0
176
     1
290
     0
176
     1
290
     0
176
     1
290
     0
176
     1
 90
       50
176
     1
 40
0.0
176
     1
 40
1.0
176
     1
 90
        0
176
     1
 62
    18
420
        0
176
     1
 90
       50
176
     1
 90
        3
176
     1
 62
     5
420
      255
176
     1
290
     0
176
     1
 90
       50
176
     1
 90
       50
176
     1
 90
       50
176
     1
290
     0
176
     1
 90
       50
176
     1
 62
   256
176
     0
 40
1.0
176
     0
 90
        2
176
     1
  1
strokes_ogs.tif
176
     1
290
     0
176
     1
 40
1.0
176
     1
 40
1.0
176
     1
  0
VISUALSTYLE
  5
1F0
102
{ACAD_REACTORS
330
EF
102
}
330
EF
100
AcDbVisualStyle
  2
Sketchy
 70
    24
177
     3
291
     0
 70
    58
 90
        1
176
     1
 90
        2
176
     1
 90
        2
176
     1
 90
        0
176
     1
 40
0.6
176
     1
 40
30.0
176
     1
 62
     7
420
 16777215
176
     1
 90
        2
176
     1
 90
        2
176
     1
 62
     7
176
     1
 62
     7
176
     1
 90
        1
176
     1
 90
        1
176
     1
 40
40.0
176
     1
 90
       11
176
     1
 62
     7
176
     1
 40
1.0
176
     1
 90
        1
176
     1
 90
        6
176
     1
 90
        2
176
     1
 62
     7
176
     1
 90
        6
176
     1
 90
        0
176
     1
 90
        0
176
     1
290
     0
176
     1
 90
        1
176
     1
 40
0.0
176
     1
 90
        0
176
     1
290
     0
176
     1
290
     1
176
     1
290
     1
176
     1
290
     0
176
     1
290
     0
176
     1
290
     0
176
     1
290
     0
176
     1
290
     0
176
     1
290
     0
176
     1
 90
       50
176
     1
 40
0.0
176
     1
 40
1.0
176
     1
 90
        0
176
     1
 62
    18
420
        0
176
     1
 90
       50
176
     1
 90
        3
176
     1
 62
     5
420
      255
176
     1
290
     0
176
     1
 90
       50
176
     1
 90
       50
176
     1
 90
       50
176
     1
290
     0
176
     1
 90
       50
176
     1
 62
   256
176
     0
 40
1.0
176
     0
 90
        2
176
     1
  1
strokes_ogs.tif
176
     1
290
     0
176
     1
 40
1.0
176
     1
 40
1.0
176
     1
  0
VISUALSTYLE
  5
FC
102
{ACAD_REACTORS
330
EF
102
}
330
EF
100
AcDbVisualStyle
  2
Thicken
 70
    13
177
     3
291
     1
 70
    58
 90
        2
176
     1
 90
        2
176
     1
 90
        1
176
     1
 90
        0
176
     1
 40
0.6
176
     1
 40
30.0
176
     1
 62
     7
420
 16777215
176
     1
 90
        1
176
     1
 90
        4
176
     1
 62
     7
176
     1
 62
   257
176
     1
 90
        1
176
     1
 90
        1
176
     1
 40
1.0
176
     1
 90
       12
176
     1
 62
     7
176
     1
 40
1.0
176
     1
 90
        1
176
     1
 90
        6
176
     1
 90
        2
176
     1
 62
     7
176
     1
 90
        5
176
     1
 90
        0
176
     1
 90
        0
176
     1
290
     0
176
     1
 90
        1
176
     1
 40
0.0
176
     1
 90
        0
176
     1
290
     0
176
     1
290
     1
176
     1
290
     1
176
     1
290
     0
176
     1
290
     0
176
     1
290
     0
176
     1
290
     0
176
     1
290
     0
176
     1
290
     0
176
     1
 90
       50
176
     1
 40
0.0
176
     1
 40
1.0
176
     1
 90
        0
176
     1
 62
    18
420
        0
176
     1
 90
       50
176
     1
 90
        3
176
     1
 62
     5
420
      255
176
     1
290
     0
176
     1
 90
       50
176
     1
 90
       50
176
     1
 90
       50
176
     1
290
     0
176
     1
 90
       50
176
     1
 62
   256
176
     0
 40
1.0
176
     0
 90
        2
176
     1
  1
strokes_ogs.tif
176
     1
290
     0
176
     1
 40
1.0
176
     1
 40
1.0
176
     1
  0
VISUALSTYLE
  5
F6
102
{ACAD_REACTORS
330
EF
102
}
330
EF
100
AcDbVisualStyle
  2
Wireframe
 70
     5
177
     3
291
     0
 70
    58
 90
        0
176
     1
 90
        2
176
     1
 90
        0
176
     1
 90
        0
176
     1
 40
0.6
176
     1
 40
30.0
176
     1
 62
     7
420
 16777215
176
     1
 90
        1
176
     1
 90
        4
176
     1
 62
     7
176
     1
 62
   257
176
     1
 90
        1
176
     1
 90
        1
176
     1
 40
1.0
176
     1
 90
        0
176
     1
 62
   257
176
     1
 40
1.0
176
     1
 90
        1
176
     1
 90
        6
176
     1
 90
        2
176
     1
 62
     7
176
     1
 90
        3
176
     1
 90
        0
176
     1
 90
        0
176
     1
290
     0
176
     1
 90
        1
176
     1
 40
0.0
176
     1
 90
        0
176
     1
290
     0
176
     1
290
     1
176
     1
290
     1
176
     1
290
     0
176
     1
290
     0
176
     1
290
     0
176
     1
290
     0
176
     1
290
     0
176
     1
290
     0
176
     1
 90
       50
176
     1
 40
0.0
176
     1
 40
1.0
176
     1
 90
        0
176
     1
 62
    18
420
        0
176
     1
 90
       50
176
     1
 90
        3
176
     1
 62
     5
420
      255
176
     1
290
     0
176
     1
 90
       50
176
     1
 90
       50
176
     1
 90
       50
176
     1
290
     0
176
     1
 90
       50
176
     1
 62
   256
176
     0
 40
1.0
176
     0
 90
        2
176
     1
  1
strokes_ogs.tif
176
     1
290
     0
176
     1
 40
1.0
176
     1
 40
1.0
176
     1
  0
VISUALSTYLE
  5
1F1
102
{ACAD_REACTORS
330
EF
102
}
330
EF
100
AcDbVisualStyle
  2
X-Ray
 70
    25
177
     3
291
     0
 70
    58
 90
        2
176
     1
 90
        2
176
     1
 90
        1
176
     1
 90
        1
176
     1
 40
0.5
176
     1
 40
30.0
176
     1
 62
     7
420
 16777215
176
     1
 90
        1
176
     1
 90
        0
176
     1
 62
     7
176
     1
 62
   257
176
     1
 90
        1
176
     1
 90
        1
176
     1
 40
1.0
176
     1
 90
        8
176
     1
 62
     7
176
     1
 40
1.0
176
     1
 90
        1
176
     1
 90
        6
176
     1
 90
        2
176
     1
 62
     7
176
     1
 90
        3
176
     1
 90
        0
176
     1
 90
        0
176
     1
290
     0
176
     1
 90
       13
176
     1
 40
0.0
176
     1
 90
        0
176
     1
290
     0
176
     1
290
     1
176
     1
290
     1
176
     1
290
     0
176
     1
290
     0
176
     1
290
     0
176
     1
290
     0
176
     1
290
     0
176
     1
290
     0
176
     1
 90
       50
176
     1
 40
0.0
176
     1
 40
1.0
176
     1
 90
        0
176
     1
 62
    18
420
        0
176
     1
 90
       50
176
     1
 90
        3
176
     1
 62
     5
420
      255
176
     1
290
     0
176
     1
 90
       50
176
     1
 90
       50
176
     1
 90
       50
176
     1
290
     0
176
     1
 90
       50
176
     1
 62
   256
176
     0
 40
1.0
176
     0
 90
        2
176
     1
  1
strokes_ogs.tif
176
     1
290
     0
176
     1
 40
1.0
176
     1
 40
1.0
176
     1
  0
DICTIONARYVAR
  5
146
102
{ACAD_REACTORS
330
5E
102
}
330
5E
100
DictionaryVariables
280
     0
  1
1:1
  0
DICTIONARYVAR
  5
259
102
{ACAD_REACTORS
330
5E
102
}
330
5E
100
DictionaryVariables
280
     0
  1
3.500000
  0
DICTIONARYVAR
  5
25A
102
{ACAD_REACTORS
330
5E
102
}
330
5E
100
DictionaryVariables
280
     0
  1
acadiso.lin
  0
DICTIONARYVAR
  5
145
102
{ACAD_REACTORS
330
5E
102
}
330
5E
100
DictionaryVariables
280
     0
  1
STANDARD
  0
DICTIONARYVAR
  5
84
102
{ACAD_REACTORS
330
5E
102
}
330
5E
100
DictionaryVariables
280
     0
  1
STANDARD
  0
DICTIONARYVAR
  5
227
102
{ACAD_REACTORS
330
5E
102
}
330
5E
100
DictionaryVariables
280
     0
  1
Metric50
  0
DICTIONARYVAR
  5
228
102
{ACAD_REACTORS
330
5E
102
}
330
5E
100
DictionaryVariables
280
     0
  1
Metric50
  0
DICTIONARYVAR
  5
5F
102
{ACAD_REACTORS
330
5E
102
}
330
5E
100
DictionaryVariables
280
     0
  1
2
  0
DICTIONARYVAR
  5
63
102
{ACAD_REACTORS
330
5E
102
}
330
5E
100
DictionaryVariables
280
     0
  1
1
  0
DICTIONARYVAR
  5
1FFCA
102
{ACAD_REACTORS
330
5E
102
}
330
5E
100
DictionaryVariables
280
     0
  1
BYLAYER
  0
DICTIONARYVAR
  5
1FFC9
102
{ACAD_REACTORS
330
5E
102
}
330
5E
100
DictionaryVariables
280
     0
  1
ByLayer
  0
DICTIONARYVAR
  5
1AE
102
{ACAD_REACTORS
330
5E
102
}
330
5E
100
DictionaryVariables
280
     0
  1
0
  0
DICTIONARYVAR
  5
1AF
102
{ACAD_REACTORS
330
5E
102
}
330
5E
100
DictionaryVariables
280
     0
  1
0
  0
DICTIONARY
  5
34FED
102
{ACAD_REACTORS
330
34FEC
102
}
330
34FEC
100
AcDbDictionary
281
     1
  3
*A1
350
34FEE
  0
DICTIONARY
  5
2A5A9
102
{ACAD_REACTORS
330
2A5A8
102
}
330
2A5A8
100
AcDbDictionary
281
     1
  3
*A1
350
2A5AA
  0
DICTIONARY
  5
205
330
22
100
AcDbDictionary
280
     1
281
     1
  0
DICTIONARY
  5
1F9
330
ED
100
AcDbDictionary
280
     1
281
     1
  3
FBXASSET
360
1FA
  0
DICTIONARY
  5
1F7
330
EC
100
AcDbDictionary
280
     1
281
     1
  3
FBXASSET
360
1F8
  0
DICTIONARY
  5
173
330
EE
100
AcDbDictionary
280
     1
281
     1
  3
BUMPTILE
360
175
  3
DIFFUSETILE
360
174
  3
FBXASSET
360
1FB
  3
OPACITYTILE
360
176
  3
REFLECTIONTILE
360
177
  0
DICTIONARY
  5
162
330
7F
100
AcDbDictionary
280
     1
281
     1
  3
ACAD_ROUNDTRIP_2008_TABLESTYLE_CELLSTYLEMAP
360
352BA
  0
ACDB_MTEXTATTRIBUTEOBJECTCONTEXTDATA_CLASS
  5
34FEE
102
{ACAD_REACTORS
330
34FED
102
}
330
34FED
100
AcDbObjectContextData
 70
     4
290
     1
100
AcDbAnnotScaleObjectContextData
340
10D
 70
     1
 50
0.0
 10
-189.4888208631601
 20
-1423.698702050697
 11
-22.50382768444251
 21
-1373.698702050696
290
     0
  0
ACDB_MTEXTATTRIBUTEOBJECTCONTEXTDATA_CLASS
  5
2A5AA
102
{ACAD_REACTORS
330
2A5A9
102
}
330
2A5A9
100
AcDbObjectContextData
 70
     4
290
     1
100
AcDbAnnotScaleObjectContextData
340
10D
 70
     1
 50
0.0
 10
35147.05048144968
 20
2403.966051896579
 11
35314.0354746284
 21
2453.966051896579
290
     0
  0
XRECORD
  5
1FA
102
{ACAD_REACTORS
330
1F9
102
}
330
1F9
100
AcDbXrecord
280
     1
 70
     1
 90
429727718
  1
D62C5603-E3A1-4AEA-B7FB-FE5D8D0755AF
310
504B03040A0000080000CC70623B3DEE336E79000000790000001B0000006175746F6465736B2D64657369676E2D7061636B6167652E786D6C3C3F786D6C2076657273696F6E3D22312E302220656E636F64696E673D227574662D3822203F3E3C666F726D6174733E3C666F726D61743E687474703A2F2F736368656D612E
310
6175746F6465736B2E636F6D2F64657369676E2D7061636B6167652F323030393C2F666F726D61743E3C2F666F726D6174733E504B0304140006080800CC70623BD486FD9CA0000000F4000000130000005B436F6E74656E745F54797065735D2E786D6C7D8EC10E82300C865F65E91D8A1E8C310C0EEA1BF002731658846E
310
D98AC1B77784ABF1D8FE5FBFBF75BBCE937A534CCEB38643598122B6FEE978D0B0485F9C41B54DDD7D022595594E1A469170414C76A4D9A4D207E29CF43ECE46F218070CC6BECC4078ACAA135ACF422C856C0E68EA1BF5669944DDD7BCDE7B1F8E415D77AECB980613C2E4AC91FC167A2B244592486606FC29C8FD7F045B9A
310
EF7053A7E60B504B0304140006080800CC70623B853B8169EB0000007C01000008000000636F72652E786D6C8D90416EC3201045AF62CDB6C206821CC7C244919D9CA01740401C94182C03558F5F9C3852BBEB6A467FFE9B197D7EFC9E1EC5975982F5AE035262288C535E5B377690E21535501C055FBC8FBF6C503839990E
310
5619041F179FE64D52DE45E362569DD7661365082642A11EB9E920A89B99642953CC8E702F67A9EE7234257977194EC9EAE275C4EABCCF5EAD5940D4AC6F0E35A568B8F43562CD7046CD199FD07E60174276A7BE677B5EADB0E0D14EEFFB6A31321A0D82627C4084204C3F096B71DD52F6819B16635EADF63F509AF53FA164
310
5DDCD1EDDD17164090FCC8732078B56691CB33A85CD7DCC40F504B0304140006080800CC70623B55019EA25F0000007C00000007000000636E782E786D6C4DCB3B0E80201045D1AD90E915ED2CF8AC45050C11660C8261F98AB1B07AC9C97D42D718D865D3E909258CFD00CCE24AC6E326A164D74DC0B4128928FF32603847
310
2BA13128B1252AC747C6BAB984FC68F0B87FE8960A5C09FE86CFB69FBA01504B0304140006080800CC70623BDBABAAF470010000D40300000C0000006662782F636F72652E786D6CC553D16E823014FD95A6AF4B694182CC941A83FA05FB810A9511A125A5257EFE2E82712ECEB8A7F100CD39F7F69E734AF9FADC366850B6
310
AF8DCE7018308C942E4C59EB2AC3DE1D498AD15A706B8CFB56869196ADCAF00863C12B6B7C374385D14E6907A836A59A41D9F7CA615434B0C8705F7CAA5606D23BA8E84F41278B93AC54100640439DE0BDB320004D43C63716C7C399D30917DCFBBA9CD9BA8469F5B156168B24CED3F7248AC8769F27244EB73B92EED8862C
310
B7F13E0C179B3C8F979C8ECD82BBBABDAA2BAC924E9558448CBD9330242CFA08E3154B5651FCC6D215639C8EE5774DBE2B5F6CF2B5768B68963BB5F5588420E442FC700B1139D4CB01F450C1E918227C2E09DF070D8140C84E1E9AAB8F1340832A9CB13130A5F1376A908D57309505ECF2A0DF179C4E9D30F5B239B87E3823
310
7A79C6F31DE1A8A5AEC08474B03C7837EAE4938639B44E5932B833D2C6B6B279CDC613877FA26EE21F4A2A4C63EC7F29A2F301D1F9F7A0E37D145F504B0304140006080800CC70623B9C113CC27E0000009D0000000B0000006662782F636E782E786D6C4DCCDF0A83201C86E15B91DFB94BFB330DD428C8FB886521330DA7
310
6397BF1A1DECE883878F57749FCDA1B7892F1BBC047A23808C7F84D9FA55424E0BE6803A256208E9EF06C84F9B91703228B1C690F78B66B34CD9A5439DF5CF0BFBF65E35BCA1B8D6A5C6F540381E886698B5741C695F9503EBA150A2F8958E3DC3EA0B504B0304140006080800CC70623B7DF2F77C2A010000120200003100
310
00006662782F41393633353835312D344632462D344230382D423046372D3739314545314133324237412F636F72652E786D6C8D51DB8EC22014FC15C2939B0D2DB4B45643319AE817EC0F6041255A68B86CFCFC856D4D76DF7CE190393373060EDB3DC707F856CE6B6B7A480A0C81328395DA5C7B18C3057510EC3873D686
310
3F34088C18550F330C39BB3A1BA7051AAC09CA84841A2BD5020AEF55806078A44B0FFD7053A328440C89E1EFC52486BBB8AA8214A99D789CF9E05200300FC927E4FB4D5B375D43103D5527440FB843077C5AA3F5861C8F645F5787F59E95B390B318B55CE45AA638FAA2957BD7248B390B7A7CC51F9C124149C82B8C378810
310
84AB2F42B7B8DD56F413775B8C5999E9FF4471926F8AA236A1AE96B8B3CC434E5839373893369E1FAF30EA395917409EB7F26AF8801C171837A4A6AC9C89E9F9C9B1A58BA30FD6A5EF5DDDCF894B9AD9B6A59C957943A9FCAE2FD5BC4DFE03504B0304140006080800CC70623BAD7543B64E01000033030000300000006662
310
782F41393633353835312D344632462D344230382D423046372D3739314545314133324237412F636E782E786D6CD593CD6EC32010845F0571AD6CE3D48AD20813A9873E410FBD12D82434182C7EAAE6EDBB2424CD25871E7B41D6EC30B3FA84F9E67BB2E40B4234DE8DB46F1925E094D7C6ED479AD3AE5951B2113C789FEE
310
6C943839C1488B4C05DF079FE72A69D8C96C13AAD6B8631503449F83828872B949AC57D26200B826A308D316B4064D6E46FCDA41C05550DC9E483A00797BFD207EFB092A45DE9514C1BBD22178396BD39D891265658C238DEA00936C654E5E433CB65A26D9F6EDB5EBC14EBF49A45CB856E66048291F6939A9A81BB5C89177
310
38143CA680F4AA299D66A042CEB3354A2684DC9D8D178FE0D9B8B41CAAD720F880EE7EF93C0C18769E099ECC04D5A102C8049A8A05632F4DDF376CF1DE0F6BB65C2F8627B65A33C6BB62177CEBBDAD973006829F89F22E814B54F4BC2BE347F8AA8F681390B50FA73F804400B5F542E796F19FF974E7F78DB802FE05E20750
310
4B0304140006080800CC70623BE75B7789680500003C100000340000006662782F41393633353835312D344632462D344230382D423046372D3739314545314133324237412F6F626A656374732E786D6CAD575B8F9B3818FD2B887D06C22499CB8AA1CA655245D5B455A356FB305264C061D8018C6C3393D95FBFC7600890
310
A4CD5EF210B0B1BFEBF98E3F7B1FF6596ABC522E1296DF9BAE3D320D9A872C4AF2F8DE2CE5CEBA358D0FBEC719939D65A691938CDE9B6ADAF4BD98B3B2D05311DD91329583D9D5FC0F438434A7A611A644887B5384CF34233629258BA878B12322891DEFF6B66BD70BFB62634E8AE781D082709A4B588AF91C528CDA28B73F
310
1C998EEF39EABBEFA97FBD6A7C7E9553F9D3D79FE442923C3C523610337627CB87ABE99D359D4CC6D6E4FACAB5E6ABF9D2726FC6A3C5F56271377BB88362213924694B38DD99FE47C48627A1E7D49F5A8BB5E1A74C0A599ED3B0F21F1E56366B89112D681E218F0915D0D6F17AD41FBA2A369DCF6335D62ABBD39779D5DDD1
310
11D4D8DE3CBB96B2E04FB8202E41051754A1AA8E8F76B4C6DFE810B580B1547F4B84911149794252234D024EF8BBE963A95AE27B3D310A9D5C215C7960FAEE415ED75694C6AFB17BCACA5D99A60A9AA65F217B0BFC53292ACB92BF283FAD0D3621576592CB5BED907C2FA8E9DF794E35E97BEA31BED21FEB401ABB94C44839
310
DCACBF0E1C5DA8DA5B2F4DFFD32AD86F543D9E565E7056502E157C00AD2671CD534549AB752FCA9CDA00677A313F04E51B22FF19E57B300579E3C97EB29F682D92935CEC18CF901B7B54FD8C51F362B56FC72FE0B3C1EAE335EDCCBF5AEC39ADB17DC238973F804BA5E6F6BFE7AF1FB32E523BE9F3BD571418E3631DCA4D48
310
5250CF639223210A9446CA30052EDF057BD35F8329C1ECD84552BF0DC8D18BE7BCE23BFE6BD960AB4A7DE79923A103BEBD80F911CBAA2C60DB19B01CF164A5583B772EE6D3FFA56666CBCDA74DC97724A48F9A58967497E489C4D979006FD7A05E227A1EBDD0F737C623387A9C844D3709995625106D157315F8B8392CD4E0
310
A0B9A720C4BE9829CEF37EA1E13111214D53925356365ADA634861B52519DD27A00AEB808EAF0628E6F435519D446F45CF2C9CF5214F0A15B2F6D06B79DA3EE3CBF7F56780D2F4E7EF73A0F5E5B02A38D07DC852C6B7C1FBB6664213E0C39E3EBA7FF4E1AD23EA2829407C85E586727488B751B2DB9502BC7B228A3FD68B6E
310
A65A22397E690AA8D158D7E404EC8CDA235CC3B7D1898680131CEC2CDF2638C65196279577750F15884AEE19F94199155B92B13297978469D4F8D358DF0AEF7631E28DC8F0D9F437D5D39A83B2231A1D52D543813A824EF8D44BCFF2FA6A31BD1E8DAD87F1CCB526B3879935BF59CDADD5C37479BB1CDD4CA7B3556B516589
310
EF352754B706114D9C885EC9131DE6EFEB43D99AFE2391C2F958179413D7CFEF6B1B6DB1E7600F00DE6E5C67454A339A4BA2E0FBA85ED26F045D454F463DBFCE484C2F90F2E5E3666003662ED8F755951A7D1BECD5B30B550B2785C8E7320B7292A4838DDA71BBC863ED7613CAF659337A3354231D4FF4A182A54904C2898C
310
98B28C4AD0CE056CCF332A80986E571EE9DBC305BB5FEB7E509220A58D25CF042D712A806AC0AD0C657FDEF80D2D9CEAA2EE4D1C76F60BFE74219A06527D6F82DF6412526107381E55E353090704D085B52408A8913C4ED159D79BDA71BB4BC506F4831350EB6F975CD22D69BF7AC49B91A2C0A9DDA3D5CA36AD20FC478E37
310
E61844E2352865EBCB61A275A65283CAAA9DD27703B4102F5AF51EF5F573B75CBB5AD38BC845F7A49F82A0966A49C2E3EA5EA0ECD326CD965F1DB402C6FA8B51A4658C5C5E2EC9E214602E55810345408596591009A82E7E7FFACA19EEA299B14A0081A705CB3296EBC14CDF658DCD336EA6D1136881AAEB87B81AB9EE53D5
310
F5EB8BC8362082DA24122F98680A4E7930C01A0079749CEA14382A0783E5EBA5A10F8C098456A03D6A4AEB6BB881E2513747552A5DB22C7EDAF83BD5528081A365F7FF06504B0304140006080000CC70623B000000000000000000000000350000006662782F41393633353835312D344632462D344230382D423046372D37
310
39314545314133324237412F76657274696365732E62696E504B0304140006080800CC70623BF270F1330600000004000000360000006662782F41393633353835312D344632462D344230382D423046372D3739314545314133324237412F747269616E676C65732E62696E636660600000504B0304140006080000CC7062
310
3B000000000000000000000000370000006662782F41393633353835312D344632462D344230382D423046372D3739314545314133324237412F617474726962757465732E62696E504B0304140006080800CC70623B08DA0BD19000000041010000360000006662782F41393633353835312D344632462D344230382D4230
310
46372D3739314545314133324237412F6469726563746F72792E786D6C858F410AC3201045AF22B36F53E9A60B35CBEEBAE80D244E44489C6234F4F835464A48035D0DF398FF9F8AF63D0E6CC63039F212F8F9020C7D47C6792B21C5FE7403D62A1188E2E60C98D7234A5830286103A55745067B9D86B8A3CF9C7F90C11DE6
310
07FB144396D7B6A82D282E9A152AD114D5EF2CB866EEE831B8EEA07A7BB5A8D7D61A2BAAEB7FD5F70921FF497D00504B0304140006080800CC70623BEDD1DC58FD000000A00100003B0000006662782F41393633353835312D344632462D344230382D423046372D3739314545314133324237412F7265736F75726365732F
310
636F72652E786D6C8D504B6E833010BD0A9A6D65B00922041947112427E8052C33A156828DFCA97AFC9A40A576D7CDCCE87D344F8F9FBFE667F689CE6B6B3A6039850C8DB2A336530731DC4903D95970676DF82583CCC8193B5861107C72362E3BA4AC096842428D1D7107A5F7182053CF7474E0D507CE32973124857FE48B
310
540F3961CEF244279DE03EB81420DB9EAC1384436FA353E879B1B182C7A8C75DA3C7F453DF353A1075D537A7BA6464B8F535A99AE14A9A2BBD90E350DD183B5CFABE3AF262350B1EF4FC9351399401471025A527C218A1E53BAB5A5AB765F5469B96525EACF23FA6B88CFF34456DC2A1DCE36E360F82A5202F42F062ED2BAD
310
579969AFDD8A6F504B010214000A0000080000CC70623B3DEE336E79000000790000001B00000000000000000000000000000000006175746F6465736B2D64657369676E2D7061636B6167652E786D6C504B01021400140006080800CC70623BD486FD9CA0000000F40000001300000000000000000000000000B20000005B
310
436F6E74656E745F54797065735D2E786D6C504B01021400140006080800CC70623B853B8169EB0000007C010000080000000000000000000000000083010000636F72652E786D6C504B01021400140006080800CC70623B55019EA25F0000007C000000070000000000000000000000000094020000636E782E786D6C504B
310
01021400140006080800CC70623BDBABAAF470010000D40300000C00000000000000000000000000180300006662782F636F72652E786D6C504B01021400140006080800CC70623B9C113CC27E0000009D0000000B00000000000000000000000000B20400006662782F636E782E786D6C504B01021400140006080800CC70
310
623B7DF2F77C2A010000120200003100000000000000000000000000590500006662782F41393633353835312D344632462D344230382D423046372D3739314545314133324237412F636F72652E786D6C504B01021400140006080800CC70623BAD7543B64E010000330300003000000000000000000000000000D2060000
310
6662782F41393633353835312D344632462D344230382D423046372D3739314545314133324237412F636E782E786D6C504B01021400140006080800CC70623BE75B7789680500003C10000034000000000000000000000000006E0800006662782F41393633353835312D344632462D344230382D423046372D3739314545
310
314133324237412F6F626A656374732E786D6C504B01021400140006080000CC70623B0000000000000000000000003500000000000000000000000000280E00006662782F41393633353835312D344632462D344230382D423046372D3739314545314133324237412F76657274696365732E62696E504B01021400140006
310
080800CC70623BF270F133060000000400000036000000000000000000000000007B0E00006662782F41393633353835312D344632462D344230382D423046372D3739314545314133324237412F747269616E676C65732E62696E504B01021400140006080000CC70623B0000000000000000000000003700000000000000
310
000000000000D50E00006662782F41393633353835312D344632462D344230382D423046372D3739314545314133324237412F617474726962757465732E62696E504B01021400140006080800CC70623B08DA0BD1900000004101000036000000000000000000000000002A0F00006662782F41393633353835312D344632
310
462D344230382D423046372D3739314545314133324237412F6469726563746F72792E786D6C504B01021400140006080800CC70623BEDD1DC58FD000000A00100003B000000000000000000000000000E1000006662782F41393633353835312D344632462D344230382D423046372D3739314545314133324237412F7265
310
736F75726365732F636F72652E786D6C504B0506000000000E000E0080040000641100000000
  0
XRECORD
  5
1F8
102
{ACAD_REACTORS
330
1F7
102
}
330
1F7
100
AcDbXrecord
280
     1
 70
     1
 90
429727718
  1
30362254-06B7-45E0-A893-8CFA70E3D6BC
310
504B03040A0000080000CC70623B3DEE336E79000000790000001B0000006175746F6465736B2D64657369676E2D7061636B6167652E786D6C3C3F786D6C2076657273696F6E3D22312E302220656E636F64696E673D227574662D3822203F3E3C666F726D6174733E3C666F726D61743E687474703A2F2F736368656D612E
310
6175746F6465736B2E636F6D2F64657369676E2D7061636B6167652F323030393C2F666F726D61743E3C2F666F726D6174733E504B0304140006080800CC70623BD486FD9CA0000000F4000000130000005B436F6E74656E745F54797065735D2E786D6C7D8EC10E82300C865F65E91D8A1E8C310C0EEA1BF002731658846E
310
D98AC1B77784ABF1D8FE5FBFBF75BBCE937A534CCEB38643598122B6FEE978D0B0485F9C41B54DDD7D022595594E1A469170414C76A4D9A4D207E29CF43ECE46F218070CC6BECC4078ACAA135ACF422C856C0E68EA1BF5669944DDD7BCDE7B1F8E415D77AECB980613C2E4AC91FC167A2B244592486606FC29C8FD7F045B9A
310
EF7053A7E60B504B0304140006080800CC70623B1EC5D7A3EB0000007C01000008000000636F72652E786D6C8D90416EC3201045AF82665B6103C6756C6122AB4D4ED00B204C5C94182C03558F5F9C3852BBEB6A467FFE9B197D71FC9E6FE8CBACC17AD7032D0820E3B41FAD9B7A48F1820F808E52ACDEC75F36404ECDA687
310
4D0629A6D5A76597B477D1B89855E747B38B2A041301E95B6E7A08FAD3CCAA50296647B8168BD2573599823EBB0CA76447F43862C7BCCF5EAC59410E4DDD9C7973C2755553CCCFA4C603E3040F1565ED3B1FDE4E432BCA0D9622DAF9795FAF464533826484B498524CD807E51D79ED187F21878E10516EF63F505AC67F42C9
310
BA58B1FDDD071640D2FCC87D2045B96591CB3DA85CB7DCE40F504B0304140006080800CC70623B55019EA25F0000007C00000007000000636E782E786D6C4DCB3B0E80201045D1AD90E915ED2CF8AC45050C11660C8261F98AB1B07AC9C97D42D718D865D3E909258CFD00CCE24AC6E326A164D74DC0B4128928FF32603847
310
2BA13128B1252AC747C6BAB984FC68F0B87FE8960A5C09FE86CFB69FBA01504B0304140006080800CC70623B8C9102E971010000D40300000C0000006662782F636F72652E786D6CC5535B6E833010BC8AE5DF0A6C08340F1947A84D4ED00B38C6A128602363A31CBFCB234A53A551FA553EC09AD9F5CE8C31DB9E9B1AF5CA
310
7695D1198E428A91D2D214952E33ECDD315861B4E5CC1AE3BE9561A445A3323CC098B3D21ADFCE9034DA29ED00D5A6503328BA4E398C640D8B0C77F253352214DE4145770A5B214FA2546114020D759C75CE8200340D19DE981F0F6746269C33EFAB6266AB02A655C74A59CCF365BADC27CB5D902ED22848F6340DF238A141
310
BE88E2F57B92BFEDF23523433367AE6A2EEAA455C2A902F398D2751045018D3FA264435F3771F242571B4A1919CA6F9A7C5B3CD9E42BED16F12C776AEB308F40C848FC700B1139D4891EF410CEC810227CC6846F8386402064270EF5C5C709A05E49676C024C61FC95EA45ED154CA5211D1FF4FB8291A913A68E9B83EBBB33
310
E2A7673CDE118E5AE8124C0807CB8377834E366998436B950D7A7746DAD846D4CFD978E0F04FD455FC5D49D2D4C6FE9722321F10997F0F32DC47FE05504B0304140006080800CC70623BFFEA85907E0000009D0000000B0000006662782F636E782E786D6C4DCCD10A83201886E15B91FFDC95D95A811AB6F23E625948A6C3
310
E9D8E5AF46073BFAE0E1E365ED67B3E8ADC3CB78C7815C7240DA3DFC64DCC221C519D7805AC182F7F1EF06C88D9BE6703008B6049F9E274D7A1E938DBB5AE3D6131B2589BA0D3D965551E0B2EA732C9B9A624AAEB41E3A557677029960D9AFB4EF11165F504B0304140006080800CC70623B4FEEA4082C0100001202000031
310
0000006662782F39464131463745442D413632322D343644302D413938332D3331353338454246344243312F636F72652E786D6C8D515B6EC32010BC0AE2AB55850DD871ED0813254D72825EC00192A2C460F1A872FC42ED48ED5F7E00CDCECCCEB26C731F6FE05B39AFADE921293004CA082BB5B9F43086336A21D870E6AC
310
0D7F68109861543DCC30E4ECE26C9C164858139409093556AA051CBC570102714B8F1E7AF1A5C6A11862480C7F2DA6415C878B2A4891CA89C7990F2E050073937C42DE1DB7E4F87ED8A36D4329AA9B3D46DBAEAD504556557BD81DEBDD0761E52CE42C462D17B996298E3E6BE59E35C962CE821E1FF18553435012728A7187
310
0841987E927A8D9B35ADDF70BBC6989599FE4F1427F9A4286A132ABAC49D651EF234CD5CE04CDA78BA3DC2A8FB645D00B9DF8B57E215725C60BCA2A463E54C4CE327C7A65E1C7DB02E7DEFCBF594B864C5CA6CDBD49C957943E9FA5D5FBAF336F90F504B0304140006080800CC70623BAD7543B64E01000033030000300000
310
006662782F39464131463745442D413632322D343644302D413938332D3331353338454246344243312F636E782E786D6CD593CD6EC32010845F0571AD6CE3D48AD20813A9873E410FBD12D82434182C7EAAE6EDBB2424CD25871E7B41D6EC30B3FA84F9E67BB2E40B4234DE8DB46F1925E094D7C6ED479AD3AE5951B2113C
310
789FEE6C943839C1488B4C05DF079FE72A69D8C96C13AAD6B8631503449F83828872B949AC57D26200B826A308D316B4064D6E46FCDA41C05550DC9E483A00797BFD207EFB092A45DE9514C1BBD22178396BD39D891265658C238DEA00936C654E5E433CB65A26D9F6EDB5EBC14EBF49A45CB856E66048291F6939A9A81BB5
310
C8917738143CA680F4AA299D66A042CEB3354A2684DC9D8D178FE0D9B8B41CAAD720F880EE7EF93C0C18769E099ECC04D5A102C8049A8A05632F4DDF376CF1DE0F6BB65C2F8627B65A33C6BB62177CEBBDAD973006829F89F22E814B54F4BC2BE347F8AA8F681390B50FA73F804400B5F542E796F19FF974E7F78DB802FE05
310
E207504B0304140006080800CC70623B16AB87BA640500003C100000340000006662782F39464131463745442D413632322D343644302D413938332D3331353338454246344243312F6F626A656374732E786D6CAD575B6FA33818FD2B887DE6924B3BED8A326A92B68A663B534DD4D13E548A0C38942D60649B369D5FBFC7
310
600890A493BDE42160637FD7F31D7FF63E6FB3D478A55C242CBF3247B66B1A340F5994E4F19559CA8D75611A9F7D8F33263BCB4C232719BD32D5B4E97B316765A1A722BA21652A07B3B7B33F0D11D29C9A46981221AE4C113ED38CD8A4942CA2E2C58E882476BCD9DA23BB5ED8171B73523C0F841684D35CC252CCE79062D4
310
468DFA43D7747CCF51DF7D4FFDEB5593E3AB9CCA9FBEFE241792E4E19EB28198C968BAB8199F5D5A67D3E9C49A9E8F47D6EC76B6B0469F26EEFC7C3EBFBCBEB98462213924694B38DD98FE1D62C393D073EA4FADC5DAF04326852CCF6958F90F0F2B9BB5C48816348F90C7840A68EB78EDF68723159BCEE7891A6B95DDE9D3
310
BCEAEEE8086A6C6F9E5D4B59F0175C10A7A0820BAA5055C7473B5AE3CFDD452D602CD5DF12616444529E90D448938013FE6EFA58AA96F85E4F8C42275708571E98FE6827AF6B2B4AE3D7D83D64E5A64C53054DD3AF90BD06FEA9149565C94FCA0F6B834DC85599E4F2423B24DF0B6AFA979E534DFA9E7A4CC6FA631D486393
310
921829879BF5D781A373557BCB85E97FB90DB62B558F8795179C15944B051F40AB495CF35451D26A4727654E6D8033BD98EF82F21D91FF8AF2DD9982BCF1643BDD4EB516C9492E368C67C88DED563FC36D5EACF66DFF057C3658BDBFA69DF9578B3DA735B64F18C7F20770A9D45CFCF7FCF563D6456A277DBEF78A02637CA2
310
43B90A490AEAB94F72244481D24819A6C0E59B606BFA4B3025981DBB48EAB701D97BF19C577CC77F2D1B6C55A9EF3C732474C0B727303F625995056C3B02963D9EAC146BE78EC5FCEC7FA999EBC5EACBAAE41B12D27B4D2C0BBA49F244E2ECDC81B76B502F113D8F5EE8FB1BE3111CDD4FC2AA9B844CAB1288B68AB90A7CDC
310
1C166AB0D3DC5310625FCC14E779BFD0709F8890A629C9292B1B2DED31A4B0DA928CEE135085754027E3018A397D4D5427D15BD1330B677DC8934285AC3DF45A9EB68FF8F2B8FC0A509AFEECFD0FF2DE25CC6047F7214B195F07EFEB9A094D800F7BFAE8FED187B78EA8A3A400F115961BCAD1215E47C966530AF0EE8128FE
310
58CEBB996A8964FFA529A046635D9353B0336A8F700DDF46271A024E70B0B37C9DE01847591E54DED53D54202AB947E4076556AC49C6CA5C9E1226B7F1A7B1BE15DEED62C41B91E1B3E9AFAAA735036547343A925075041DF0A9979E893B391F8FCFA6967B3EFB644DCF6E5CEBFAE272625DCC6FAF3FB93793C5F90CE1EF57
310
407342756B10D1C489E8953CD1617E5CEECAD6F4EF8914CE5D5D504E5C3F1F9736DA62CFC11E00BCDDB8CC8A9466349744C1F75EBDA4DF09BA8A9E8C7A7E9991989E20E5DBDD6A6003664ED8F7A04A8DBE0DF6EAD9B9AA858342E47399053949D2C146EDB85DE4B176BB0965FBAC19BD19AA918E27FA50C1D22402E144464C
310
59462568E704B6E71915404CB72B8FF4EDE184DDAF753F284990D2C6926782963815403548A70C657FDEF80D2D9CEAA2AE4C1C76F60BFE74219A06527D6582DF6412526107381E55E353090704D085B52408D0933C4ED159D79BDA71BB4BC506F4831350EB6F979CD22D69BF7AC49B91A2C0A9DDA3D5CA36AD20FC478E37E6
310
1844E2352865EBCB6EA275A652E3836BE04EFB400BF1A2556F515F1FBB35B2AB35BD889C744FFA1004B5544B121E57F70215746DD2F5E2C1412B602CBF19455AC6C8E5E9922C4E01E65215385004546899059180EAFCF7A707CE7017CD8CDB0410789AB32C63B91E5CEBBBACB17AC6CD347A022D5075FD106377347AAABA7E
310
7D11590744509B44E205134DC1290F06580320F78E537D3D73540E06CB970B431F185308AD40BBD794D6D77003C5A36E8EAA54BA64597CD8F83BD552A080A365F7FF06504B0304140006080000CC70623B000000000000000000000000350000006662782F39464131463745442D413632322D343644302D413938332D3331
310
353338454246344243312F76657274696365732E62696E504B0304140006080800CC70623BF270F1330600000004000000360000006662782F39464131463745442D413632322D343644302D413938332D3331353338454246344243312F747269616E676C65732E62696E636660600000504B0304140006080000CC70623B
310
000000000000000000000000370000006662782F39464131463745442D413632322D343644302D413938332D3331353338454246344243312F617474726962757465732E62696E504B0304140006080800CC70623B08DA0BD19000000041010000360000006662782F39464131463745442D413632322D343644302D413938
310
332D3331353338454246344243312F6469726563746F72792E786D6C858F410AC3201045AF22B36F53E9A60B35CBEEBAE80D244E44489C6234F4F835464A48035D0DF398FF9F8AF63D0E6CC63039F212F8F9020C7D47C6792B21C5FE7403D62A1188E2E60C98D7234A5830286103A55745067B9D86B8A3CF9C7F90C11DE607
310
FB144396D7B6A82D282E9A152AD114D5EF2CB866EEE831B8EEA07A7BB5A8D7D61A2BAAEB7FD5F70921FF497D00504B0304140006080800CC70623B0D6EF93BFE000000A00100003B0000006662782F39464131463745442D413632322D343644302D413938332D3331353338454246344243312F7265736F75726365732F63
310
6F72652E786D6C8D50596E833010BD0A9ADFCA60B334011947A8694ED00B586642AC041B79A97AFC9A40A5F6AF3F33A3B7689E1E3F7DCD8FEC139DD7D6F4C0720A191A65476DA61E62B892236427C19DB5E1970C322367EC618541F0C9D9B8EC90B226A009093576C41D94DE63804C3DD2D18357379C652E63480A7FCF17A9
310
EE72C29CE5894E3AC17D702940B63D59270887DE46A7D0F36263058F518FBB468FE9A7BE6A7420864373B8D4873369AA8691FA421B3294352543C5CAF65C0F6FEF43CB8BD52C78D0F34F46E550061C419494B6843142CB0F5677F4B52BEB177AEC28E5C52AFF638ACBF84F53D42654E51E77B379102C05791282176B5F693D
310
CB4C7BED567C03504B010214000A0000080000CC70623B3DEE336E79000000790000001B00000000000000000000000000000000006175746F6465736B2D64657369676E2D7061636B6167652E786D6C504B01021400140006080800CC70623BD486FD9CA0000000F40000001300000000000000000000000000B20000005B
310
436F6E74656E745F54797065735D2E786D6C504B01021400140006080800CC70623B1EC5D7A3EB0000007C010000080000000000000000000000000083010000636F72652E786D6C504B01021400140006080800CC70623B55019EA25F0000007C000000070000000000000000000000000094020000636E782E786D6C504B
310
01021400140006080800CC70623B8C9102E971010000D40300000C00000000000000000000000000180300006662782F636F72652E786D6C504B01021400140006080800CC70623BFFEA85907E0000009D0000000B00000000000000000000000000B30400006662782F636E782E786D6C504B01021400140006080800CC70
310
623B4FEEA4082C0100001202000031000000000000000000000000005A0500006662782F39464131463745442D413632322D343644302D413938332D3331353338454246344243312F636F72652E786D6C504B01021400140006080800CC70623BAD7543B64E010000330300003000000000000000000000000000D5060000
310
6662782F39464131463745442D413632322D343644302D413938332D3331353338454246344243312F636E782E786D6C504B01021400140006080800CC70623B16AB87BA640500003C1000003400000000000000000000000000710800006662782F39464131463745442D413632322D343644302D413938332D3331353338
310
454246344243312F6F626A656374732E786D6C504B01021400140006080000CC70623B0000000000000000000000003500000000000000000000000000270E00006662782F39464131463745442D413632322D343644302D413938332D3331353338454246344243312F76657274696365732E62696E504B01021400140006
310
080800CC70623BF270F133060000000400000036000000000000000000000000007A0E00006662782F39464131463745442D413632322D343644302D413938332D3331353338454246344243312F747269616E676C65732E62696E504B01021400140006080000CC70623B0000000000000000000000003700000000000000
310
000000000000D40E00006662782F39464131463745442D413632322D343644302D413938332D3331353338454246344243312F617474726962757465732E62696E504B01021400140006080800CC70623B08DA0BD190000000410100003600000000000000000000000000290F00006662782F39464131463745442D413632
310
322D343644302D413938332D3331353338454246344243312F6469726563746F72792E786D6C504B01021400140006080800CC70623B0D6EF93BFE000000A00100003B000000000000000000000000000D1000006662782F39464131463745442D413632322D343644302D413938332D3331353338454246344243312F7265
310
736F75726365732F636F72652E786D6C504B0506000000000E000E0080040000641100000000
  0
XRECORD
  5
175
102
{ACAD_REACTORS
330
173
102
}
330
173
100
AcDbXrecord
280
     1
270
     1
271
     1
  0
XRECORD
  5
174
102
{ACAD_REACTORS
330
173
102
}
330
173
100
AcDbXrecord
280
     1
270
     1
271
     1
  0
XRECORD
  5
1FB
102
{ACAD_REACTORS
330
173
102
}
330
173
100
AcDbXrecord
280
     1
 70
     0
 90
1673772943
  1
ECE7A1D2-D628-4531-984C-D00F80459256
310
504B03040A0000080000CC70623B3DEE336E79000000790000001B0000006175746F6465736B2D64657369676E2D7061636B6167652E786D6C3C3F786D6C2076657273696F6E3D22312E302220656E636F64696E673D227574662D3822203F3E3C666F726D6174733E3C666F726D61743E687474703A2F2F736368656D612E
310
6175746F6465736B2E636F6D2F64657369676E2D7061636B6167652F323030393C2F666F726D61743E3C2F666F726D6174733E504B0304140006080800CC70623BD486FD9CA0000000F4000000130000005B436F6E74656E745F54797065735D2E786D6C7D8EC10E82300C865F65E91D8A1E8C310C0EEA1BF002731658846E
310
D98AC1B77784ABF1D8FE5FBFBF75BBCE937A534CCEB38643598122B6FEE978D0B0485F9C41B54DDD7D022595594E1A469170414C76A4D9A4D207E29CF43ECE46F218070CC6BECC4078ACAA135ACF422C856C0E68EA1BF5669944DDD7BCDE7B1F8E415D77AECB980613C2E4AC91FC167A2B244592486606FC29C8FD7F045B9A
310
EF7053A7E60B504B0304140006080800CC70623BD9DDAED0EC0000007C01000008000000636F72652E786D6C8D90416EC3201045AF82665B61836D9CD8C2444DD39CA01740405C94182C03558F5F9C3852BBEB6A467FFE9B197D7EF89E6EE8CB2CC17A37002D0820E394D7D68D03A478C17B4007C117EFE32F1B20272733C0
310
2A83E0E3E2D3BC49CABB685CCCAAF3DA6CA20CC14440EA969B0182FA34932C648AD911AEC52CD5558EA6A0CF2EC329598D1E47ACCEFBECC59A050463A7EA5833865FEBDD0E37353BE3EE8DBDE3F6786A48D375FBF6CC78B9C282473B3DEFABC5C86834888A900E538A49F5419B9EB47DD5BC907D4F082F57FB1F28CDFA9F50
310
B22ED6D5F6EE030B20687EE43E10BC5CB3C8E51E54AE6B6EE207504B0304140006080800CC70623B55019EA25F0000007C00000007000000636E782E786D6C4DCB3B0E80201045D1AD90E915ED2CF8AC45050C11660C8261F98AB1B07AC9C97D42D718D865D3E909258CFD00CCE24AC6E326A164D74DC0B4128928FF326038
310
472BA13128B1252AC747C6BAB984FC68F0B87FE8960A5C09FE86CFB69FBA01504B0304140006080800CC70623BA24EB22D72010000D40300000C0000006662782F636F72652E786D6CC5535B6E833010BC8AE5DF0A6C5E49888CA3A6694ED00B38E05014B091B1518EDFE511A5A9D228FD2A1F60CDEC7A67C6986DCE4D8D7A
310
69BA4AAB0C073EC548AA5C17952A33ECECD15B61B4E1CC686DBF9561A44423333CC098B3D268D7CE50AE9595CA02AA74216750749DB418E5352C32DCE59FB211BE70162ABA93DF8AFC244AE9073ED050C759670D0840D390E18DF9F1706664C23973AE2A66B62A605A75ACA4C13C4976E1364A12EF355A2EBD384AF65EFA96
310
BC7B8BED2EA6719AAE16FB8491A199335B351775B991C2CA02F390D2D40B028F861F41BCA68B7518BFD0D59A524686F29B26D7164F36B94AD9289CE54E6D1DE6010819891F6E21228B3AD1831EC219194284CF98F06DD01008846CC5A1BEF83801D4CBDC6A1303536877A57A513B0953A94FC707FDBE6064EA84A9E3E6E0FA
310
EE8CF0E9198F7784A316AA0413C2C2F2E0ECA0934D1AE6D05A69BCDE9E91D2A611F573361E38FC1375157F5752AE6B6DFE4B11990F88CCBF0719EE23FF02504B0304140006080800CC70623B408A7D3B7C0000009D0000000B0000006662782F636E782E786D6C4DCCD10A83201886E15B91FFDC552A92A0064DBC8F581632
310
D3703A76F9ABD1C18E3E78F878E5F0D9027ABBFCF2292AE86E2D20171F69F6715550CB827B40839639A5F2770314A7CD293819B45C73AAFB45B35BA61ACAA1C1C7E7855C58C15BC331339661262CC762340413D68D77DA5B42298546CBE6573AF60CEB2F504B0304140006080800CC70623B449FB9BD290100001202000031
310
0000006662782F36394639363044362D344446342D343946362D394244322D3234314243333846323333332F636F72652E786D6C8D515B6EC32010BC0AE22B55850D98B871848994463E412FE002495162B07854397EA176A4F62F3F2C9A9D991D587EB84F37F0AD7D30CEF6905418026DA553C65E7A98E219ED203808EE9D
310
8B7F6810D871D23D2C3014FCE25D9A57483A1BB58D19B54EE9151C43D0110279CB971E06F9A5A7B11A53CC8C70ADE6515EC78BAE4895DB992778883E0700CB907242D17643D7E2538BD869608875438BBAE38922CAC8F1BDD90DB4691A5E2F42C153326A951B95E398B3D1FE599322163C9AE9115F7A3D46ADA0A018778810
310
84E907617BDCEE297BC5BB3DC6BC2EF47FA234AB2745C9D8D8D035EE220B50105E2F0DC1954B9FB747187D9F9D8FA0CCDB042D5FA0C015C65B42DF78BD10F3F3B363CB56C7109DCFDFBBB97E662ED92EB62D13BC2E1BCAE5777DB9966D8A1F504B0304140006080800CC70623BAD7543B64E01000033030000300000006662
310
782F36394639363044362D344446342D343946362D394244322D3234314243333846323333332F636E782E786D6CD593CD6EC32010845F0571AD6CE3D48AD20813A9873E410FBD12D82434182C7EAAE6EDBB2424CD25871E7B41D6EC30B3FA84F9E67BB2E40B4234DE8DB46F1925E094D7C6ED479AD3AE5951B2113C789FEE
310
6C943839C1488B4C05DF079FE72A69D8C96C13AAD6B8631503449F83828872B949AC57D26200B826A308D316B4064D6E46FCDA41C05550DC9E483A00797BFD207EFB092A45DE9514C1BBD22178396BD39D891265658C238DEA00936C654E5E433CB65A26D9F6EDB5EBC14EBF49A45CB856E66048291F6939A9A81BB5C89177
310
38143CA680F4AA299D66A042CEB3354A2684DC9D8D178FE0D9B8B41CAAD720F880EE7EF93C0C18769E099ECC04D5A102C8049A8A05632F4DDF376CF1DE0F6BB65C2F8627B65A33C6BB62177CEBBDAD973006829F89F22E814B54F4BC2BE347F8AA8F681390B50FA73F804400B5F542E796F19FF974E7F78DB802FE05E20750
310
4B0304140006080800CC70623B8D05915C650500003B100000340000006662782F36394639363044362D344446342D343946362D394244322D3234314243333846323333332F6F626A656374732E786D6CAD575B6FA33814FE2B887D06429276DA1565D4266D158D3A339A6846FB502932E050B66023DB74D2FDF5FB190C01
310
9276B2973C046C8ECFF53B17071F77456EBD502133CEAE6CDF9DD81665314F32965ED995DA3A17B6F5310C04E7AA47665B8C14F4CAD6DB7618A48257A5D94AE89654B91AEDDEDDFC61C998326A5B714EA4BCB265FC440BE2924AF184CA6737218AB8E976E7FA6E4338649B0A523E8D98964450A6A029F619B8588D52FE7039
310
B1BD30F0F4F730D0FF866AF6369557DB33949F31A9088B0F848DD8CCFCF9F2767A76E99CCDE733677E3EF59D9BBB9BA5E37F984D16E78BC5E5F5ED25044B25C0C96822E8D60EEFE11B91C581D77CEA34368A1F5329E68CD1B8B61F16D63A1B8E092D294B10C78C4A48EB593D192E7DED9BDEE7995E1B91FDEDD3ACEA9FE831
310
6A756F9F7D4D79F4274C90A7A04248AA51D5F8C718DAE06FB2F75AC4796EBE65D22A88A22223B995679120E2D50E41AA49C260C046A35368846B0BECD0DFF3EBEB8AD4F835768F69B9ADF25C43D30E6B646F807FAA64AD59F61715C7A54127C4AACA98BA3006A9D792DAE165E0D59B61A01FB3A9F9D838D2DAE62445C86166
310
F37564E842E7DE6A69879FEEA2DD5AE7E371E1A5E025154AC307D06A03D73EB5978C58FFA4C8E9033066E0F3BD53BEC1F39F91BE7B55103791EDE6BBB991A2046172CB4581D8B893FA674DDA17A77B3B7C413D1B511FD2743BFF8A38F03A658705E3ADF8015C3A3417FF3D7E439FF591DA0B5F18BC20C1B8981957AE6392A3
310
F43C640C01D1A0B4728E2DD4F26DB4B3C3152A252A3B4E913CEC1C72F012782FF88EFF8637AA552DBEF76408E8A8DE9E50F9E1CB3A2DA0DB1B6039A893B56063DC5B3E3FFB5F72E67AB9FEB4AEC496C4F4C1149625DD662C53E89D7BF0F6151A046260D1337DFDC94502430F83B0EE07A130A224BCAD7DAE1D9FB6CD422FF6
310
920702629C4BB9AE79C12F243C6432A6794E18E5552BA56B431AAB5D91317302B2B071E86C3A42B1A02F999E24061403B5D0EB639195DA655DD3EBEAB4FB862DDF579F014AD0E73C22F99E28DA57FB98E75C6CA2D74D53086D600F4786E0FE3144B771A8A7B900F03594DB8A633CBC49B2EDB69228BB479CF863B5E807AAAB
310
23872F6DFEB4129B949CA33823F58830E86D65621E10047D9DB34D862E8EAC3C2ABC2F7B2C40D67CDFE01F5545B92105AF983AC54D93D69E56FB8E797F88913F898A9FEC705D3F9D1B54EC8426FB500D40A03BD0119B06E1B95DDC7EB8F6975367793EBD70E66733DFB9BC982F9CE564727731999F5D4ECFCE3B8D6A4DC2A0
310
6D50FD148437D110834A64C6CDDF57FBACB5C307A2A477DFE4939736CFEF2B175371E0E10CF0DD1D5C15654E0BCA14D1E87DD02FF93782A162C0A3D95F1524A52770F972BF1EE9809D13CE7DD599467F8ECE9ADD85CE85A34CD45355448C64F9E8A031DC2D596ACC6E5DD93D9B82DE2EF5CAF81363A8E47996A0DE24564A79
310
4115AACE09C55E14540231FDA13C319787134EBF34E3A022514E5B4D9E0826E25C02D5805B15ABE1BEF51B26383D445DD9E875EE33FE4C22DA16427D65A3BCA92CA6D28DD01DF5DC53330704308475351050232CCD31583787BA75774AFB06E5070DD0C8EF484E19968C5D83BA5B90B244D31E54D55A372320FE4786B7EA58
310
44E135AA5467CB7EA333A61683CC6A8C3257034C10CF46F40EF9F5BE59BE5BD30C3C72D235E95D10345C1D45445A5F0BB47E46A5EBE5570F9380B5FA629579952296A773720405982B9DE04011506178964401AA8BDF1FBF0A8EAB6861DD6580C0E38217056766716DAEB2D6FA0917D3E4116581EADB879C4E7CFFB11EFACD
310
3D641311495D92C8676CB409A72D18610D803CE8A626049E8EC1887CB5B44CC39883690DDA8399B4B9855B481E7D71D4A9D22F96E5BB73BF5793020C02137BF837504B0304140006080000CC70623B000000000000000000000000350000006662782F36394639363044362D344446342D343946362D394244322D32343142
310
43333846323333332F76657274696365732E62696E504B0304140006080800CC70623BF270F1330600000004000000360000006662782F36394639363044362D344446342D343946362D394244322D3234314243333846323333332F747269616E676C65732E62696E636660600000504B0304140006080000CC70623B0000
310
00000000000000000000370000006662782F36394639363044362D344446342D343946362D394244322D3234314243333846323333332F617474726962757465732E62696E504B0304140006080800CC70623B08DA0BD19000000041010000360000006662782F36394639363044362D344446342D343946362D394244322D
310
3234314243333846323333332F6469726563746F72792E786D6C858F410AC3201045AF22B36F53E9A60B35CBEEBAE80D244E44489C6234F4F835464A48035D0DF398FF9F8AF63D0E6CC63039F212F8F9020C7D47C6792B21C5FE7403D62A1188E2E60C98D7234A5830286103A55745067B9D86B8A3CF9C7F90C11DE607FB14
310
4396D7B6A82D282E9A152AD114D5EF2CB866EEE831B8EEA07A7BB5A8D7D61A2BAAEB7FD5F70921FF497D00504B0304140006080800CC70623BCA768048FE000000A00100003B0000006662782F36394639363044362D344446342D343946362D394244322D3234314243333846323333332F7265736F75726365732F636F72
310
652E786D6C8D50596E833010BD0A9ADFCA60D600328E9AA639412F609909B1126CE4A5EAF16B0295DABFFECC8CDEA2797AECF8353F924FB44E193D409E5248504B332A3D0D10FC95B4901C39B3C6F85F3248B49871801506CE266BC2B243D2688FDA47549B11775038871E12F988C7004EDE7016A9083E2ADC3D5D84BC8B09
310
D33C8D74D471E6BC8D0192EDC93A815B742658898E651BCB59086ADC356A8C3FD555A1055ED7E7E254D615792D0F075295F585746FF53B694EE78A565DD736979A65AB9933AFE69F8CD2A2F038022F28ED489E135A7CE4554F9BBEA85E68DB53CAB255FEC71496F19FA6A0B42F8B3DEE6673C0F318E4497096AD7DC5F52C33
310
EEB55BFE0D504B010214000A0000080000CC70623B3DEE336E79000000790000001B00000000000000000000000000000000006175746F6465736B2D64657369676E2D7061636B6167652E786D6C504B01021400140006080800CC70623BD486FD9CA0000000F40000001300000000000000000000000000B20000005B436F
310
6E74656E745F54797065735D2E786D6C504B01021400140006080800CC70623BD9DDAED0EC0000007C010000080000000000000000000000000083010000636F72652E786D6C504B01021400140006080800CC70623B55019EA25F0000007C000000070000000000000000000000000095020000636E782E786D6C504B0102
310
1400140006080800CC70623BA24EB22D72010000D40300000C00000000000000000000000000190300006662782F636F72652E786D6C504B01021400140006080800CC70623B408A7D3B7C0000009D0000000B00000000000000000000000000B50400006662782F636E782E786D6C504B01021400140006080800CC70623B
310
449FB9BD290100001202000031000000000000000000000000005A0500006662782F36394639363044362D344446342D343946362D394244322D3234314243333846323333332F636F72652E786D6C504B01021400140006080800CC70623BAD7543B64E010000330300003000000000000000000000000000D20600006662
310
782F36394639363044362D344446342D343946362D394244322D3234314243333846323333332F636E782E786D6C504B01021400140006080800CC70623B8D05915C650500003B10000034000000000000000000000000006E0800006662782F36394639363044362D344446342D343946362D394244322D32343142433338
310
46323333332F6F626A656374732E786D6C504B01021400140006080000CC70623B0000000000000000000000003500000000000000000000000000250E00006662782F36394639363044362D344446342D343946362D394244322D3234314243333846323333332F76657274696365732E62696E504B010214001400060808
310
00CC70623BF270F13306000000040000003600000000000000000000000000780E00006662782F36394639363044362D344446342D343946362D394244322D3234314243333846323333332F747269616E676C65732E62696E504B01021400140006080000CC70623B00000000000000000000000037000000000000000000
310
00000000D20E00006662782F36394639363044362D344446342D343946362D394244322D3234314243333846323333332F617474726962757465732E62696E504B01021400140006080800CC70623B08DA0BD190000000410100003600000000000000000000000000270F00006662782F36394639363044362D344446342D
310
343946362D394244322D3234314243333846323333332F6469726563746F72792E786D6C504B01021400140006080800CC70623BCA768048FE000000A00100003B000000000000000000000000000B1000006662782F36394639363044362D344446342D343946362D394244322D3234314243333846323333332F7265736F
310
75726365732F636F72652E786D6C504B0506000000000E000E0080040000621100000000
  0
XRECORD
  5
176
102
{ACAD_REACTORS
330
173
102
}
330
173
100
AcDbXrecord
280
     1
270
     1
271
     1
  0
XRECORD
  5
177
102
{ACAD_REACTORS
330
173
102
}
330
173
100
AcDbXrecord
280
     1
270
     1
271
     1
  0
CELLSTYLEMAP
  5
352BA
102
{ACAD_REACTORS
330
162
102
}
330
162
100
AcDbCellStyleMap
 90
        3
300
CELLSTYLE
  1
TABLEFORMAT_BEGIN
 90
        5
170
     1
 91
        0
 92
    32768
 62
   257
 93
        1
300
CONTENTFORMAT
  1
CONTENTFORMAT_BEGIN
 90
        0
 91
        0
 92
      512
 93
        0
300

 40
0.0
140
1.0
 94
        5
 62
     0
340
11
144
6.0
309
CONTENTFORMAT_END
171
     1
301
MARGIN
  1
CELLMARGIN_BEGIN
 40
1.5
 40
1.5
 40
1.5
 40
1.5
 40
4.5
 40
4.5
309
CELLMARGIN_END
 94
        6
 95
        1
302
GRIDFORMAT
  1
GRIDFORMAT_BEGIN
 90
        0
 91
        1
 62
     0
 92
       -2
340
14
 93
        0
 40
1.125
309
GRIDFORMAT_END
 95
        2
302
GRIDFORMAT
  1
GRIDFORMAT_BEGIN
 90
        0
 91
        1
 62
     0
 92
       -2
340
14
 93
        0
 40
1.125
309
GRIDFORMAT_END
 95
        4
302
GRIDFORMAT
  1
GRIDFORMAT_BEGIN
 90
        0
 91
        1
 62
     0
 92
       -2
340
14
 93
        0
 40
1.125
309
GRIDFORMAT_END
 95
        8
302
GRIDFORMAT
  1
GRIDFORMAT_BEGIN
 90
        0
 91
        1
 62
     0
 92
       -2
340
14
 93
        0
 40
1.125
309
GRIDFORMAT_END
 95
       16
302
GRIDFORMAT
  1
GRIDFORMAT_BEGIN
 90
        0
 91
        1
 62
     0
 92
       -2
340
14
 93
        0
 40
1.125
309
GRIDFORMAT_END
 95
       32
302
GRIDFORMAT
  1
GRIDFORMAT_BEGIN
 90
        0
 91
        1
 62
     0
 92
       -2
340
14
 93
        0
 40
1.125
309
GRIDFORMAT_END
309
TABLEFORMAT_END
  1
CELLSTYLE_BEGIN
 90
        1
 91
        1
300
_TITLE
309
CELLSTYLE_END
300
CELLSTYLE
  1
TABLEFORMAT_BEGIN
 90
        5
170
     1
 91
        0
 92
        0
 62
   257
 93
        1
300
CONTENTFORMAT
  1
CONTENTFORMAT_BEGIN
 90
        0
 91
        0
 92
      512
 93
        0
300

 40
0.0
140
1.0
 94
        5
 62
     0
340
11
144
4.5
309
CONTENTFORMAT_END
171
     1
301
MARGIN
  1
CELLMARGIN_BEGIN
 40
1.5
 40
1.5
 40
1.5
 40
1.5
 40
4.5
 40
4.5
309
CELLMARGIN_END
 94
        6
 95
        1
302
GRIDFORMAT
  1
GRIDFORMAT_BEGIN
 90
        0
 91
        1
 62
     0
 92
       -2
340
14
 93
        0
 40
1.125
309
GRIDFORMAT_END
 95
        2
302
GRIDFORMAT
  1
GRIDFORMAT_BEGIN
 90
        0
 91
        1
 62
     0
 92
       -2
340
14
 93
        0
 40
1.125
309
GRIDFORMAT_END
 95
        4
302
GRIDFORMAT
  1
GRIDFORMAT_BEGIN
 90
        0
 91
        1
 62
     0
 92
       -2
340
14
 93
        0
 40
1.125
309
GRIDFORMAT_END
 95
        8
302
GRIDFORMAT
  1
GRIDFORMAT_BEGIN
 90
        0
 91
        1
 62
     0
 92
       -2
340
14
 93
        0
 40
1.125
309
GRIDFORMAT_END
 95
       16
302
GRIDFORMAT
  1
GRIDFORMAT_BEGIN
 90
        0
 91
        1
 62
     0
 92
       -2
340
14
 93
        0
 40
1.125
309
GRIDFORMAT_END
 95
       32
302
GRIDFORMAT
  1
GRIDFORMAT_BEGIN
 90
        0
 91
        1
 62
     0
 92
       -2
340
14
 93
        0
 40
1.125
309
GRIDFORMAT_END
309
TABLEFORMAT_END
  1
CELLSTYLE_BEGIN
 90
        2
 91
        1
300
_HEADER
309
CELLSTYLE_END
300
CELLSTYLE
  1
TABLEFORMAT_BEGIN
 90
        5
170
     1
 91
        0
 92
        0
 62
   257
 93
        1
300
CONTENTFORMAT
  1
CONTENTFORMAT_BEGIN
 90
        0
 91
        0
 92
      512
 93
        0
300

 40
0.0
140
1.0
 94
        2
 62
     0
340
11
144
4.5
309
CONTENTFORMAT_END
171
     1
301
MARGIN
  1
CELLMARGIN_BEGIN
 40
1.5
 40
1.5
 40
1.5
 40
1.5
 40
4.5
 40
4.5
309
CELLMARGIN_END
 94
        6
 95
        1
302
GRIDFORMAT
  1
GRIDFORMAT_BEGIN
 90
        0
 91
        1
 62
     0
 92
       -2
340
14
 93
        0
 40
1.125
309
GRIDFORMAT_END
 95
        2
302
GRIDFORMAT
  1
GRIDFORMAT_BEGIN
 90
        0
 91
        1
 62
     0
 92
       -2
340
14
 93
        0
 40
1.125
309
GRIDFORMAT_END
 95
        4
302
GRIDFORMAT
  1
GRIDFORMAT_BEGIN
 90
        0
 91
        1
 62
     0
 92
       -2
340
14
 93
        0
 40
1.125
309
GRIDFORMAT_END
 95
        8
302
GRIDFORMAT
  1
GRIDFORMAT_BEGIN
 90
        0
 91
        1
 62
     0
 92
       -2
340
14
 93
        0
 40
1.125
309
GRIDFORMAT_END
 95
       16
302
GRIDFORMAT
  1
GRIDFORMAT_BEGIN
 90
        0
 91
        1
 62
     0
 92
       -2
340
14
 93
        0
 40
1.125
309
GRIDFORMAT_END
 95
       32
302
GRIDFORMAT
  1
GRIDFORMAT_BEGIN
 90
        0
 91
        1
 62
     0
 92
       -2
340
14
 93
        0
 40
1.125
309
GRIDFORMAT_END
309
TABLEFORMAT_END
  1
CELLSTYLE_BEGIN
 90
        3
 91
        2
300
_DATA
309
CELLSTYLE_END
  0
ENDSEC
  0
SECTION
  2
ACDSDATA
 70
     2
 71
     8
  0
ACDSSCHEMA
 90
        0
  1
AcDb_Thumbnail_Schema
  2
AcDbDs::ID
280
    10
 91
        8
  2
Thumbnail_Data
280
    15
 91
        0
101
ACDSRECORD
 95
        0
 90
        1
  2
AcDbDs::TreatedAsObjectData
280
     1
291
     1
101
ACDSRECORD
 95
        0
 90
        2
  2
AcDbDs::Legacy
280
     1
291
     1
101
ACDSRECORD
  1
AcDbDs::ID
 90
        3
  2
AcDs:Indexable
280
     1
291
     1
101
ACDSRECORD
  1
AcDbDs::ID
 90
        4
  2
AcDbDs::HandleAttribute
280
     7
282
     1
  0
ACDSSCHEMA
 90
        1
  1
AcDbDs::TreatedAsObjectDataSchema
  2
AcDbDs::TreatedAsObjectData
280
     1
 91
        0
  0
ACDSSCHEMA
 90
        2
  1
AcDbDs::LegacySchema
  2
AcDbDs::Legacy
280
     1
 91
        0
  0
ACDSSCHEMA
 90
        3
  1
AcDbDs::IndexedPropertySchema
  2
AcDs:Indexable
280
     1
 91
        0
  0
ACDSSCHEMA
 90
        4
  1
AcDbDs::HandleAttributeSchema
  2
AcDbDs::HandleAttribute
280
     7
 91
        1
284
     1
  0
ACDSSCHEMA
 90
        5
  1
AcDb3DSolid_ASM_Data
  2
AcDbDs::ID
280
    10
 91
        8
  2
ASM_Data
280
    15
 91
        0
101
ACDSRECORD
 95
        5
 90
        1
  2
AcDbDs::TreatedAsObjectData
280
     1
291
     1
101
ACDSRECORD
 95
        5
 90
        2
  2
AcDbDs::Legacy
280
     1
291
     1
101
ACDSRECORD
  1
AcDbDs::ID
 90
        3
  2
AcDs:Indexable
280
     1
291
     1
101
ACDSRECORD
  1
AcDbDs::ID
 90
        4
  2
AcDbDs::HandleAttribute
280
     7
282
     1
  0
ACDSRECORD
 90
        0
  2
AcDbDs::ID
280
    10
320
D3
  2
Thumbnail_Data
280
    15
 94
     1675
310
89504E470D0A1A0A0000000D4948445200000100000000B5080300000087DCD12600000300504C5445FFFFFFFFFFFFFFFFFF0000000000000000000000000000000000000000000000000000330000660000990000CC0000FF0033000033330033660033990033CC0033FF0066000066330066660066990066CC0066FF0099
310
000099330099660099990099CC0099FF00CC0000CC3300CC6600CC9900CCCC00CCFF00FF0000FF3300FF6600FF9900FFCC00FFFF3300003300333300663300993300CC3300FF3333003333333333663333993333CC3333FF3366003366333366663366993366CC3366FF3399003399333399663399993399CC3399FF33CC00
310
33CC3333CC6633CC9933CCCC33CCFF33FF0033FF3333FF6633FF9933FFCC33FFFF6600006600336600666600996600CC6600FF6633006633336633666633996633CC6633FF6666006666336666666666996666CC6666FF6699006699336699666699996699CC6699FF66CC0066CC3366CC6666CC9966CCCC66CCFF66FF0066
310
FF3366FF6666FF9966FFCC66FFFF9900009900339900669900999900CC9900FF9933009933339933669933999933CC9933FF9966009966339966669966999966CC9966FF9999009999339999669999999999CC9999FF99CC0099CC3399CC6699CC9999CCCC99CCFF99FF0099FF3399FF6699FF9999FFCC99FFFFCC0000CC00
310
33CC0066CC0099CC00CCCC00FFCC3300CC3333CC3366CC3399CC33CCCC33FFCC6600CC6633CC6666CC6699CC66CCCC66FFCC9900CC9933CC9966CC9999CC99CCCC99FFCCCC00CCCC33CCCC66CCCC99CCCCCCCCCCFFCCFF00CCFF33CCFF66CCFF99CCFFCCCCFFFFFF0000FF0033FF0066FF0099FF00CCFF00FFFF3300FF3333
310
FF3366FF3399FF33CCFF33FFFF6600FF6633FF6666FF6699FF66CCFF66FFFF9900FF9933FF9966FF9999FF99CCFF99FFFFCC00FFCC33FFCC66FFCC99FFCCCCFFCCFFFFFF00FFFF33FFFF66FFFF99FFFFCCFFFFFF0000000D0D0D1A1A1A2828283535354343435050505D5D5D6B6B6B787878868686939393A1A1A1AEAEAEBB
310
BBBBC9C9C9D6D6D6E4E4E4F1F1F1FFFFFF000000000000000000000000000000000000000000000000000000000000AD4AB4E40000033F4944415478DAED9CDB72AB300C00F5FF9FA9E7F3D23F386D32F8221B708BE518BCCC34439286C062AD642544FE2DBE080064E10500000000004A00FABD3CF476F511D00640570F01
310
0010028B0310001002481000840012040021800401609A04775ABA8780DE3CDA2F4B1000EB007870080800902000902000902000902000902000902000902000902000902000902000902000902000902000902000902000902000902000902000C8024810008400122CB7A82AAA6B03D8FD1AFE1A2170ABE3F790E04F08C8
310
DA009AAE4A797808CC4820DF99DFEDDBDD01680CCC6D6FF27B9DD3E07BC3DB8ACE72F2DB01742984668AFD1A80EB97CDEDBDD7CFCBC328786F2D3E16FF343C9752F3192FAFDA2C3FE40E23A0390B345DBFE86A8CCD014995EA1702B30208EFE12DC1D308B16F9CEC9C38A58C08A0CD01BD01E4D4EDDDED6478573CD601EA18
310
021270EBAC9383F72E8D91A0CC09C02D0DDE0380EF5C404C253CEF7CC84D827A9336D9A02CF0C938F77380EE579DAF2413A25F35AD82C79D5BCD129DE607ADB11EEF2C4129E6C2E166980CD3AA578B07BC0164ACB779F1D8D68039D5B57990E78FA8A829BCC2EFB50ECB86B61D5303703402E4BA03543706F96C7758FC4B36
310
02249D0FFB03B0D13E3C0B1400C2C90855897F087C320BEE86406C0E463DF5CF02DE7DAD739DAA98FE828656551C017E59E0E8A974742469325F93644DCBE36ECB276AFBE036395C1E01279F0D26FEDF2A015B11D4006CFA887B1A57420EFFFA6AB1D761E6756C8818E59AA697EC77C35A478074AC280602386F07CAC14379
310
3DD98F804B08C4CE5FDEF352538D1A09649AD0D7304F271315261F0670BEC5789C520C61D9FDBC2605607FFCFF17129C0040D280AD8C926ADB3409A46F00F11F5300B38740E5A8544E01C83980E4D5EFD1719F86C89F6AD90A00CD9F7B3480838FD8070098E16B72FB497F1A00E20AA0ADDBB12480015D61BE290A80C50170
310
BD0012040012040012040012040012040012040012040012040012040012040012040012040012040012040012040012040012040012040012240B204100100248B07CEDCD96EE001EB15C0981672E00580C8002000902000902000902000902000902E00080F9859767DDAEED0001000000008002C0E2CBF200FE037899C1
310
77CC5D0C0F0000000049454E44AE426082608244AE426082
  0
ACDSRECORD
 90
        0
  2
AcDbDs::ID
280
    10
320
22
  2
Thumbnail_Data
280
    15
 94
     1874
310
89504E470D0A1A0A0000000D4948445200000100000000970803000000CDB8751B00000300504C5445212830FFFFFF2128300000000000000000000000000000000000000000000000000000330000660000990000CC0000FF0033000033330033660033990033CC0033FF0066000066330066660066990066CC0066FF0099
310
000099330099660099990099CC0099FF00CC0000CC3300CC6600CC9900CCCC00CCFF00FF0000FF3300FF6600FF9900FFCC00FFFF3300003300333300663300993300CC3300FF3333003333333333663333993333CC3333FF3366003366333366663366993366CC3366FF3399003399333399663399993399CC3399FF33CC00
310
33CC3333CC6633CC9933CCCC33CCFF33FF0033FF3333FF6633FF9933FFCC33FFFF6600006600336600666600996600CC6600FF6633006633336633666633996633CC6633FF6666006666336666666666996666CC6666FF6699006699336699666699996699CC6699FF66CC0066CC3366CC6666CC9966CCCC66CCFF66FF0066
310
FF3366FF6666FF9966FFCC66FFFF9900009900339900669900999900CC9900FF9933009933339933669933999933CC9933FF9966009966339966669966999966CC9966FF9999009999339999669999999999CC9999FF99CC0099CC3399CC6699CC9999CCCC99CCFF99FF0099FF3399FF6699FF9999FFCC99FFFFCC0000CC00
310
33CC0066CC0099CC00CCCC00FFCC3300CC3333CC3366CC3399CC33CCCC33FFCC6600CC6633CC6666CC6699CC66CCCC66FFCC9900CC9933CC9966CC9999CC99CCCC99FFCCCC00CCCC33CCCC66CCCC99CCCCCCCCCCFFCCFF00CCFF33CCFF66CCFF99CCFFCCCCFFFFFF0000FF0033FF0066FF0099FF00CCFF00FFFF3300FF3333
310
FF3366FF3399FF33CCFF33FFFF6600FF6633FF6666FF6699FF66CCFF66FFFF9900FF9933FF9966FF9999FF99CCFF99FFFFCC00FFCC33FFCC66FFCC99FFCCCCFFCCFFFFFF00FFFF33FFFF66FFFF99FFFFCCFFFFFF0000000D0D0D1A1A1A2828283535354343435050505D5D5D6B6B6B787878868686939393A1A1A1AEAEAEBB
310
BBBBC9C9C9D6D6D6E4E4E4F1F1F1FFFFFF0000000000000000000000000000000000000000000000000000000000002E4550F10000015E4944415478DAEDD9DB4EC330100540FFFFDFF661DF29B96E9CA44508A4263B83C06054814FEC8D9DB6060000000000000000000000000000F715CF8FD2E3FF6606507C09FC86006E
310
94C09B54DABD03D80F5E0D281D401340C56D41D1619F85516F27D4D2F21F4A40540AE2A00414AB85914218B601D5EE863980483FD65B0205D7FF5A046BDE00FE7EEF3FAF9DBEBDD62E60FA9C9BB528A44AF9B3F612D5246F01964B1607BD7D00F38B37ED34A3E2F19802F8FC85150727C2F6EA41C01AC4FE147936033EF9C9
310
CA7891C701B5F14BDB0EB79B01EDDDD4DF2534FE91E7A4481527A6AECF5920F39D60BB76D7193EF72FFFFDD00C4388B47D3CA901570B60DFDB62FFDB6954735FBF04D20CB850005DCDEA7AA33F4577012C831B8796A6C64100D7DF70AE4B60C92AD6FEE52D97936A7AC393E436981C40BA53E6EFEE7EBCD89E2BA3D033977D
310
11A4EA11CBF50700000000000000000000000000807FF005B0A190B8D9977B340000000049454E44AE4260829C00A15D6F670EB78021256E762ACEB1251AB8A89ADC6082C8F3F19AE09AC4CCCC63BE2F40B086500905A71D0F9AE0EDF364B3D5755B21A64E63C0C9020CE5919AFFE26DD75BDDD8DE71482A69F8D817408F8F
310
011301E635C33B07A7023863EB7B0949725F80CF4E28F4B8FBCC0430B1A55BB3B7BBBD2C70A516BB25B924540C028877BCBCBA505B335D65D0E877206F0A50A4F332358D2641566FDF9C4FB3C09D36382E47094E6F870100000000000000000000000000000000002EC00FA354142E8825828D0000000049454E44AE426082
310
EEEA80606A56EF04AF53E0E418B0B3E0D44BAEFA1BF4AF738026626F0E681E56DF2E06B432AE4C80B2AA2F73802780B802C8F5027488018900E514B84C80B3778251010672809F0B489E48877281DB3960CB062B07E89A281FC806EFE700717E2C14FDB980DCDD01CDFE9DBB831DD401DB895FD1B1F2EF74D445F4B0D78674
310
8039C6EF15B9AB03BA2FB9236D852F5870C6DA0AF79E66B603AE3E1AEEAC40E500955FF93330039E08996D7BBF4860C5FDFB7A1A8933A30A601D237E24D00200000000000000000000000000000000000000C017F20F9864B448AE790F7A0000000049454E44AE4260824E44AE4260829298DBEF11C0D60890674712400248
310
0009200124800490001240024800092001248004900012400248000920013E5400FFF67B01FBFA9B21D3DDA06E871B6BC204B832B8DBECF4E719983030DF2152FE2EFCDF0C3337BAAD47E6037B846C5F8FD0F95DE12E31F77A97984D7489ED6D14F4EABA10018EFF8AE0A06FC1FDFF4603784B1E41BB5374827377A7682592
310
A316D019EDD5B1739CF766C41EDFB16D9CDBC440BCE6D39C77C7C5EE4B8A7F00E7C3A7E171CEDBA3E2F498BB39054110044110044110044110044110044110044110044110044110FE30FE01E4A7F11F03AE71B00000000049454E44AE426082
  0
ENDSEC
  0
EOF
