  0
SECTION
  2
HEADER
  9
$ACADVER
  1
AC1032
  9
$ACADMAINTVER
 90
       77
  9
$DWGCODEPAGE
  3
ANSI_1252
  9
$TITLE
  1
927H
  9
$SUBJECT
  1
Lifting Platform – 2.4×1.5m (Oak/Rubber)
  9
$AUTHOR
  1
Pulse Fitness
  9
$LASTSAVEDBY
  1
Darren.Clowes
  9
$REQUIREDVERSIONS
160
                 0
  9
$INSBASE
 10
0.0
 20
0.0
 30
0.0
  9
$EXTMIN
 10
40604.12970265407
 20
2941.891181727853
 30
-0.0338494472175626
  9
$EXTMAX
 10
43008.93615812283
 20
4854.792773121484
 30
0.0225697417513402
  9
$LIMMIN
 10
0.0
 20
0.0
  9
$LIMMAX
 10
420.0
 20
297.0
  9
$ORTHOMODE
 70
     1
  9
$REGENMODE
 70
     1
  9
$FILLMODE
 70
     1
  9
$QTEXTMODE
 70
     0
  9
$MIRRTEXT
 70
     0
  9
$LTSCALE
 40
1.0
  9
$ATTMODE
 70
     1
  9
$TEXTSIZE
 40
2.5
  9
$TRACEWID
 40
1.0
  9
$TEXTSTYLE
  7
Standard
  9
$CLAYER
  8
0
  9
$CELTYPE
  6
ByLayer
  9
$CECOLOR
 62
   256
  9
$CELTSCALE
 40
1.0
  9
$DISPSILH
 70
     0
  9
$DIMSCALE
 40
1.0
  9
$DIMASZ
 40
2.5
  9
$DIMEXO
 40
0.625
  9
$DIMDLI
 40
3.75
  9
$DIMRND
 40
0.0
  9
$DIMDLE
 40
0.0
  9
$DIMEXE
 40
1.25
  9
$DIMTP
 40
0.0
  9
$DIMTM
 40
0.0
  9
$DIMTXT
 40
2.5
  9
$DIMCEN
 40
2.5
  9
$DIMTSZ
 40
0.0
  9
$DIMTOL
 70
     0
  9
$DIMLIM
 70
     0
  9
$DIMTIH
 70
     0
  9
$DIMTOH
 70
     0
  9
$DIMSE1
 70
     0
  9
$DIMSE2
 70
     0
  9
$DIMTAD
 70
     1
  9
$DIMZIN
 70
     8
  9
$DIMBLK
  1

  9
$DIMASO
 70
     1
  9
$DIMSHO
 70
     1
  9
$DIMPOST
  1

  9
$DIMAPOST
  1

  9
$DIMALT
 70
     0
  9
$DIMALTD
 70
     3
  9
$DIMALTF
 40
0.03937007874016
  9
$DIMLFAC
 40
1.0
  9
$DIMTOFL
 70
     1
  9
$DIMTVP
 40
0.0
  9
$DIMTIX
 70
     0
  9
$DIMSOXD
 70
     0
  9
$DIMSAH
 70
     0
  9
$DIMBLK1
  1

  9
$DIMBLK2
  1

  9
$DIMSTYLE
  2
ISO-25
  9
$DIMCLRD
 70
     0
  9
$DIMCLRE
 70
     0
  9
$DIMCLRT
 70
     0
  9
$DIMTFAC
 40
1.0
  9
$DIMGAP
 40
0.625
  9
$DIMJUST
 70
     0
  9
$DIMSD1
 70
     0
  9
$DIMSD2
 70
     0
  9
$DIMTOLJ
 70
     0
  9
$DIMTZIN
 70
     8
  9
$DIMALTZ
 70
     0
  9
$DIMALTTZ
 70
     0
  9
$DIMUPT
 70
     0
  9
$DIMDEC
 70
     2
  9
$DIMTDEC
 70
     2
  9
$DIMALTU
 70
     2
  9
$DIMALTTD
 70
     3
  9
$DIMTXSTY
  7
Standard
  9
$DIMAUNIT
 70
     0
  9
$DIMADEC
 70
     0
  9
$DIMALTRND
 40
0.0
  9
$DIMAZIN
 70
     0
  9
$DIMDSEP
 70
    44
  9
$DIMATFIT
 70
     3
  9
$DIMFRAC
 70
     0
  9
$DIMLDRBLK
  1

  9
$DIMLUNIT
 70
     2
  9
$DIMLWD
 70
    -2
  9
$DIMLWE
 70
    -2
  9
$DIMTMOVE
 70
     0
  9
$DIMFXL
 40
1.0
  9
$DIMFXLON
 70
     0
  9
$DIMJOGANG
 40
0.7853981633974483
  9
$DIMTFILL
 70
     0
  9
$DIMTFILLCLR
 70
     0
  9
$DIMARCSYM
 70
     0
  9
$DIMLTYPE
  6

  9
$DIMLTEX1
  6

  9
$DIMLTEX2
  6

  9
$DIMTXTDIRECTION
 70
     0
  9
$LUNITS
 70
     2
  9
$LUPREC
 70
     4
  9
$SKETCHINC
 40
1.0
  9
$FILLETRAD
 40
0.0
  9
$AUNITS
 70
     0
  9
$AUPREC
 70
     0
  9
$MENU
  1
.
  9
$ELEVATION
 40
0.0
  9
$PELEVATION
 40
0.0
  9
$THICKNESS
 40
0.0
  9
$LIMCHECK
 70
     0
  9
$CHAMFERA
 40
0.0
  9
$CHAMFERB
 40
0.0
  9
$CHAMFERC
 40
0.0
  9
$CHAMFERD
 40
0.0
  9
$SKPOLY
 70
     0
  9
$TDCREATE
 40
2460608.599803241
  9
$TDUCREATE
 40
2460608.558136574
  9
$TDUPDATE
 40
2460707.443171297
  9
$TDUUPDATE
 40
2460707.443171297
  9
$TDINDWG
 40
5.1467245370
  9
$TDUSRTIMER
 40
5.1467245370
  9
$USRTIMER
 70
     1
  9
$ANGBASE
 50
0.0
  9
$ANGDIR
 70
     0
  9
$PDMODE
 70
     0
  9
$PDSIZE
 40
0.0
  9
$PLINEWID
 40
0.0
  9
$SPLFRAME
 70
     0
  9
$SPLINETYPE
 70
     6
  9
$SPLINESEGS
 70
     8
  9
$HANDSEED
  5
352BC
  9
$SURFTAB1
 70
     6
  9
$SURFTAB2
 70
     6
  9
$SURFTYPE
 70
     6
  9
$SURFU
 70
     6
  9
$SURFV
 70
     6
  9
$UCSBASE
  2

  9
$UCSNAME
  2

  9
$UCSORG
 10
0.0
 20
0.0
 30
0.0
  9
$UCSXDIR
 10
1.0
 20
0.0
 30
0.0
  9
$UCSYDIR
 10
0.0
 20
1.0
 30
0.0
  9
$UCSORTHOREF
  2

  9
$UCSORTHOVIEW
 70
     0
  9
$UCSORGTOP
 10
0.0
 20
0.0
 30
0.0
  9
$UCSORGBOTTOM
 10
0.0
 20
0.0
 30
0.0
  9
$UCSORGLEFT
 10
0.0
 20
0.0
 30
0.0
  9
$UCSORGRIGHT
 10
0.0
 20
0.0
 30
0.0
  9
$UCSORGFRONT
 10
0.0
 20
0.0
 30
0.0
  9
$UCSORGBACK
 10
0.0
 20
0.0
 30
0.0
  9
$PUCSBASE
  2

  9
$PUCSNAME
  2

  9
$PUCSORG
 10
0.0
 20
0.0
 30
0.0
  9
$PUCSXDIR
 10
1.0
 20
0.0
 30
0.0
  9
$PUCSYDIR
 10
0.0
 20
1.0
 30
0.0
  9
$PUCSORTHOREF
  2

  9
$PUCSORTHOVIEW
 70
     0
  9
$PUCSORGTOP
 10
0.0
 20
0.0
 30
0.0
  9
$PUCSORGBOTTOM
 10
0.0
 20
0.0
 30
0.0
  9
$PUCSORGLEFT
 10
0.0
 20
0.0
 30
0.0
  9
$PUCSORGRIGHT
 10
0.0
 20
0.0
 30
0.0
  9
$PUCSORGFRONT
 10
0.0
 20
0.0
 30
0.0
  9
$PUCSORGBACK
 10
0.0
 20
0.0
 30
0.0
  9
$USERI1
 70
     0
  9
$USERI2
 70
     0
  9
$USERI3
 70
     0
  9
$USERI4
 70
     0
  9
$USERI5
 70
     0
  9
$USERR1
 40
0.0
  9
$USERR2
 40
0.0
  9
$USERR3
 40
0.0
  9
$USERR4
 40
0.0
  9
$USERR5
 40
0.0
  9
$WORLDVIEW
 70
     1
  9
$SHADEDGE
 70
     3
  9
$SHADEDIF
 70
    70
  9
$TILEMODE
 70
     1
  9
$MAXACTVP
 70
    64
  9
$PINSBASE
 10
0.0
 20
0.0
 30
0.0
  9
$PLIMCHECK
 70
     0
  9
$PEXTMIN
 10
25.69999999999999
 20
19.5
 30
0.0
  9
$PEXTMAX
 10
231.3
 20
175.5
 30
0.0
  9
$PLIMMIN
 10
-20.0
 20
-7.5
  9
$PLIMMAX
 10
277.0
 20
202.5
  9
$UNITMODE
 70
     0
  9
$VISRETAIN
 70
     1
  9
$PLINEGEN
 70
     0
  9
$PSLTSCALE
 70
     1
  9
$TREEDEPTH
 70
  3020
  9
$CMLSTYLE
  2
Standard
  9
$CMLJUST
 70
     0
  9
$CMLSCALE
 40
20.0
  9
$PROXYGRAPHICS
 70
     1
  9
$MEASUREMENT
 70
     1
  9
$CELWEIGHT
370
    -1
  9
$ENDCAPS
280
     0
  9
$JOINSTYLE
280
     0
  9
$LWDISPLAY
290
     0
  9
$INSUNITS
 70
     4
  9
$HYPERLINKBASE
  1

  9
$STYLESHEET
  1

  9
$XEDIT
290
     1
  9
$CEPSNTYPE
380
     0
  9
$PSTYLEMODE
290
     1
  9
$FINGERPRINTGUID
  2
{54537EB9-599D-7646-99BF-BB5F0EA5D2E8}
  9
$VERSIONGUID
  2
{AC5C5A94-1329-BE47-8444-CA631CC53538}
  9
$EXTNAMES
290
     1
  9
$PSVPSCALE
 40
0.0
  9
$OLESTARTUP
290
     0
  9
$SORTENTS
280
   127
  9
$INDEXCTL
280
     0
  9
$HIDETEXT
280
     1
  9
$XCLIPFRAME
280
     2
  9
$HALOGAP
280
     0
  9
$OBSCOLOR
 70
   257
  9
$OBSLTYPE
280
     0
  9
$INTERSECTIONDISPLAY
280
     0
  9
$INTERSECTIONCOLOR
 70
   257
  9
$DIMASSOC
280
     2
  9
$PROJECTNAME
  1

  9
$CAMERADISPLAY
290
     0
  9
$LENSLENGTH
 40
50.0
  9
$CAMERAHEIGHT
 40
0.0
  9
$STEPSPERSEC
 40
2.0
  9
$STEPSIZE
 40
6.0
  9
$3DDWFPREC
 40
2.0
  9
$PSOLWIDTH
 40
5.0
  9
$PSOLHEIGHT
 40
80.0
  9
$LOFTANG1
 40
1.570796326794896
  9
$LOFTANG2
 40
1.570796326794896
  9
$LOFTMAG1
 40
0.0
  9
$LOFTMAG2
 40
0.0
  9
$LOFTPARAM
 70
     7
  9
$LOFTNORMALS
280
     1
  9
$LATITUDE
 40
37.795
  9
$LONGITUDE
 40
-122.394
  9
$NORTHDIRECTION
 40
0.0
  9
$TIMEZONE
 70
 -8000
  9
$LIGHTGLYPHDISPLAY
280
     1
  9
$TILEMODELIGHTSYNCH
280
     1
  9
$CMATERIAL
347
EC
  9
$SOLIDHIST
280
     0
  9
$SHOWHIST
280
     1
  9
$DWFFRAME
280
     2
  9
$DGNFRAME
280
     0
  9
$REALWORLDSCALE
290
     1
  9
$INTERFERECOLOR
 62
     1
  9
$INTERFEREOBJVS
345
F9
  9
$INTERFEREVPVS
346
F6
  9
$CSHADOW
280
     0
  9
$SHADOWPLANELOCATION
 40
0.0
  0
ENDSEC
  0
SECTION
  2
CLASSES
  0
CLASS
  1
ACDBDICTIONARYWDFLT
  2
AcDbDictionaryWithDefault
  3
ObjectDBX Classes
 90
        0
 91
        1
280
     0
281
     0
  0
CLASS
  1
DICTIONARYVAR
  2
AcDbDictionaryVar
  3
ObjectDBX Classes
 90
        0
 91
       13
280
     0
281
     0
  0
CLASS
  1
TABLESTYLE
  2
AcDbTableStyle
  3
ObjectDBX Classes
 90
     4095
 91
        1
280
     0
281
     0
  0
CLASS
  1
MATERIAL
  2
AcDbMaterial
  3
ObjectDBX Classes
 90
     1153
 91
        3
280
     0
281
     0
  0
CLASS
  1
VISUALSTYLE
  2
AcDbVisualStyle
  3
ObjectDBX Classes
 90
     4095
 91
       24
280
     0
281
     0
  0
CLASS
  1
SCALE
  2
AcDbScale
  3
ObjectDBX Classes
 90
     1153
 91
       17
280
     0
281
     0
  0
CLASS
  1
MLEADERSTYLE
  2
AcDbMLeaderStyle
  3
ACDB_MLEADERSTYLE_CLASS
 90
     4095
 91
        2
280
     0
281
     0
  0
CLASS
  1
CELLSTYLEMAP
  2
AcDbCellStyleMap
  3
ObjectDBX Classes
 90
     1152
 91
        1
280
     0
281
     0
  0
CLASS
  1
EXACXREFPANELOBJECT
  2
ExAcXREFPanelObject
  3
EXAC_ESW
 90
     1025
 91
        0
280
     0
281
     0
  0
CLASS
  1
NPOCOLLECTION
  2
AcDbImpNonPersistentObjectsCollection
  3
ObjectDBX Classes
 90
     1153
 91
        0
280
     0
281
     0
  0
CLASS
  1
LAYER_INDEX
  2
AcDbLayerIndex
  3
ObjectDBX Classes
 90
        0
 91
        0
280
     0
281
     0
  0
CLASS
  1
SPATIAL_INDEX
  2
AcDbSpatialIndex
  3
ObjectDBX Classes
 90
        0
 91
        0
280
     0
281
     0
  0
CLASS
  1
IDBUFFER
  2
AcDbIdBuffer
  3
ObjectDBX Classes
 90
        0
 91
        0
280
     0
281
     0
  0
CLASS
  1
ACDBSECTIONVIEWSTYLE
  2
AcDbSectionViewStyle
  3
ObjectDBX Classes
 90
     1025
 91
        1
280
     0
281
     0
  0
CLASS
  1
ACDBDETAILVIEWSTYLE
  2
AcDbDetailViewStyle
  3
ObjectDBX Classes
 90
     1025
 91
        1
280
     0
281
     0
  0
CLASS
  1
SORTENTSTABLE
  2
AcDbSortentsTable
  3
ObjectDBX Classes
 90
        0
 91
        1
280
     0
281
     0
  0
CLASS
  1
ACDB_MTEXTATTRIBUTEOBJECTCONTEXTDATA_CLASS
  2
AcDbMTextAttributeObjectContextData
  3
ObjectDBX Classes
 90
     1153
 91
       82
280
     0
281
     0
  0
CLASS
  1
ACAD_EVALUATION_GRAPH
  2
AcDbEvalGraph
  3
ObjectDBX Classes
 90
     1153
 91
        0
280
     0
281
     0
  0
CLASS
  1
ACAECUSTOBJ
  2
AcAeEditorObj
  3
AcAeEditorObj
 90
     1024
 91
        0
280
     0
281
     0
  0
CLASS
  1
ACDB_DYNAMICBLOCKPURGEPREVENTER_VERSION
  2
AcDbDynamicBlockPurgePreventer
  3
ObjectDBX Classes
 90
     1153
 91
        0
280
     0
281
     0
  0
ENDSEC
  0
SECTION
  2
TABLES
  0
TABLE
  2
VPORT
  5
8
330
0
100
AcDbSymbolTable
 70
     1
  0
VPORT
  5
EA
330
8
100
AcDbSymbolTableRecord
100
AcDbViewportTableRecord
  2
*Active
 70
     0
 10
0.0
 20
0.0
 11
1.0
 21
1.0
 12
41806.53293038845
 22
3898.341977424669
 13
0.0
 23
0.0
 14
10.0
 24
10.0
 15
10.0
 25
10.0
 16
0.0
 26
0.0
 36
1.0
 17
0.0
 27
0.0
 37
0.0
 40
1924.995805880841
 41
1.964135021097046
 42
50.0
 43
0.0
 44
0.0
 50
0.0
 51
0.0
 71
     0
 72
  1000
 73
     1
 74
     3
 75
     0
 76
     1
 77
     0
 78
     0
281
     0
 65
     1
110
0.0
120
0.0
130
0.0
111
1.0
121
0.0
131
0.0
112
0.0
122
1.0
132
0.0
 79
     0
146
0.0
348
F5
 60
     3
 61
     5
292
     1
282
     1
141
0.0
142
0.0
 63
   250
421
  3355443
1001
ACAD_NAV_VCDISPLAY
1070
     3
  0
ENDTAB
  0
TABLE
  2
LTYPE
  5
5
330
0
100
AcDbSymbolTable
 70
     1
  0
LTYPE
  5
14
330
5
100
AcDbSymbolTableRecord
100
AcDbLinetypeTableRecord
  2
ByBlock
 70
     0
  3

 72
    65
 73
     0
 40
0.0
  0
LTYPE
  5
15
330
5
100
AcDbSymbolTableRecord
100
AcDbLinetypeTableRecord
  2
ByLayer
 70
     0
  3

 72
    65
 73
     0
 40
0.0
  0
LTYPE
  5
16
330
5
100
AcDbSymbolTableRecord
100
AcDbLinetypeTableRecord
  2
Continuous
 70
     0
  3
Solid line
 72
    65
 73
     0
 40
0.0
  0
ENDTAB
  0
TABLE
  2
LAYER
  5
2
102
{ACAD_XDICTIONARY
360
1FF
102
}
330
0
100
AcDbSymbolTable
 70
     1
  0
LAYER
  5
10
102
{ACAD_XDICTIONARY
360
13C
102
}
330
2
100
AcDbSymbolTableRecord
100
AcDbLayerTableRecord
  2
0
 70
     0
 62
     7
  6
Continuous
370
    -3
390
F
347
EE
348
0
  0
ENDTAB
  0
TABLE
  2
STYLE
  5
3
330
0
100
AcDbSymbolTable
 70
     2
  0
STYLE
  5
11
330
3
100
AcDbSymbolTableRecord
100
AcDbTextStyleTableRecord
  2
Standard
 70
     0
 40
0.0
 41
1.0
 50
0.0
 71
     0
 42
2.5
  3
arial.ttf
  4

1001
ACAD
1000
Arial
1071
       34
  0
STYLE
  5
132
330
3
100
AcDbSymbolTableRecord
100
AcDbTextStyleTableRecord
  2
Annotative
 70
     0
 40
0.0
 41
1.0
 50
0.0
 71
     0
 42
2.5
  3
arial.ttf
  4

1001
AcadAnnotative
1000
AnnotativeData
1002
{
1070
     1
1070
     1
1002
}
1001
ACAD
1000
Arial
1071
       34
  0
ENDTAB
  0
TABLE
  2
VIEW
  5
6
330
0
100
AcDbSymbolTable
 70
     0
  0
ENDTAB
  0
TABLE
  2
UCS
  5
7
330
0
100
AcDbSymbolTable
 70
     0
  0
ENDTAB
  0
TABLE
  2
APPID
  5
9
330
0
100
AcDbSymbolTable
 70
    14
  0
APPID
  5
12
330
9
100
AcDbSymbolTableRecord
100
AcDbRegAppTableRecord
  2
ACAD
 70
     0
  0
APPID
  5
9E
330
9
100
AcDbSymbolTableRecord
100
AcDbRegAppTableRecord
  2
ACAD_PSEXT
 70
     0
  0
APPID
  5
133
330
9
100
AcDbSymbolTableRecord
100
AcDbRegAppTableRecord
  2
AcadAnnoPO
 70
     0
  0
APPID
  5
134
330
9
100
AcDbSymbolTableRecord
100
AcDbRegAppTableRecord
  2
AcadAnnotative
 70
     0
  0
APPID
  5
135
330
9
100
AcDbSymbolTableRecord
100
AcDbRegAppTableRecord
  2
ACAD_DSTYLE_DIMJAG
 70
     0
  0
APPID
  5
136
330
9
100
AcDbSymbolTableRecord
100
AcDbRegAppTableRecord
  2
ACAD_DSTYLE_DIMTALN
 70
     0
  0
APPID
  5
165
330
9
100
AcDbSymbolTableRecord
100
AcDbRegAppTableRecord
  2
ACAD_MLEADERVER
 70
     0
  0
APPID
  5
217
330
9
100
AcDbSymbolTableRecord
100
AcDbRegAppTableRecord
  2
ACAD_NAV_VCDISPLAY
 70
     0
  0
APPID
  5
10CD0
330
9
100
AcDbSymbolTableRecord
100
AcDbRegAppTableRecord
  2
ACAD_EXEMPT_FROM_CAD_STANDARDS
 70
     0
  0
APPID
  5
20098
330
9
100
AcDbSymbolTableRecord
100
AcDbRegAppTableRecord
  2
GradientColor1ACI
 70
     0
  0
APPID
  5
20099
330
9
100
AcDbSymbolTableRecord
100
AcDbRegAppTableRecord
  2
GradientColor2ACI
 70
     0
  0
APPID
  5
245F8
330
9
100
AcDbSymbolTableRecord
100
AcDbRegAppTableRecord
  2
ACAUTHENVIRON
 70
     0
  0
APPID
  5
27F21
330
9
100
AcDbSymbolTableRecord
100
AcDbRegAppTableRecord
  2
AcDbDynamicBlockTrueName
 70
     0
  0
APPID
  5
27F22
330
9
100
AcDbSymbolTableRecord
100
AcDbRegAppTableRecord
  2
AcDbDynamicBlockGUID
 70
     0
  0
ENDTAB
  0
TABLE
  2
DIMSTYLE
  5
A
330
0
100
AcDbSymbolTable
 70
     3
100
AcDbDimStyleTable
 71
     1
340
27
  0
DIMSTYLE
105
1B0
330
A
100
AcDbSymbolTableRecord
100
AcDbDimStyleTableRecord
  2
Standard
 70
     0
340
11
  0
DIMSTYLE
105
27
330
A
100
AcDbSymbolTableRecord
100
AcDbDimStyleTableRecord
  2
ISO-25
 70
     0
 41
2.5
 42
0.625
 43
3.75
 44
1.25
 73
     0
 74
     0
 77
     1
 78
     8
140
2.5
141
2.5
143
0.03937007874016
147
0.625
171
     3
172
     1
271
     2
272
     2
274
     3
278
    44
283
     0
284
     8
340
11
  0
ENDTAB
  0
TABLE
  2
BLOCK_RECORD
  5
1
330
0
100
AcDbSymbolTable
 70
    44
  0
BLOCK_RECORD
  5
1F
102
{ACAD_XDICTIONARY
360
1CE
102
}
330
1
100
AcDbSymbolTableRecord
100
AcDbBlockTableRecord
  2
*Model_Space
340
22
 70
     0
280
     1
281
     0
  0
BLOCK_RECORD
  5
D2
330
1
100
AcDbSymbolTableRecord
100
AcDbBlockTableRecord
  2
*Paper_Space
340
D3
 70
     0
280
     1
281
     0
  0
BLOCK_RECORD
  5
D6
330
1
100
AcDbSymbolTableRecord
100
AcDbBlockTableRecord
  2
*Paper_Space0
340
D7
 70
     0
280
     1
281
     0
  0
BLOCK_RECORD
  5
2A709
102
{ACAD_XDICTIONARY
360
352A8
102
}
330
1
100
AcDbSymbolTableRecord
100
AcDbBlockTableRecord
  2
927H - Lifting Platform – 2.4×1.5m Oak-Rubber
340
0
310
28000000200000002000000001002000000000000010000001000000010000000000000000000000302821FF302821FF302821FF302821FF302821FF302821FF302821FF302821FF302821FF302821FF302821FF302821FF302821FF302821FF302821FF302821FF302821FF302821FF302821FF302821FF302821FF302821
310
FF302821FF302821FF302821FF302821FF302821FF302821FF302821FF302821FF302821FF302821FF302821FF302821FF302821FF302821FF302821FF302821FF302821FF302821FF302821FF302821FF302821FF302821FF302821FF302821FF302821FF302821FF302821FF302821FF302821FF302821FF302821FF3028
310
21FF302821FF302821FF302821FF302821FF302821FF302821FF302821FF302821FF302821FF302821FF302821FF302821FF302821FF302821FF302821FF302821FF302821FF302821FF302821FF302821FF302821FF302821FF302821FF302821FF302821FF302821FF302821FF302821FF302821FF302821FF302821FF30
310
2821FF302821FF302821FF302821FF302821FF302821FF302821FF302821FF302821FF302821FF302821FF302821FF302821FF302821FF302821FF302821FF302821FF302821FF302821FF302821FF302821FF302821FF302821FF302821FF302821FF302821FF302821FF302821FF302821FF302821FF302821FF302821FF
310
302821FF302821FF302821FF302821FF302821FF302821FF302821FF302821FF302821FF302821FF302821FF302821FF302821FF302821FF302821FF302821FF302821FF302821FF302821FF302821FF302821FF302821FF302821FF302821FF302821FFFFFFFFFFFFFFFFFFFFFFFFFFFFFFFFFF302821FF302821FF302821
310
FF302821FF302821FF302821FF302821FF302821FF302821FF302821FF302821FF302821FF302821FF302821FF302821FF302821FF302821FF302821FF302821FF302821FF302821FF302821FF302821FF302821FF302821FF302821FF302821FF302821FF302821FFFFFFFFFFFFFFFFFFFFFFFFFF302821FF302821FF3028
310
21FF302821FF302821FF302821FF302821FF302821FF302821FF302821FF302821FF302821FF302821FF302821FF302821FF302821FF302821FF302821FF302821FF302821FF302821FF302821FF302821FF302821FF302821FF302821FF302821FF302821FFFFFFFFFFFFFFFFFFFFFFFFFFFFFFFFFF302821FF302821FF30
310
2821FF302821FF302821FF302821FF302821FF302821FF302821FF302821FF302821FF302821FF302821FF302821FF302821FF302821FF302821FF302821FF302821FF302821FF302821FF302821FF302821FF302821FF302821FF302821FF302821FF302821FF302821FF302821FF302821FF302821FF302821FF302821FF
310
302821FF302821FF302821FF302821FF302821FF302821FF302821FF302821FF302821FF302821FF302821FF302821FF302821FF302821FF302821FF302821FF302821FF302821FF302821FF302821FF302821FFFFFFFFFFFFFFFFFFFFFFFFFFFFFFFFFFFFFFFFFFFFFFFFFFFFFFFFFFFFFFFFFFFFFFFFFFFFFFFFFFFFFFFF
310
FFFFFFFFFFFFFFFFFFFFFFFFFF302821FF302821FF302821FF302821FF302821FF302821FF302821FF302821FF302821FF302821FF302821FF302821FF302821FFFFFFFFFFFFFFFFFFFFFFFFFFFFFFFFFFFFFFFFFFFFFFFFFFFFFFFFFFFFFFFFFFFFFFFFFFFFFFFFFFFFFFFFFFFFFFFFFFFFFFFFFFFFFFFFFFFFFFFFFFFFFF
310
FFFFFFFFFFFFFFFFFFFFFFFFFFFFFFFFFFFFFFFFFFFFFFFFFFFFFFFFFFFFFFFFFFFF302821FF302821FF302821FF302821FF302821FF302821FFFFFFFFFFFFFFFFFF302821FFFFFFFFFFFFFFFFFFFFFFFFFFFFFFFFFFFFFFFFFFFFFFFFFFFFFFFFFFFFFFFFFFFFFFFFFFFFFFFFFFFFFFFFFFFFFFFFFFFFFFFFFFFFFFFFFFFF
310
FFFFFFFFFFFFFFFFFFFFFFFFFFFFFFFFFFFFFFFFFFFFFFFFFFFFFFFFFFFFFFFFFFFFFFFFFFFFFFFFFFFFFF302821FF302821FF302821FFFFFFFFFF302821FFFFFFFFFFFFFFFFFFFFFFFFFF302821FF302821FF302821FF302821FFFFFFFFFFCAC8C7FFCAC8C7FFCAC8C7FFCAC8C7FFCAC8C7FFCAC8C7FFCAC8C7FFCAC8C7FF
310
CAC8C7FF302821FFFFFFFFFF302821FF302821FF302821FF302821FFFFFFFFFFFFFFFFFFFFFFFFFF302821FFFFFFFFFF302821FF302821FFFFFFFFFFFFFFFFFF302821FFFFFFFFFF302821FF302821FF302821FF302821FF302821FFFFFFFFFFCAC8C7FFCAC8C7FFCAC8C7FF302821FFCAC8C7FFCAC8C7FFCAC8C7FFCAC8C7
310
FFCAC8C7FFCAC8C7FFFFFFFFFF302821FF302821FF302821FF302821FF302821FFFFFFFFFF302821FFFFFFFFFFFFFFFFFF302821FF302821FFFFFFFFFFFFFFFFFFFFFFFFFF302821FF302821FF302821FF302821FF302821FF302821FFFFFFFFFFCAC8C7FFCAC8C7FFCAC8C7FF302821FFCAC8C7FFCAC8C7FFCAC8C7FFCAC8
310
C7FFCAC8C7FF302821FFFFFFFFFF302821FF302821FF302821FF302821FF302821FF302821FFFFFFFFFFFFFFFFFFFFFFFFFF302821FF302821FFFFFFFFFFFFFFFFFF302821FF302821FF302821FF302821FF302821FF302821FF302821FFFFFFFFFFCAC8C7FFCAC8C7FFCAC8C7FFCAC8C7FFCAC8C7FFCAC8C7FFCAC8C7FFCA
310
C8C7FFCAC8C7FF302821FFFFFFFFFF302821FF302821FF302821FF302821FF302821FF302821FF302821FFFFFFFFFFFFFFFFFF302821FF302821FFFFFFFFFFFFFFFFFF302821FF302821FF302821FF302821FF302821FF302821FF302821FFFFFFFFFFCAC8C7FFCAC8C7FFCAC8C7FF302821FFCAC8C7FFCAC8C7FFCAC8C7FF
310
CAC8C7FFCAC8C7FF302821FFFFFFFFFF302821FF302821FF302821FF302821FF302821FF302821FF302821FFFFFFFFFFFFFFFFFF302821FF302821FFFFFFFFFFFFFFFFFF302821FF302821FF302821FF302821FF302821FF302821FF302821FFFFFFFFFFCAC8C7FFCAC8C7FFCAC8C7FF302821FFCAC8C7FFCAC8C7FFCAC8C7
310
FFCAC8C7FFCAC8C7FFCAC8C7FFFFFFFFFF302821FF302821FF302821FF302821FF302821FF302821FF302821FFFFFFFFFFFFFFFFFF302821FF302821FFFFFFFFFFFFFFFFFF302821FF302821FF302821FF302821FF302821FF302821FF302821FFFFFFFFFFCAC8C7FFCAC8C7FFCAC8C7FF302821FFCAC8C7FFCAC8C7FFCAC8
310
C7FFCAC8C7FFCAC8C7FF302821FFFFFFFFFF302821FF302821FF302821FF302821FF302821FF302821FF302821FFFFFFFFFFFFFFFFFF302821FF302821FFFFFFFFFFFFFFFFFF302821FF302821FF302821FF302821FF302821FF302821FF302821FFFFFFFFFFCAC8C7FFCAC8C7FFCAC8C7FFCAC8C7FFCAC8C7FFCAC8C7FFCA
310
C8C7FFCAC8C7FFCAC8C7FF302821FFFFFFFFFF302821FF302821FF302821FF302821FF302821FF302821FF302821FFFFFFFFFFFFFFFFFF302821FF302821FFFFFFFFFFFFFFFFFF302821FF302821FF302821FF302821FF302821FF302821FF302821FFFFFFFFFFCAC8C7FFCAC8C7FFCAC8C7FF302821FFCAC8C7FFCAC8C7FF
310
CAC8C7FFCAC8C7FFCAC8C7FF302821FFFFFFFFFF302821FF302821FF302821FF302821FF302821FF302821FF302821FFFFFFFFFFFFFFFFFF302821FF302821FFFFFFFFFFFFFFFFFF302821FF302821FF302821FF302821FF302821FF302821FF302821FFFFFFFFFFCAC8C7FFCAC8C7FFCAC8C7FF302821FFCAC8C7FFCAC8C7
310
FFCAC8C7FFCAC8C7FFCAC8C7FFCAC8C7FFFFFFFFFF302821FF302821FF302821FF302821FF302821FF302821FF302821FFFFFFFFFFFFFFFFFF302821FF302821FFFFFFFFFFFFFFFFFF302821FF302821FF302821FF302821FF302821FF302821FF302821FFFFFFFFFFCAC8C7FFCAC8C7FFCAC8C7FFCAC8C7FFCAC8C7FFCAC8
310
C7FFCAC8C7FFCAC8C7FFCAC8C7FF302821FFFFFFFFFF302821FF302821FF302821FF302821FF302821FF302821FF302821FFFFFFFFFFFFFFFFFF302821FF302821FFFFFFFFFFFFFFFFFFFFFFFFFF302821FF302821FF302821FF302821FF302821FF302821FFFFFFFFFFCAC8C7FFCAC8C7FFCAC8C7FF302821FFCAC8C7FFCA
310
C8C7FFCAC8C7FFCAC8C7FFCAC8C7FF302821FFFFFFFFFF302821FF302821FF302821FF302821FF302821FF302821FFFFFFFFFFFFFFFFFFFFFFFFFF302821FF302821FFFFFFFFFFFFFFFFFF302821FFFFFFFFFF302821FF302821FF302821FF302821FF302821FFFFFFFFFFCAC8C7FFCAC8C7FFCAC8C7FF302821FFCAC8C7FF
310
CAC8C7FFCAC8C7FFCAC8C7FFCAC8C7FFCAC8C7FFFFFFFFFF302821FF302821FF302821FF302821FF302821FFFFFFFFFF302821FFFFFFFFFFFFFFFFFF302821FF302821FFFFFFFFFFFFFFFFFFFFFFFFFFFFFFFFFFFFFFFFFF302821FF302821FF302821FF302821FFFFFFFFFFCAC8C7FFCAC8C7FFCAC8C7FF302821FFCAC8C7
310
FFCAC8C7FFCAC8C7FFCAC8C7FFCAC8C7FF302821FFFFFFFFFF302821FF302821FF302821FF302821FFFFFFFFFFFFFFFFFFFFFFFFFFFFFFFFFFFFFFFFFF302821FF302821FF302821FFFFFFFFFFFFFFFFFFFFFFFFFF302821FFFFFFFFFF302821FF302821FF302821FFFFFFFFFFCAC8C7FFCAC8C7FFCAC8C7FFCAC8C7FFCAC8
310
C7FFCAC8C7FFCAC8C7FFCAC8C7FFCAC8C7FF302821FFFFFFFFFF302821FF302821FF302821FFFFFFFFFF302821FFFFFFFFFFFFFFFFFFFFFFFFFF302821FF302821FF302821FF302821FF302821FFFFFFFFFFFFFFFFFFFFFFFFFFFFFFFFFFFFFFFFFFFFFFFFFFFFFFFFFFFFFFFFFFFFFFFFFFFFFFFFFFFFFFFFFFFFFFFFFFFF
310
FFFFFFFFFFFFFFFFFFFFFFFFFFFFFFFFFFFFFFFFFFFFFFFFFFFFFFFFFFFFFFFFFFFFFFFFFFFFFFFFFFFFFFFFFFFFFFFFFFFFFFFFFFFFFF302821FF302821FF302821FF302821FF302821FF302821FF302821FFFFFFFFFFFFFFFFFFFFFFFFFFFFFFFFFF302821FF302821FF302821FF302821FF302821FF302821FF302821FF
310
302821FF302821FF302821FF302821FF302821FF302821FF302821FF302821FF302821FFFFFFFFFFFFFFFFFFFFFFFFFFFFFFFFFF302821FF302821FF302821FF302821FF302821FF302821FF302821FF302821FF302821FF302821FF302821FF302821FF302821FF302821FF302821FF302821FF302821FF302821FF302821
310
FF302821FF302821FF302821FF302821FF302821FF302821FF302821FF302821FF302821FF302821FF302821FF302821FF302821FF302821FF302821FF302821FF302821FF302821FF302821FF302821FF302821FF302821FF302821FF302821FF302821FF302821FF302821FF302821FF302821FF302821FF302821FF3028
310
21FF302821FF302821FF302821FF302821FF302821FF302821FF302821FF302821FF302821FF302821FF302821FF302821FF302821FF302821FF302821FF302821FF302821FF302821FF302821FF302821FF302821FF302821FF302821FF302821FF302821FF302821FF302821FF302821FF302821FF302821FF302821FF30
310
2821FF302821FF302821FF302821FF302821FF302821FF302821FF302821FF302821FF302821FF302821FF302821FF302821FF302821FF302821FF302821FF302821FF302821FF302821FF302821FF302821FF302821FF302821FF302821FF302821FF302821FF302821FF302821FF302821FF302821FF302821FF302821FF
310
302821FF302821FF302821FF302821FF302821FF302821FF302821FF302821FF302821FF302821FF302821FF302821FF302821FF302821FF302821FF302821FF302821FF302821FF
102
{BLKREFS
331
2A863
102
}
 70
     4
280
     1
281
     0
1001
AcDbDynamicBlockGUID
1000
{6C6B5EAC-9D18-0243-9F03-9CA0660B63AA}
  0
ENDTAB
  0
ENDSEC
  0
SECTION
  2
BLOCKS
  0
BLOCK
  5
20
330
1F
100
AcDbEntity
  8
0
100
AcDbBlockBegin
  2
*Model_Space
 70
     0
 10
0.0
 20
0.0
 30
0.0
  3
*Model_Space
  1

  0
ENDBLK
  5
21
330
1F
100
AcDbEntity
  8
0
100
AcDbBlockEnd
  0
BLOCK
  5
D4
330
D2
100
AcDbEntity
 67
     1
  8
0
100
AcDbBlockBegin
  2
*Paper_Space
 70
     0
 10
0.0
 20
0.0
 30
0.0
  3
*Paper_Space
  1

  0
ENDBLK
  5
D5
330
D2
100
AcDbEntity
 67
     1
  8
0
100
AcDbBlockEnd
  0
BLOCK
  5
D8
330
D6
100
AcDbEntity
 67
     1
  8
0
100
AcDbBlockBegin
  2
*Paper_Space0
 70
     0
 10
0.0
 20
0.0
 30
0.0
  3
*Paper_Space0
  1

  0
ENDBLK
  5
D9
330
D6
100
AcDbEntity
 67
     1
  8
0
100
AcDbBlockEnd
  0
BLOCK
  5
2A70A
330
2A709
100
AcDbEntity
  8
0
100
AcDbBlockBegin
  2
927H - Lifting Platform – 2.4×1.5m Oak-Rubber
 70
     2
 10
0.0
 20
0.0
 30
0.0
  3
927H - Lifting Platform – 2.4×1.5m Oak-Rubber
  1

  0
HATCH
  5
35151
330
2A709
100
AcDbEntity
  8
0
 62
     9
420
 13093066
100
AcDbHatch
 10
0.0
 20
0.0
 30
0.0
210
0.0
220
0.0
230
1.0
  2
AR-BRSTD
 70
     0
 71
     1
 91
        1
 92
        7
 72
     0
 73
     1
 93
        4
 10
482.2388234746685
 20
-641.3479336656845
 10
482.2388234746685
 20
724.3880350547761
 10
-517.7611765253605
 20
724.3880360882529
 10
-517.7611765253605
 20
-641.3479326322077
 97
        4
330
35248
330
35153
330
35249
330
35152
 75
     1
 76
     1
 52
90.0
 41
1.5
 77
     0
 78
     2
 53
90.0
 43
-35352.24461914551
 44
-4063.008401341547
 45
-101.6127
 46
0.0000000000000062
 79
     0
 53
180.0
 43
-35352.24461914551
 44
-4063.008401341547
 45
-101.6127
 46
-152.4
 79
     2
 49
101.6127
 49
-101.6127
 47
20.4653522242811
 98
        1
 10
-49.28512927246629
 20
-409.163951811759
1001
GradientColor1ACI
1070
     5
1001
GradientColor2ACI
1070
     2
1001
ACAD
1010
0.0
1020
0.0
1030
0.0
  0
LINE
  5
35152
102
{ACAD_REACTORS
330
35151
102
}
330
2A709
100
AcDbEntity
  8
0
100
AcDbLine
 10
482.2388234746686
 20
-642.284442186161
 30
0.0
 11
482.2388234746686
 21
785.4514342514448
 31
0.0
  0
LINE
  5
35153
102
{ACAD_REACTORS
330
35151
102
}
330
2A709
100
AcDbEntity
  8
0
100
AcDbLine
 10
-517.7611765253605
 20
785.4514342514448
 30
0.0
 11
-517.7611765253605
 21
-642.284442186161
 31
0.0
  0
LINE
  5
35154
330
2A709
100
AcDbEntity
  8
0
100
AcDbLine
 10
-518.7611636507572
 20
723.4515265342998
 30
0.0
 11
-518.7611636507572
 21
753.4514979240703
 31
0.0
  0
LINE
  5
35155
330
2A709
100
AcDbEntity
  8
0
100
AcDbLine
 10
-518.7611636507572
 20
750.451476943228
 30
0.0
 11
-517.7611765253605
 21
750.451476943228
 31
0.0
  0
LINE
  5
35156
330
2A709
100
AcDbEntity
  8
0
100
AcDbLine
 10
-518.7611636507572
 20
753.4514979240703
 30
0.0
 11
-517.7611765253605
 21
753.4514979240703
 31
0.0
  0
LINE
  5
35157
330
2A709
100
AcDbEntity
  8
0
100
AcDbLine
 10
482.2388234746686
 20
750.451476943228
 30
0.0
 11
483.2388106000653
 21
750.451476943228
 31
0.0
  0
LINE
  5
35158
330
2A709
100
AcDbEntity
  8
0
100
AcDbLine
 10
483.2388106000653
 20
723.4515265342998
 30
0.0
 11
483.2388106000653
 21
753.4514979240703
 31
0.0
  0
LINE
  5
35159
330
2A709
100
AcDbEntity
  8
0
100
AcDbLine
 10
482.2388234746686
 20
753.4514979240703
 30
0.0
 11
483.2388106000653
 21
753.4514979240703
 31
0.0
  0
ARC
  5
3515A
330
2A709
100
AcDbEntity
  8
0
100
AcDbCircle
 10
-1159.761131756873
 20
-388.3479311931115
 30
0.0
 40
49.99999999999992
100
AcDbArc
 50
45.0000000000737
 51
90.0
  0
LINE
  5
3515B
330
2A709
100
AcDbEntity
  8
0
100
AcDbLine
 10
-862.2737106668864
 20
-615.1246266776325
 30
0.0
 11
-1124.405759273759
 21
-352.9925855213405
 31
0.0
  0
ARC
  5
3515C
330
2A709
100
AcDbEntity
  8
0
100
AcDbCircle
 10
-897.6290974008952
 20
-650.4799655490824
 30
0.0
 40
50.00000000000314
100
AcDbArc
 50
0.0
 51
45.0000000000737
  0
LINE
  5
3515D
330
2A709
100
AcDbEntity
  8
0
100
AcDbLine
 10
-997.6290640222941
 20
-700.4799662494733
 30
0.0
 11
-847.629087864152
 21
-700.4799662494733
 31
0.0
  0
LINE
  5
3515E
330
2A709
100
AcDbEntity
  8
0
100
AcDbLine
 10
-1209.761160312882
 20
-488.3479239755797
 30
0.0
 11
-997.6290640222941
 21
-700.4799662494733
 31
0.0
  0
LINE
  5
3515F
330
2A709
100
AcDbEntity
  8
0
100
AcDbLine
 10
-1209.761160312882
 20
-338.3479329162765
 30
0.0
 11
-1209.761160312882
 21
-488.3479239755797
 31
0.0
  0
SPLINE
  5
35160
330
2A709
100
AcDbEntity
  8
0
100
AcDbSpline
210
0.0
220
0.0
230
1.0
 70
     8
 71
     3
 72
    10
 73
     6
 74
     0
 42
0.000000001
 43
0.0000000001
 40
0.0
 40
0.0
 40
0.0
 40
0.0
 40
0.5992960760769312
 40
0.8113596899813982
 40
0.9999999999999998
 40
0.9999999999999998
 40
0.9999999999999998
 40
0.9999999999999998
 10
-1034.417527614823
 20
-565.072401087873
 30
0.0
 10
-1032.441156231762
 20
-565.7428742098163
 30
0.0
 10
-1029.765436939306
 20
-566.6505972636696
 30
0.0
 10
-1026.382519838917
 20
-567.4881602196656
 30
0.0
 10
-1025.002811717502
 20
-567.6967039011834
 30
0.0
 10
-1024.353283344499
 20
-567.7948804908992
 30
0.0
  0
SPLINE
  5
35161
330
2A709
100
AcDbEntity
  8
0
100
AcDbSpline
210
0.0
220
0.0
230
1.0
 70
     8
 71
     3
 72
    17
 73
    13
 74
     0
 42
0.000000001
 43
0.0000000001
 40
0.0
 40
0.0
 40
0.0
 40
0.0
 40
0.1480033961824786
 40
0.2612803694163535
 40
0.349647555402423
 40
0.4332736968296118
 40
0.5141788538694423
 40
0.5996954016216176
 40
0.6900510919847609
 40
0.81112960411601
 40
0.919939083538529
 40
1.0
 40
1.0
 40
1.0
 40
1.0
 10
-1024.353283344499
 20
-567.7948804908992
 30
0.0
 10
-1023.506548876663
 20
-567.9050667526789
 30
0.0
 10
-1022.01175145807
 20
-568.0995859861686
 30
0.0
 10
-1019.987423001315
 20
-567.9151802803426
 30
0.0
 10
-1018.425210863257
 20
-567.3212705078076
 30
0.0
 10
-1017.344446551629
 20
-566.2741028186392
 30
0.0
 10
-1016.814404973404
 20
-564.8999065818752
 30
0.0
 10
-1016.713470011069
 20
-563.4120360904671
 30
0.0
 10
-1016.926580134044
 20
-561.7090480636798
 30
0.0
 10
-1017.43092197342
 20
-559.9303392556212
 30
0.0
 10
-1018.08643541496
 20
-558.2672624773876
 30
0.0
 10
-1018.589356331904
 20
-557.3028541249477
 30
0.0
 10
-1018.802541195146
 20
-556.8940477782489
 30
0.0
  0
SPLINE
  5
35162
330
2A709
100
AcDbEntity
  8
0
100
AcDbSpline
210
0.0
220
0.0
230
1.0
 70
     8
 71
     3
 72
    10
 73
     6
 74
     0
 42
0.000000001
 43
0.0000000001
 40
0.0
 40
0.0
 40
0.0
 40
0.0
 40
0.2823403018705514
 40
0.5559751332166103
 40
1.0
 40
1.0
 40
1.0
 40
1.0
 10
-1018.802541195146
 20
-556.8940477782489
 30
0.0
 10
-1019.446606929348
 20
-555.9343226093078
 30
0.0
 10
-1020.71487975472
 20
-554.044463722279
 30
0.0
 10
-1023.319931344267
 20
-550.8813243936347
 30
0.0
 10
-1025.364847087469
 20
-548.7728590882215
 30
0.0
 10
-1026.630061565629
 20
-547.4683257156539
 30
0.0
  0
LINE
  5
35163
330
2A709
100
AcDbEntity
  8
0
100
AcDbLine
 10
-1026.630061565629
 20
-547.4683257156539
 30
0.0
 11
-1019.315021930924
 21
-536.0597731882262
 31
0.0
  0
SPLINE
  5
35164
330
2A709
100
AcDbEntity
  8
0
100
AcDbSpline
210
0.0
220
0.0
230
1.0
 70
     8
 71
     3
 72
     9
 73
     5
 74
     0
 42
0.000000001
 43
0.0000000001
 40
0.0
 40
0.0
 40
0.0
 40
0.0
 40
0.5586887695242526
 40
1.0
 40
1.0
 40
1.0
 40
1.0
 10
-1019.315021930924
 20
-536.0597731882262
 30
0.0
 10
-1019.113900936667
 20
-535.706363441579
 30
0.0
 10
-1018.753913399378
 20
-535.0737934564277
 30
0.0
 10
-1018.741996658784
 20
-534.349552623531
 30
0.0
 10
-1018.736737667313
 20
-534.0299370104076
 30
0.0
  0
SPLINE
  5
35165
330
2A709
100
AcDbEntity
  8
0
100
AcDbSpline
210
0.0
220
0.0
230
1.0
 70
     8
 71
     3
 72
    14
 73
    10
 74
     0
 42
0.000000001
 43
0.0000000001
 40
0.0
 40
0.0
 40
0.0
 40
0.0
 40
0.1539256471740457
 40
0.3114258218984728
 40
0.4714762996359271
 40
0.5930579713556314
 40
0.717769810691835
 40
0.8506766139517663
 40
1.0
 40
1.0
 40
1.0
 40
1.0
 10
-1018.736737667313
 20
-534.0299370104076
 30
0.0
 10
-1018.791780340216
 20
-533.6600207308983
 30
0.0
 10
-1018.903143910684
 20
-532.9115978170193
 30
0.0
 10
-1019.544402435618
 20
-531.9385714595009
 30
0.0
 10
-1020.360743438294
 20
-531.2478215250048
 30
0.0
 10
-1021.269487472418
 20
-530.8553865563189
 30
0.0
 10
-1022.184166485203
 20
-530.7365465539805
 30
0.0
 10
-1023.171138513593
 20
-530.8925936512496
 30
0.0
 10
-1023.765090236287
 20
-531.230892395597
 30
0.0
 10
-1024.079340397111
 20
-531.4098807388618
 30
0.0
  0
SPLINE
  5
35166
330
2A709
100
AcDbEntity
  8
0
100
AcDbSpline
210
0.0
220
0.0
230
1.0
 70
     8
 71
     3
 72
    14
 73
    10
 74
     0
 42
0.000000001
 43
0.0000000001
 40
0.0
 40
0.0
 40
0.0
 40
0.0
 40
0.0494271594247872
 40
0.1283432708403417
 40
0.2367487341495972
 40
0.3746407721968119
 40
0.5507315284488387
 40
0.7591845713217507
 40
1.0
 40
1.0
 40
1.0
 40
1.0
 10
-1024.079340397111
 20
-531.4098807388618
 30
0.0
 10
-1024.650647903611
 20
-531.7904410908631
 30
0.0
 10
-1026.134113166328
 20
-532.7786095572774
 30
0.0
 10
-1028.871444830111
 20
-534.6001547219893
 30
0.0
 10
-1032.631745171289
 20
-537.1021655489276
 30
0.0
 10
-1037.515888236834
 20
-540.3513995454013
 30
0.0
 10
-1043.557203752738
 20
-544.3697920068989
 30
0.0
 10
-1050.788793847248
 20
-549.1796927324212
 30
0.0
 10
-1055.984187295624
 20
-552.6350568210291
 30
0.0
 10
-1058.769005237809
 20
-554.4871898704768
 30
0.0
  0
SPLINE
  5
35167
330
2A709
100
AcDbEntity
  8
0
100
AcDbSpline
210
0.0
220
0.0
230
1.0
 70
     8
 71
     3
 72
    16
 73
    12
 74
     0
 42
0.000000001
 43
0.0000000001
 40
0.0
 40
0.0
 40
0.0
 40
0.0
 40
0.1889392706386225
 40
0.3584706633395274
 40
0.5085943389380235
 40
0.6393090423665155
 40
0.7506160337485023
 40
0.8410434623674721
 40
0.9127498369938939
 40
0.965735334262624
 40
1.0
 40
1.0
 40
1.0
 40
1.0
 10
-1058.769005237809
 20
-554.4871898704768
 30
0.0
 10
-1055.825342030839
 20
-551.5004946483204
 30
0.0
 10
-1050.240389263308
 20
-545.8338981072265
 30
0.0
 10
-1042.315732805313
 20
-537.794965605568
 30
0.0
 10
-1035.29757150614
 20
-530.6770609114646
 30
0.0
 10
-1029.186033700352
 20
-524.4800523244375
 30
0.0
 10
-1024.003859533775
 20
-519.2273954420198
 30
0.0
 10
-1019.740651602558
 20
-514.9078993188559
 30
0.0
 10
-1016.385218136354
 20
-511.5111941020914
 30
0.0
 10
-1013.905132102249
 20
-509.0019604679364
 30
0.0
 10
-1012.541132453269
 20
-507.6273311638397
 30
0.0
 10
-1012.005465923539
 20
-507.0874901825118
 30
0.0
  0
SPLINE
  5
35168
330
2A709
100
AcDbEntity
  8
0
100
AcDbSpline
210
0.0
220
0.0
230
1.0
 70
     8
 71
     3
 72
     9
 73
     5
 74
     0
 42
0.000000001
 43
0.0000000001
 40
0.0
 40
0.0
 40
0.0
 40
0.0
 40
0.5607652857893211
 40
1.0
 40
1.0
 40
1.0
 40
1.0
 10
-1012.005465923539
 20
-507.0874901825118
 30
0.0
 10
-1011.823508764057
 20
-506.9063741848695
 30
0.0
 10
-1011.499028693557
 20
-506.5833941391356
 30
0.0
 10
-1011.208326673797
 20
-506.2298242951037
 30
0.0
 10
-1011.080640255204
 20
-506.0745241457225
 30
0.0
  0
SPLINE
  5
35169
330
2A709
100
AcDbEntity
  8
0
100
AcDbSpline
210
0.0
220
0.0
230
1.0
 70
     8
 71
     3
 72
    11
 73
     7
 74
     0
 42
0.000000001
 43
0.0000000001
 40
0.0
 40
0.0
 40
0.0
 40
0.0
 40
0.2820392126243506
 40
0.5559803341597819
 40
0.7739819637020407
 40
1.0
 40
1.0
 40
1.0
 40
1.0
 10
-1011.080640255204
 20
-506.0745241457225
 30
0.0
 10
-1010.859535349089
 20
-505.7100684467186
 30
0.0
 10
-1010.423674042999
 20
-504.9916215349112
 30
0.0
 10
-1010.358797621469
 20
-503.7997473430404
 30
0.0
 10
-1010.620996849604
 20
-502.7436988224326
 30
0.0
 10
-1011.00585411919
 20
-502.1982501124912
 30
0.0
 10
-1011.201756893388
 20
-501.9206019455269
 30
0.0
  0
SPLINE
  5
3516A
330
2A709
100
AcDbEntity
  8
0
100
AcDbSpline
210
0.0
220
0.0
230
1.0
 70
     8
 71
     3
 72
    11
 73
     7
 74
     0
 42
0.000000001
 43
0.0000000001
 40
0.0
 40
0.0
 40
0.0
 40
0.0
 40
0.2821435803859053
 40
0.56018271213865
 40
0.7786840596618349
 40
1.0
 40
1.0
 40
1.0
 40
1.0
 10
-1011.201756893388
 20
-501.9206019455269
 30
0.0
 10
-1011.510865696611
 20
-501.6272675661493
 30
0.0
 10
-1012.124586581129
 20
-501.0448660528091
 30
0.0
 10
-1013.274922084667
 20
-500.7116596310988
 30
0.0
 10
-1014.364099803868
 20
-500.7119086032217
 30
0.0
 10
-1014.975955150461
 20
-500.9642533216792
 30
0.0
 10
-1015.283840595475
 20
-501.0912331157851
 30
0.0
  0
SPLINE
  5
3516B
330
2A709
100
AcDbEntity
  8
0
100
AcDbSpline
210
0.0
220
0.0
230
1.0
 70
     8
 71
     3
 72
     9
 73
     5
 74
     0
 42
0.000000001
 43
0.0000000001
 40
0.0
 40
0.0
 40
0.0
 40
0.0
 40
0.5598205690191316
 40
1.0
 40
1.0
 40
1.0
 40
1.0
 10
-1015.283840595475
 20
-501.0912331157851
 30
0.0
 10
-1015.526181095389
 20
-501.2302300635456
 30
0.0
 10
-1015.959070691366
 20
-501.4785184535394
 30
0.0
 10
-1016.37647962974
 20
-501.7519695405463
 30
0.0
 10
-1016.560214458695
 20
-501.8723370844054
 30
0.0
  0
SPLINE
  5
3516C
330
2A709
100
AcDbEntity
  8
0
100
AcDbSpline
210
0.0
220
0.0
230
1.0
 70
     8
 71
     3
 72
     9
 73
     5
 74
     0
 42
0.000000001
 43
0.0000000001
 40
0.0
 40
0.0
 40
0.0
 40
0.0
 40
0.5600519073117752
 40
0.9999999999999998
 40
0.9999999999999998
 40
0.9999999999999998
 40
0.9999999999999998
 10
-1016.560214458695
 20
-501.8723370844054
 30
0.0
 10
-1018.30589794166
 20
-502.992696654921
 30
0.0
 10
-1021.422900955418
 20
-504.9931533195522
 30
0.0
 10
-1024.538169639003
 20
-506.9963096469182
 30
0.0
 10
-1025.908726154557
 20
-507.8775944525005
 30
0.0
  0
SPLINE
  5
3516D
330
2A709
100
AcDbEntity
  8
0
100
AcDbSpline
210
0.0
220
0.0
230
1.0
 70
     8
 71
     3
 72
    16
 73
    12
 74
     0
 42
0.000000001
 43
0.0000000001
 40
0.0
 40
0.0
 40
0.0
 40
0.0
 40
0.095763046953832
 40
0.214968099055539
 40
0.3492358088152792
 40
0.4901930586819898
 40
0.6294599996542749
 40
0.7564961391287479
 40
0.8658865453648353
 40
0.9497019816444451
 40
1.0
 40
1.0
 40
1.0
 40
1.0
 10
-1025.908726154557
 20
-507.8775944525005
 30
0.0
 10
-1026.772663579198
 20
-508.4335158749781
 30
0.0
 10
-1028.712023194261
 20
-509.6814437053653
 30
0.0
 10
-1031.862990038753
 20
-511.7083600004807
 30
0.0
 10
-1035.421757702941
 20
-513.9975183524621
 30
0.0
 10
-1039.161698375152
 20
-516.4028560214683
 30
0.0
 10
-1042.836438033693
 20
-518.7661518163986
 30
0.0
 10
-1046.226531529733
 20
-520.9459822555254
 30
0.0
 10
-1049.116366398746
 20
-522.8039012351619
 30
0.0
 10
-1051.313830294988
 20
-524.2164494277858
 30
0.0
 10
-1052.524487391718
 20
-524.9938551945124
 30
0.0
 10
-1052.978533207169
 20
-525.2854140812233
 30
0.0
  0
SPLINE
  5
3516E
330
2A709
100
AcDbEntity
  8
0
100
AcDbSpline
210
0.0
220
0.0
230
1.0
 70
     8
 71
     3
 72
     9
 73
     5
 74
     0
 42
0.000000001
 43
0.0000000001
 40
0.0
 40
0.0
 40
0.0
 40
0.0
 40
0.5912182786347855
 40
1.0
 40
1.0
 40
1.0
 40
1.0
 10
-1052.978533207169
 20
-525.2854140812233
 30
0.0
 10
-1053.184606651797
 20
-525.1617831635703
 30
0.0
 10
-1053.533163947977
 20
-524.95267102664
 30
0.0
 10
-1053.873874418546
 20
-524.7310335637048
 30
0.0
 10
-1054.013150631181
 20
-524.6404322201088
 30
0.0
  0
SPLINE
  5
3516F
330
2A709
100
AcDbEntity
  8
0
100
AcDbSpline
210
0.0
220
0.0
230
1.0
 70
     8
 71
     3
 72
    10
 73
     6
 74
     0
 42
0.000000001
 43
0.0000000001
 40
0.0
 40
0.0
 40
0.0
 40
0.0
 40
0.2801547833022535
 40
0.5599846461923917
 40
1.0
 40
1.0
 40
1.0
 40
1.0
 10
-1054.013150631181
 20
-524.6404322201088
 30
0.0
 10
-1056.603328216552
 20
-522.8982091023972
 30
0.0
 10
-1061.780679327981
 20
-519.4157834780307
 30
0.0
 10
-1071.287355438391
 20
-513.5919443965285
 30
0.0
 10
-1078.40829435936
 20
-509.8949850438257
 30
0.0
 10
-1082.761066852799
 20
-507.6351674610378
 30
0.0
  0
SPLINE
  5
35170
330
2A709
100
AcDbEntity
  8
0
100
AcDbSpline
210
0.0
220
0.0
230
1.0
 70
     8
 71
     3
 72
    10
 73
     6
 74
     0
 42
0.000000001
 43
0.0000000001
 40
0.0
 40
0.0
 40
0.0
 40
0.0
 40
0.2801744259922792
 40
0.5598943659417172
 40
1.0
 40
1.0
 40
1.0
 40
1.0
 10
-1082.761066852799
 20
-507.6351674610378
 30
0.0
 10
-1084.725044238665
 20
-506.6898440968107
 30
0.0
 10
-1088.649813136835
 20
-504.8007308283522
 30
0.0
 10
-1095.805805664211
 20
-501.7265836311162
 30
0.0
 10
-1101.160201998333
 20
-500.0689428189689
 30
0.0
 10
-1104.433911739579
 20
-499.0554513746501
 30
0.0
  0
SPLINE
  5
35171
330
2A709
100
AcDbEntity
  8
0
100
AcDbSpline
210
0.0
220
0.0
230
1.0
 70
     8
 71
     3
 72
     9
 73
     5
 74
     0
 42
0.000000001
 43
0.0000000001
 40
0.0
 40
0.0
 40
0.0
 40
0.0
 40
0.5596395963281244
 40
1.0
 40
1.0
 40
1.0
 40
1.0
 10
-1104.433911739579
 20
-499.0554513746501
 30
0.0
 10
-1105.881829825834
 20
-498.6847163214588
 30
0.0
 10
-1108.469062923272
 20
-498.0222631004908
 30
0.0
 10
-1111.130878132208
 20
-497.8260627886156
 30
0.0
 10
-1112.303036152116
 20
-497.7396639400795
 30
0.0
  0
SPLINE
  5
35172
330
2A709
100
AcDbEntity
  8
0
100
AcDbSpline
210
0.0
220
0.0
230
1.0
 70
     8
 71
     3
 72
     9
 73
     5
 74
     0
 42
0.000000001
 43
0.0000000001
 40
0.0
 40
0.0
 40
0.0
 40
0.0
 40
0.5594276725116123
 40
1.0
 40
1.0
 40
1.0
 40
1.0
 10
-1112.303036152116
 20
-497.7396639400795
 30
0.0
 10
-1113.052707542134
 20
-497.7322104729501
 30
0.0
 10
-1114.392776020766
 20
-497.7188870935897
 30
0.0
 10
-1115.673766044106
 20
-498.1043563887324
 30
0.0
 10
-1116.238134800187
 20
-498.274183493264
 30
0.0
  0
SPLINE
  5
35173
330
2A709
100
AcDbEntity
  8
0
100
AcDbSpline
210
0.0
220
0.0
230
1.0
 70
     8
 71
     3
 72
    11
 73
     7
 74
     0
 42
0.000000001
 43
0.0000000001
 40
0.0
 40
0.0
 40
0.0
 40
0.0
 40
0.2938392248128707
 40
0.5579130205430976
 40
0.7679042910603275
 40
1.0
 40
1.0
 40
1.0
 40
1.0
 10
-1116.238134800187
 20
-498.274183493264
 30
0.0
 10
-1116.785890316409
 20
-498.5294041311681
 30
0.0
 10
-1117.825914618057
 20
-499.0139919770772
 30
0.0
 10
-1118.831076193652
 20
-500.2834503268568
 30
0.0
 10
-1119.253526730077
 20
-501.6892186438308
 30
0.0
 10
-1119.171921850902
 20
-502.5917391245129
 30
0.0
 10
-1119.129079281083
 20
-503.065562468164
 30
0.0
  0
SPLINE
  5
35174
330
2A709
100
AcDbEntity
  8
0
100
AcDbSpline
210
0.0
220
0.0
230
1.0
 70
     8
 71
     3
 72
     9
 73
     5
 74
     0
 42
0.000000001
 43
0.0000000001
 40
0.0
 40
0.0
 40
0.0
 40
0.0
 40
0.5591276622267496
 40
1.0
 40
1.0
 40
1.0
 40
1.0
 10
-1119.129079281083
 20
-503.065562468164
 30
0.0
 10
-1118.996030555885
 20
-503.6787079597598
 30
0.0
 10
-1118.758072868972
 20
-504.775318864562
 30
0.0
 10
-1118.30363321647
 20
-505.8003137156084
 30
0.0
 10
-1118.103283344499
 20
-506.2522055917907
 30
0.0
  0
SPLINE
  5
35175
330
2A709
100
AcDbEntity
  8
0
100
AcDbSpline
210
0.0
220
0.0
230
1.0
 70
     8
 71
     3
 72
    10
 73
     6
 74
     0
 42
0.000000001
 43
0.0000000001
 40
0.0
 40
0.0
 40
0.0
 40
0.0
 40
0.2806302525149743
 40
0.5598406097747663
 40
1.0
 40
1.0
 40
1.0
 40
1.0
 10
-1118.103283344499
 20
-506.2522055917907
 30
0.0
 10
-1117.687547450616
 20
-507.0504282811343
 30
0.0
 10
-1116.858179147435
 20
-508.6428349198867
 30
0.0
 10
-1114.966022539702
 20
-511.238775844522
 30
0.0
 10
-1113.447847208816
 20
-512.9721846675856
 30
0.0
 10
-1112.518924175492
 20
-514.0328022056746
 30
0.0
  0
SPLINE
  5
35176
330
2A709
100
AcDbEntity
  8
0
100
AcDbSpline
210
0.0
220
0.0
230
1.0
 70
     8
 71
     3
 72
    10
 73
     6
 74
     0
 42
0.000000001
 43
0.0000000001
 40
0.0
 40
0.0
 40
0.0
 40
0.0
 40
0.2803359197688917
 40
0.5600430649385008
 40
0.9999999999999998
 40
0.9999999999999998
 40
0.9999999999999998
 40
0.9999999999999998
 10
-1112.518924175492
 20
-514.0328022056746
 30
0.0
 10
-1110.977885512657
 20
-515.6908373256628
 30
0.0
 10
-1107.899264632979
 20
-519.0031887044496
 30
0.0
 10
-1101.948087803866
 20
-524.4684034356141
 30
0.0
 10
-1097.42896499647
 20
-528.1199481694456
 30
0.0
 10
-1094.666260181657
 20
-530.3522708231212
 30
0.0
  0
SPLINE
  5
35177
330
2A709
100
AcDbEntity
  8
0
100
AcDbSpline
210
0.0
220
0.0
230
1.0
 70
     8
 71
     3
 72
    10
 73
     6
 74
     0
 42
0.000000001
 43
0.0000000001
 40
0.0
 40
0.0
 40
0.0
 40
0.0
 40
0.2438804758581676
 40
0.5201261566320518
 40
0.9999999999999998
 40
0.9999999999999998
 40
0.9999999999999998
 40
0.9999999999999998
 10
-1094.666260181657
 20
-530.3522708231212
 30
0.0
 10
-1094.058137803156
 20
-530.8349498723
 30
0.0
 10
-1092.761189556731
 20
-531.864363964818
 30
0.0
 10
-1090.223775940852
 20
-533.7872160778024
 30
0.0
 10
-1088.281037147004
 20
-535.2084111902986
 30
0.0
 10
-1087.048071323625
 20
-536.1103775316405
 30
0.0
  0
ARC
  5
35178
330
2A709
100
AcDbEntity
  8
0
100
AcDbCircle
 10
-1085.566421008429
 20
-534.0687169381235
 30
0.0
 40
2.522629080272041
100
AcDbArc
 50
234.0312493598586
 51
53.02439070047004
  0
SPLINE
  5
35179
330
2A709
100
AcDbEntity
  8
0
100
AcDbSpline
210
0.0
220
0.0
230
1.0
 70
     8
 71
     3
 72
    11
 73
     7
 74
     0
 42
0.000000001
 43
0.0000000001
 40
0.0
 40
0.0
 40
0.0
 40
0.0
 40
0.304196226487683
 40
0.5956671970523571
 40
0.808145144968236
 40
1.0
 40
1.0
 40
1.0
 40
1.0
 10
-1084.049123226396
 20
-532.0534022861648
 30
0.0
 10
-1085.240768185402
 20
-531.1486512572846
 30
0.0
 10
-1087.574208743863
 20
-529.3769970995963
 30
0.0
 10
-1090.679395681094
 20
-526.8954341824464
 30
0.0
 10
-1093.308217529753
 20
-524.7031456329314
 30
0.0
 10
-1094.778192152698
 20
-523.3634775632927
 30
0.0
 10
-1095.475691257707
 20
-522.7278085762191
 30
0.0
  0
SPLINE
  5
3517A
330
2A709
100
AcDbEntity
  8
0
100
AcDbSpline
210
0.0
220
0.0
230
1.0
 70
     8
 71
     3
 72
    18
 73
    14
 74
     0
 42
0.000000001
 43
0.0000000001
 40
0.0
 40
0.0
 40
0.0
 40
0.0
 40
0.2432024043216812
 40
0.4544673005247749
 40
0.6309037803014068
 40
0.7270427959550787
 40
0.8063789237396914
 40
0.8568835185776922
 40
0.8974068435863962
 40
0.9253859596967661
 40
0.9491890609573484
 40
0.9726136145236832
 40
1.0
 40
1.0
 40
1.0
 40
1.0
 10
-1095.475691257707
 20
-522.7278085762191
 30
0.0
 10
-1096.613059115472
 20
-521.671091003478
 30
0.0
 10
-1098.738434896448
 20
-519.6964247412434
 30
0.0
 10
-1101.478127514703
 20
-516.7413479978458
 30
0.0
 10
-1103.416971440449
 20
-514.332882417646
 30
0.0
 10
-1104.665353796495
 20
-512.4636682787058
 30
0.0
 10
-1105.354741460782
 20
-511.1931125359369
 30
0.0
 10
-1105.749492517112
 20
-510.1770669987709
 30
0.0
 10
-1105.907330135924
 20
-509.4287000672521
 30
0.0
 10
-1105.882640635384
 20
-508.8317665979521
 30
0.0
 10
-1105.686720336954
 20
-508.378169848449
 30
0.0
 10
-1105.302507099077
 20
-508.0631011868572
 30
0.0
 10
-1104.981723063647
 20
-507.9948094235551
 30
0.0
 10
-1104.808824955216
 20
-507.9580011182952
 30
0.0
  0
SPLINE
  5
3517B
330
2A709
100
AcDbEntity
  8
0
100
AcDbSpline
210
0.0
220
0.0
230
1.0
 70
     8
 71
     3
 72
    11
 73
     7
 74
     0
 42
0.000000001
 43
0.0000000001
 40
0.0
 40
0.0
 40
0.0
 40
0.0
 40
0.2741367462798156
 40
0.5817928139874228
 40
0.8119598388711676
 40
0.9999999999999998
 40
0.9999999999999998
 40
0.9999999999999998
 40
0.9999999999999998
 10
-1104.808824955216
 20
-507.9580011182952
 30
0.0
 10
-1103.779583373507
 20
-507.9369595470962
 30
0.0
 10
-1101.595252508668
 20
-507.8923036040978
 30
0.0
 10
-1098.625978132673
 20
-508.6396634403899
 30
0.0
 10
-1096.028374698035
 20
-509.4168009722015
 30
0.0
 10
-1094.557104981613
 20
-509.9497455224955
 30
0.0
 10
-1093.895572124711
 20
-510.1893755012679
 30
0.0
  0
SPLINE
  5
3517C
330
2A709
100
AcDbEntity
  8
0
100
AcDbSpline
210
0.0
220
0.0
230
1.0
 70
     8
 71
     3
 72
     9
 73
     5
 74
     0
 42
0.000000001
 43
0.0000000001
 40
0.0
 40
0.0
 40
0.0
 40
0.0
 40
0.5599031243316177
 40
1.0
 40
1.0
 40
1.0
 40
1.0
 10
-1093.895572124711
 20
-510.1893755012679
 30
0.0
 10
-1090.378966524229
 20
-511.6257267549262
 30
0.0
 10
-1084.098227146918
 20
-514.1910834947593
 30
0.0
 10
-1078.126747333204
 20
-517.4081304487081
 30
0.0
 10
-1075.498717724076
 20
-518.8239427620101
 30
0.0
  0
SPLINE
  5
3517D
330
2A709
100
AcDbEntity
  8
0
100
AcDbSpline
210
0.0
220
0.0
230
1.0
 70
     8
 71
     3
 72
     9
 73
     5
 74
     0
 42
0.000000001
 43
0.0000000001
 40
0.0
 40
0.0
 40
0.0
 40
0.0
 40
0.5599867647886933
 40
1.0
 40
1.0
 40
1.0
 40
1.0
 10
-1075.498717724076
 20
-518.8239427620101
 30
0.0
 10
-1071.37274672812
 20
-521.178181934225
 30
0.0
 10
-1064.004767241095
 20
-525.3822798169385
 30
0.0
 10
-1056.965792021794
 20
-530.1150256912915
 30
0.0
 10
-1053.868549762956
 20
-532.1974965149165
 30
0.0
  0
SPLINE
  5
3517E
330
2A709
100
AcDbEntity
  8
0
100
AcDbSpline
210
0.0
220
0.0
230
1.0
 70
     8
 71
     3
 72
    11
 73
     7
 74
     0
 42
0.000000001
 43
0.0000000001
 40
0.0
 40
0.0
 40
0.0
 40
0.0
 40
0.2980818464434952
 40
0.5523060888786411
 40
0.7575066614133331
 40
1.0
 40
1.0
 40
1.0
 40
1.0
 10
-1053.868549762956
 20
-532.1974965149165
 30
0.0
 10
-1053.621770005986
 20
-532.352610841739
 30
0.0
 10
-1053.164519878184
 20
-532.6400170967426
 30
0.0
 10
-1052.417498134826
 20
-532.7770782792176
 30
0.0
 10
-1051.737698139877
 20
-532.6236037302406
 30
0.0
 10
-1051.365906391693
 20
-532.3932350207942
 30
0.0
 10
-1051.164525448075
 20
-532.2684558445289
 30
0.0
  0
SPLINE
  5
3517F
330
2A709
100
AcDbEntity
  8
0
100
AcDbSpline
210
0.0
220
0.0
230
1.0
 70
     8
 71
     3
 72
    11
 73
     7
 74
     0
 42
0.000000001
 43
0.0000000001
 40
0.0
 40
0.0
 40
0.0
 40
0.0
 40
0.1723427998713892
 40
0.428418060457383
 40
0.6883583340543784
 40
1.0
 40
1.0
 40
1.0
 40
1.0
 10
-1051.164525448075
 20
-532.2684558445289
 30
0.0
 10
-1050.775206901213
 20
-532.0063690511124
 30
0.0
 10
-1049.807420043413
 20
-531.3548610346442
 30
0.0
 10
-1048.238848534114
 20
-530.3284773664818
 30
0.0
 10
-1046.350895259551
 20
-529.0974968834816
 30
0.0
 10
-1045.044387677735
 20
-528.2514901369467
 30
0.0
 10
-1044.332045017472
 20
-527.7902247720958
 30
0.0
  0
ARC
  5
35180
330
2A709
100
AcDbEntity
  8
0
100
AcDbCircle
 10
-1043.924598254023
 20
-528.419903270882
 30
0.0
 40
0.7500000000200189
100
AcDbArc
 50
315.4734086320897
 51
122.9047114261318
  0
SPLINE
  5
35181
330
2A709
100
AcDbEntity
  8
0
100
AcDbSpline
210
0.0
220
0.0
230
1.0
 70
     8
 71
     3
 72
    16
 73
    12
 74
     0
 42
0.000000001
 43
0.0000000001
 40
0.0
 40
0.0
 40
0.0
 40
0.0
 40
0.1923375902331617
 40
0.3644109620731693
 40
0.5162186945183814
 40
0.6477606097157246
 40
0.7590368025873165
 40
0.8485995023714053
 40
0.9186142097233521
 40
0.9690810441281932
 40
1.0
 40
1.0
 40
1.0
 40
1.0
 10
-1043.389934002152
 20
-528.9458396249938
 30
0.0
 10
-1046.031195204203
 20
-531.6310273329036
 30
0.0
 10
-1051.035440783853
 20
-536.718497934944
 30
0.0
 10
-1058.125274864716
 20
-543.9244409793063
 30
0.0
 10
-1064.380835466196
 20
-550.2810384504519
 30
0.0
 10
-1069.802146190799
 20
-555.7882258469726
 30
0.0
 10
-1074.369375129368
 20
-560.4257391055616
 30
0.0
 10
-1078.092079684509
 20
-564.203896404204
 30
0.0
 10
-1080.980742925218
 20
-567.1320982198121
 30
0.0
 10
-1083.063471528432
 20
-569.2421957480728
 30
0.0
 10
-1084.186296088788
 20
-570.373268894651
 30
0.0
 10
-1084.612863956681
 20
-570.8029704505279
 30
0.0
  0
SPLINE
  5
35182
330
2A709
100
AcDbEntity
  8
0
100
AcDbSpline
210
0.0
220
0.0
230
1.0
 70
     8
 71
     3
 72
     9
 73
     5
 74
     0
 42
0.000000001
 43
0.0000000001
 40
0.0
 40
0.0
 40
0.0
 40
0.0
 40
0.5601297898869397
 40
1.0
 40
1.0
 40
1.0
 40
1.0
 10
-1084.612863956681
 20
-570.8029704505279
 30
0.0
 10
-1085.060344504796
 20
-571.2458689695304
 30
0.0
 10
-1085.859231755974
 20
-572.0365759217566
 30
0.0
 10
-1086.631819733149
 20
-572.8529655192651
 30
0.0
 10
-1086.971658169022
 20
-573.2120709830524
 30
0.0
  0
SPLINE
  5
35183
330
2A709
100
AcDbEntity
  8
0
100
AcDbSpline
210
0.0
220
0.0
230
1.0
 70
     8
 71
     3
 72
    11
 73
     7
 74
     0
 42
0.000000001
 43
0.0000000001
 40
0.0
 40
0.0
 40
0.0
 40
0.0
 40
0.2869324926808883
 40
0.561803447457814
 40
0.7777734121686342
 40
1.0
 40
1.0
 40
1.0
 40
1.0
 10
-1086.971658169022
 20
-573.2120709830524
 30
0.0
 10
-1087.255708464268
 20
-573.6025689336639
 30
0.0
 10
-1087.811868673358
 20
-574.3671498036601
 30
0.0
 10
-1087.958406283309
 20
-575.6975795474682
 30
0.0
 10
-1087.7025800177
 20
-576.8766240778241
 30
0.0
 10
-1087.270917933747
 20
-577.4699757339585
 30
0.0
 10
-1087.05200523018
 20
-577.7708875352145
 30
0.0
  0
SPLINE
  5
35184
330
2A709
100
AcDbEntity
  8
0
100
AcDbSpline
210
0.0
220
0.0
230
1.0
 70
     8
 71
     3
 72
    11
 73
     7
 74
     0
 42
0.000000001
 43
0.0000000001
 40
0.0
 40
0.0
 40
0.0
 40
0.0
 40
0.2811504311150174
 40
0.5535009256916182
 40
0.7714514481460862
 40
1.0
 40
1.0
 40
1.0
 40
1.0
 10
-1087.05200523018
 20
-577.7708875352145
 30
0.0
 10
-1086.708726209348
 20
-578.0776025938211
 30
0.0
 10
-1086.032912713148
 20
-578.6814326081839
 30
0.0
 10
-1084.768940762202
 20
-578.9503568087347
 30
0.0
 10
-1083.595354053912
 20
-578.8206878063756
 30
0.0
 10
-1082.958135121087
 20
-578.4713137183534
 30
0.0
 10
-1082.631963192216
 20
-578.2924803310707
 30
0.0
  0
SPLINE
  5
35185
330
2A709
100
AcDbEntity
  8
0
100
AcDbSpline
210
0.0
220
0.0
230
1.0
 70
     8
 71
     3
 72
     9
 73
     5
 74
     0
 42
0.000000001
 43
0.0000000001
 40
0.0
 40
0.0
 40
0.0
 40
0.0
 40
0.5599886909949769
 40
1.0
 40
1.0
 40
1.0
 40
1.0
 10
-1082.631963192216
 20
-578.2924803310707
 30
0.0
 10
-1082.245554530287
 20
-578.0313759832097
 30
0.0
 10
-1081.555525127645
 20
-577.5651088030754
 30
0.0
 10
-1080.864846577715
 20
-577.0998037992649
 30
0.0
 10
-1080.56094020485
 20
-576.8950643354583
 30
0.0
  0
SPLINE
  5
35186
330
2A709
100
AcDbEntity
  8
0
100
AcDbSpline
210
0.0
220
0.0
230
1.0
 70
     8
 71
     3
 72
    16
 73
    12
 74
     0
 42
0.000000001
 43
0.0000000001
 40
0.0
 40
0.0
 40
0.0
 40
0.0
 40
0.0397611784947959
 40
0.0977464507128784
 40
0.1739521279695575
 40
0.2683800586912091
 40
0.3810320175362131
 40
0.5094068939388171
 40
0.6553610810565642
 40
0.818892658803943
 40
1.0
 40
1.0
 40
1.0
 40
1.0
 10
-1080.56094020485
 20
-576.8950643354583
 30
0.0
 10
-1079.941442204283
 20
-576.4847288855635
 30
0.0
 10
-1078.41850618802
 20
-575.4759852982424
 30
0.0
 10
-1075.707195276998
 20
-573.682391596707
 30
0.0
 10
-1072.143664408497
 20
-571.3253716932558
 30
0.0
 10
-1067.727611790171
 20
-568.4053837300125
 30
0.0
 10
-1062.497985740243
 20
-564.9481472918305
 30
0.0
 10
-1056.464969859917
 20
-560.9600460327165
 30
0.0
 10
-1049.638449836719
 20
-556.4480395797836
 30
0.0
 10
-1041.989640903157
 20
-551.3928803119306
 30
0.0
 10
-1036.616310986683
 20
-547.8417867401476
 30
0.0
 10
-1033.792632518998
 20
-545.9756913000346
 30
0.0
  0
ARC
  5
35187
330
2A709
100
AcDbEntity
  8
0
100
AcDbCircle
 10
-1033.332589774822
 20
-546.6718370064008
 30
0.0
 40
0.8344278177376263
100
AcDbArc
 50
330.7464939632735
 51
123.4590744011197
  0
SPLINE
  5
35188
330
2A709
100
AcDbEntity
  8
0
100
AcDbSpline
210
0.0
220
0.0
230
1.0
 70
     8
 71
     3
 72
    13
 73
     9
 74
     0
 42
0.000000001
 43
0.0000000001
 40
0.0
 40
0.0
 40
0.0
 40
0.0
 40
0.1896349209947578
 40
0.3314594683224473
 40
0.4392693139460453
 40
0.5338245062070781
 40
0.7157883427283104
 40
1.0
 40
1.0
 40
1.0
 40
1.0
 10
-1032.604592739335
 20
-547.0795991235973
 30
0.0
 10
-1032.70044326406
 20
-547.2514026038443
 30
0.0
 10
-1032.867978672635
 20
-547.5516948175245
 30
0.0
 10
-1033.063867079989
 20
-547.9630766702357
 30
0.0
 10
-1033.158837652088
 20
-548.3127894351018
 30
0.0
 10
-1033.104530591336
 20
-548.7194607268138
 30
0.0
 10
-1032.745392303062
 20
-549.1991222584584
 30
0.0
 10
-1032.409677390758
 20
-549.5429725884714
 30
0.0
 10
-1032.205003200761
 20
-549.7526066714454
 30
0.0
  0
SPLINE
  5
35189
330
2A709
100
AcDbEntity
  8
0
100
AcDbSpline
210
0.0
220
0.0
230
1.0
 70
     8
 71
     3
 72
    11
 73
     7
 74
     0
 42
0.000000001
 43
0.0000000001
 40
0.0
 40
0.0
 40
0.0
 40
0.0
 40
0.2348496486805635
 40
0.5170965450993985
 40
0.7542542289237111
 40
1.0
 40
1.0
 40
1.0
 40
1.0
 10
-1032.205003200761
 20
-549.7526066714454
 30
0.0
 10
-1031.366682681888
 20
-550.5353410766947
 30
0.0
 10
-1029.520852183741
 20
-552.2587809837168
 30
0.0
 10
-1026.85967527626
 20
-554.8008614015234
 30
0.0
 10
-1024.527798794464
 20
-557.7740424259718
 30
0.0
 10
-1023.679610940999
 20
-559.9876655398002
 30
0.0
 10
-1023.247974811784
 20
-561.1141609364822
 30
0.0
  0
SPLINE
  5
3518A
330
2A709
100
AcDbEntity
  8
0
100
AcDbSpline
210
0.0
220
0.0
230
1.0
 70
     8
 71
     3
 72
    16
 73
    12
 74
     0
 42
0.000000001
 43
0.0000000001
 40
0.0
 40
0.0
 40
0.0
 40
0.0
 40
0.0417152017826677
 40
0.0777891929420822
 40
0.1121310306373572
 40
0.1484629744463319
 40
0.2300571719878321
 40
0.3340152508600598
 40
0.5404010275617624
 40
0.7598397717420999
 40
1.0
 40
1.0
 40
1.0
 40
1.0
 10
-1023.247974811784
 20
-561.1141609364822
 30
0.0
 10
-1023.23908354999
 20
-561.2686088627778
 30
0.0
 10
-1023.222503405348
 20
-561.5566184857634
 30
0.0
 10
-1023.345452401314
 20
-561.9612842253591
 30
0.0
 10
-1023.58531739335
 20
-562.2824002063317
 30
0.0
 10
-1024.055471591993
 20
-562.6033979831081
 30
0.0
 10
-1024.867183370072
 20
-562.8027665029185
 30
0.0
 10
-1026.314529618619
 20
-562.8258226710058
 30
0.0
 10
-1028.254253609681
 20
-562.5316069150831
 30
0.0
 10
-1030.641227699081
 20
-561.9577592801542
 30
0.0
 10
-1032.25968002338
 20
-561.4556466460453
 30
0.0
 10
-1033.105390964738
 20
-561.1932712012531
 30
0.0
  0
ARC
  5
3518B
330
2A709
100
AcDbEntity
  8
0
100
AcDbCircle
 10
-1033.732054736691
 20
-563.1427781345592
 30
0.0
 40
2.047751736840637
100
AcDbArc
 50
72.17978452923446
 51
250.4434222922767
  0
LWPOLYLINE
  5
3518C
330
2A709
100
AcDbEntity
  8
0
100
AcDbPolyline
 90
        9
 70
   128
 43
0.0
 10
-997.6290640222941
 20
-700.4799662494733
 10
-998.7327036249553
 20
-701.5835630112888
 10
-999.7939047205363
 20
-702.6447492057159
 10
-1000.771897732011
 20
-703.6227459424735
 10
-1001.62913173317
 20
-704.4799650424866
 10
-1002.33258575081
 20
-705.183467488885
 10
-1002.85531848549
 20
-705.7062188500167
 10
-1003.177302776566
 20
-706.0281249100117
 10
-1003.285902439347
 20
-706.1368214303402
  0
LINE
  5
3518D
330
2A709
100
AcDbEntity
  8
0
100
AcDbLine
 10
-1215.417998729936
 20
-494.0047921949553
 30
0.0
 11
-1003.285902439347
 21
-706.1368214303402
 31
0.0
  0
LWPOLYLINE
  5
3518E
330
2A709
100
AcDbEntity
  8
0
100
AcDbPolyline
 90
        9
 70
   128
 43
0.0
 10
-1215.417998729936
 20
-494.0047921949553
 10
-1215.309279857865
 20
-493.8960882240535
 10
-1214.987414776078
 20
-493.5741784387828
 10
-1214.464682041398
 20
-493.0514308029487
 10
-1213.761108814469
 20
-492.347932081826
 10
-1212.90387481331
 20
-491.4907129818129
 10
-1211.925881801835
 20
-490.5127199703529
 10
-1210.864680706254
 20
-489.4515337759258
 10
-1209.761160312882
 20
-488.3479239755797
  0
LINE
  5
3518F
330
2A709
100
AcDbEntity
  8
0
100
AcDbLine
 10
-1209.761160312882
 20
-488.3479239755797
 30
0.0
 11
-1217.761176525346
 21
-488.3479239755797
 31
0.0
  0
LINE
  5
35190
330
2A709
100
AcDbEntity
  8
0
100
AcDbLine
 10
-1217.761176525346
 20
-338.3479329162765
 30
0.0
 11
-1217.761176525346
 21
-488.3479239755797
 31
0.0
  0
LINE
  5
35191
330
2A709
100
AcDbEntity
  8
0
100
AcDbLine
 10
-1217.761176525346
 20
-338.3479329162765
 30
0.0
 11
-1159.761088787309
 21
-338.3479329162765
 31
0.0
  0
LINE
  5
35192
330
2A709
100
AcDbEntity
  8
0
100
AcDbLine
 10
-847.629087864152
 20
-650.4799655044007
 30
0.0
 11
-847.629087864152
 21
-708.4799656981377
 31
0.0
  0
LINE
  5
35193
330
2A709
100
AcDbEntity
  8
0
100
AcDbLine
 10
-847.629087864152
 20
-708.4799656981377
 30
0.0
 11
-997.6290640222941
 21
-708.4799656981377
 31
0.0
  0
LINE
  5
35194
330
2A709
100
AcDbEntity
  8
0
100
AcDbLine
 10
-997.6290640222941
 20
-708.4799656981377
 30
0.0
 11
-997.6290640222941
 21
-700.4799662494733
 31
0.0
  0
LINE
  5
35195
330
2A709
100
AcDbEntity
  8
0
100
AcDbLine
 10
-847.629087864152
 20
733.5200640560706
 30
0.0
 11
-847.629087864152
 21
791.5200325848254
 31
0.0
  0
ARC
  5
35196
330
2A709
100
AcDbEntity
  8
0
100
AcDbCircle
 10
-897.6290974008952
 20
733.5200756086033
 30
0.0
 40
50.00000000000027
100
AcDbArc
 50
314.9999999999263
 51
0.0
  0
LINE
  5
35197
330
2A709
100
AcDbEntity
  8
0
100
AcDbLine
 10
-1124.405759273759
 20
436.0326859356409
 30
0.0
 11
-862.2737106668864
 21
698.1647345425135
 31
0.0
  0
ARC
  5
35198
330
2A709
100
AcDbEntity
  8
0
100
AcDbCircle
 10
-1159.761131756873
 20
471.388041252625
 30
0.0
 40
50.00000000000338
100
AcDbArc
 50
270.0
 51
314.9999999999263
  0
LINE
  5
35199
330
2A709
100
AcDbEntity
  8
0
100
AcDbLine
 10
-1209.761160312882
 20
571.3880392910486
 30
0.0
 11
-1209.761160312882
 21
421.3880631329138
 31
0.0
  0
LINE
  5
3519A
330
2A709
100
AcDbEntity
  8
0
100
AcDbLine
 10
-997.6290640222941
 20
783.5200163723547
 30
0.0
 11
-1209.761160312882
 21
571.3880392910486
 31
0.0
  0
LINE
  5
3519B
330
2A709
100
AcDbEntity
  8
0
100
AcDbLine
 10
-847.629087864152
 20
783.5200163723547
 30
0.0
 11
-997.6290640222941
 21
783.5200163723547
 31
0.0
  0
SPLINE
  5
3519C
330
2A709
100
AcDbEntity
  8
0
100
AcDbSpline
210
0.0
220
0.0
230
1.0
 70
     8
 71
     3
 72
    10
 73
     6
 74
     0
 42
0.000000001
 43
0.0000000001
 40
0.0
 40
0.0
 40
0.0
 40
0.0
 40
0.599296363675263
 40
0.8113596857262875
 40
1.0
 40
1.0
 40
1.0
 40
1.0
 10
-1074.353593288651
 20
608.1765028835779
 30
0.0
 10
-1075.024080513911
 20
606.2001332345444
 30
0.0
 10
-1075.931822221311
 20
603.524417587816
 30
0.0
 10
-1076.769363357707
 20
600.1414932936659
 30
0.0
 10
-1076.977914750685
 20
598.7617867325516
 30
0.0
 10
-1077.076095043412
 20
598.1122586132459
 30
0.0
  0
SPLINE
  5
3519D
330
2A709
100
AcDbEntity
  8
0
100
AcDbSpline
210
0.0
220
0.0
230
1.0
 70
     8
 71
     3
 72
    17
 73
    13
 74
     0
 42
0.000000001
 43
0.0000000001
 40
0.0
 40
0.0
 40
0.0
 40
0.0
 40
0.1480031205434346
 40
0.2612867087137596
 40
0.3496540535619965
 40
0.4332749649238749
 40
0.5141809137594797
 40
0.5996957360515857
 40
0.6900574214929661
 40
0.8111328692603159
 40
0.9199379330496343
 40
1.0
 40
1.0
 40
1.0
 40
1.0
 10
-1077.076095043412
 20
598.1122586132459
 30
0.0
 10
-1077.186249736834
 20
597.2655236917544
 30
0.0
 10
-1077.380718320979
 20
595.7706864209158
 30
0.0
 10
-1077.196400116103
 20
593.7463205501026
 30
0.0
 10
-1076.602493948412
 20
592.1840741961114
 30
0.0
 10
-1075.555255100822
 20
591.1034215239178
 30
0.0
 10
-1074.181109221965
 20
590.5733825924235
 30
0.0
 10
-1072.693203767929
 20
590.4724420134717
 30
0.0
 10
-1070.990217972656
 20
590.6855712900196
 30
0.0
 10
-1069.211464308515
 20
591.1897279185559
 30
0.0
 10
-1067.548454184398
 20
591.8453212977456
 30
0.0
 10
-1066.584055267936
 20
592.3482165301156
 30
0.0
 10
-1066.17523997902
 20
592.5613972546107
 30
0.0
  0
SPLINE
  5
3519E
330
2A709
100
AcDbEntity
  8
0
100
AcDbSpline
210
0.0
220
0.0
230
1.0
 70
     8
 71
     3
 72
    10
 73
     6
 74
     0
 42
0.000000001
 43
0.0000000001
 40
0.0
 40
0.0
 40
0.0
 40
0.0
 40
0.2823485772279326
 40
0.555975576623871
 40
1.0
 40
1.0
 40
1.0
 40
1.0
 10
-1066.17523997902
 20
592.5613972546107
 30
0.0
 10
-1065.215487867237
 20
593.2055006674763
 30
0.0
 10
-1063.325629809544
 20
594.4738115259806
 30
0.0
 10
-1060.162525130312
 20
597.078954029921
 30
0.0
 10
-1058.054040026058
 20
599.1238322478875
 30
0.0
 10
-1056.749480663529
 20
600.3890368343909
 30
0.0
  0
LINE
  5
3519F
330
2A709
100
AcDbEntity
  8
0
100
AcDbLine
 10
-1056.749480663529
 20
600.3890368343909
 30
0.0
 11
-1045.34091323494
 21
593.0739971996717
 31
0.0
  0
SPLINE
  5
351A0
330
2A709
100
AcDbEntity
  8
0
100
AcDbSpline
210
0.0
220
0.0
230
1.0
 70
     8
 71
     3
 72
     9
 73
     5
 74
     0
 42
0.000000001
 43
0.0000000001
 40
0.0
 40
0.0
 40
0.0
 40
0.0
 40
0.5587081814953099
 40
1.0
 40
1.0
 40
1.0
 40
1.0
 10
-1045.34091323494
 20
593.0739971996717
 30
0.0
 10
-1044.987497415386
 20
592.872889776865
 30
0.0
 10
-1044.354938538912
 20
592.5129390378478
 30
0.0
 10
-1043.630725812683
 20
592.5009044791059
 30
0.0
 10
-1043.311136661759
 20
592.4955937267786
 30
0.0
  0
SPLINE
  5
351A1
330
2A709
100
AcDbEntity
  8
0
100
AcDbSpline
210
0.0
220
0.0
230
1.0
 70
     8
 71
     3
 72
    14
 73
    10
 74
     0
 42
0.000000001
 43
0.0000000001
 40
0.0
 40
0.0
 40
0.0
 40
0.0
 40
0.1539289514322376
 40
0.3114315662346722
 40
0.4714844831778175
 40
0.5930496083001101
 40
0.7177750750430386
 40
0.850680181817027
 40
1.0
 40
1.0
 40
1.0
 40
1.0
 10
-1043.311136661759
 20
592.4955937267786
 30
0.0
 10
-1042.94119773004
 20
592.5506229938309
 30
0.0
 10
-1042.192731246927
 20
592.6619591048639
 30
0.0
 10
-1041.219783123313
 20
593.3034217374497
 30
0.0
 10
-1040.528988384431
 20
594.1196757024718
 30
0.0
 10
-1040.136447352
 20
595.0284058650413
 30
0.0
 10
-1040.017696901071
 20
595.9431110557615
 30
0.0
 10
-1040.17376867908
 20
596.9301056855311
 30
0.0
 10
-1040.512054904851
 20
597.5240637805455
 30
0.0
 10
-1040.691035686723
 20
597.8383156658582
 30
0.0
  0
SPLINE
  5
351A2
330
2A709
100
AcDbEntity
  8
0
100
AcDbSpline
210
0.0
220
0.0
230
1.0
 70
     8
 71
     3
 72
    14
 73
    10
 74
     0
 42
0.000000001
 43
0.0000000001
 40
0.0
 40
0.0
 40
0.0
 40
0.0
 40
0.0494267237441255
 40
0.1283439616022583
 40
0.236746164465054
 40
0.3746412677912885
 40
0.5507281156674174
 40
0.7591820827140829
 40
1.0
 40
1.0
 40
1.0
 40
1.0
 10
-1040.691035686723
 20
597.8383156658582
 30
0.0
 10
-1041.071581531018
 20
598.4096262171788
 30
0.0
 10
-1042.059726354862
 20
599.8931204467425
 30
0.0
 10
-1043.881368950089
 20
602.6303475145087
 30
0.0
 10
-1046.383363743101
 20
606.3906783726324
 30
0.0
 10
-1049.632565380678
 20
611.2747800938723
 30
0.0
 10
-1053.65091437933
 20
617.3161327794059
 30
0.0
 10
-1058.460931551286
 20
624.5476454219296
 30
0.0
 10
-1061.916276540483
 20
629.7431144357743
 30
0.0
 10
-1063.76840442299
 20
632.5279805065711
 30
0.0
  0
SPLINE
  5
351A3
330
2A709
100
AcDbEntity
  8
0
100
AcDbSpline
210
0.0
220
0.0
230
1.0
 70
     8
 71
     3
 72
    16
 73
    12
 74
     0
 42
0.000000001
 43
0.0000000001
 40
0.0
 40
0.0
 40
0.0
 40
0.0
 40
0.1889399478468085
 40
0.358472171249552
 40
0.508594176014953
 40
0.6393110097923128
 40
0.750616354646218
 40
0.8410441873309277
 40
0.9127505165201988
 40
0.9657366166571508
 40
1.0
 40
1.0
 40
1.0
 40
1.0
 10
-1063.76840442299
 20
632.5279805065711
 30
0.0
 10
-1060.78166833589
 20
629.5843335599183
 30
0.0
 10
-1055.114990736496
 20
623.9994081675959
 30
0.0
 10
-1047.076225220858
 20
616.0745772895515
 30
0.0
 10
-1039.958162704301
 20
609.0565262378349
 30
0.0
 10
-1033.761266796027
 20
602.9449038680013
 30
0.0
 10
-1028.508443843682
 20
597.7628632819887
 30
0.0
 10
-1024.189149337988
 20
593.499486315055
 30
0.0
 10
-1020.79239761296
 20
590.1440652525106
 30
0.0
 10
-1018.283165890745
 20
587.6639970748492
 30
0.0
 10
-1016.908488855952
 20
586.3000652219762
 30
0.0
 10
-1016.368645130387
 20
585.7644411922865
 30
0.0
  0
SPLINE
  5
351A4
330
2A709
100
AcDbEntity
  8
0
100
AcDbSpline
210
0.0
220
0.0
230
1.0
 70
     8
 71
     3
 72
     9
 73
     5
 74
     0
 42
0.000000001
 43
0.0000000001
 40
0.0
 40
0.0
 40
0.0
 40
0.0
 40
0.5608034439010349
 40
1.0
 40
1.0
 40
1.0
 40
1.0
 10
-1016.368645130387
 20
585.7644411922865
 30
0.0
 10
-1016.187508105468
 20
585.5824909943967
 30
0.0
 10
-1015.864512541004
 20
585.2580454156759
 30
0.0
 10
-1015.510989777358
 20
584.9673068852553
 30
0.0
 10
-1015.355723797074
 20
584.8396155239515
 30
0.0
  0
SPLINE
  5
351A5
330
2A709
100
AcDbEntity
  8
0
100
AcDbSpline
210
0.0
220
0.0
230
1.0
 70
     8
 71
     3
 72
    11
 73
     7
 74
     0
 42
0.000000001
 43
0.0000000001
 40
0.0
 40
0.0
 40
0.0
 40
0.0
 40
0.2820330801110404
 40
0.5559877483645501
 40
0.7739901629900895
 40
1.0
 40
1.0
 40
1.0
 40
1.0
 10
-1015.355723797074
 20
584.8396155239515
 30
0.0
 10
-1014.9912727751
 20
584.6185106209941
 30
0.0
 10
-1014.272809880574
 20
584.1826340312673
 30
0.0
 10
-1013.080907962656
 20
584.1177744791111
 30
0.0
 10
-1012.024833760624
 20
584.3799613252103
 30
0.0
 10
-1011.479394708258
 20
584.7648282890859
 30
0.0
 10
-1011.201756893388
 20
584.9607321621424
 30
0.0
  0
SPLINE
  5
351A6
330
2A709
100
AcDbEntity
  8
0
100
AcDbSpline
210
0.0
220
0.0
230
1.0
 70
     8
 71
     3
 72
    11
 73
     7
 74
     0
 42
0.000000001
 43
0.0000000001
 40
0.0
 40
0.0
 40
0.0
 40
0.0
 40
0.2821533477922262
 40
0.5601979780136678
 40
0.7787038646059851
 40
1.0
 40
1.0
 40
1.0
 40
1.0
 10
-1011.201756893388
 20
584.9607321621424
 30
0.0
 10
-1010.90841170941
 20
585.2698393808368
 30
0.0
 10
-1010.325993034545
 20
585.883552598314
 30
0.0
 10
-1009.992770654666
 20
587.033897021296
 30
0.0
 10
-1009.993076423437
 20
588.1230427835235
 30
0.0
 10
-1010.245437032216
 20
588.7348515257963
 30
0.0
 10
-1010.372417865983
 20
589.0426966549402
 30
0.0
  0
SPLINE
  5
351A7
330
2A709
100
AcDbEntity
  8
0
100
AcDbSpline
210
0.0
220
0.0
230
1.0
 70
     8
 71
     3
 72
     9
 73
     5
 74
     0
 42
0.000000001
 43
0.0000000001
 40
0.0
 40
0.0
 40
0.0
 40
0.0
 40
0.559892101662204
 40
1.0
 40
1.0
 40
1.0
 40
1.0
 10
-1010.372417865983
 20
589.0426966549402
 30
0.0
 10
-1010.511399383969
 20
589.2850832778913
 30
0.0
 10
-1010.759628493739
 20
589.7179999456112
 30
0.0
 10
-1011.033113999808
 20
590.1353787914904
 30
0.0
 10
-1011.15347713112
 20
590.3190705181605
 30
0.0
  0
SPLINE
  5
351A8
330
2A709
100
AcDbEntity
  8
0
100
AcDbSpline
210
0.0
220
0.0
230
1.0
 70
     8
 71
     3
 72
     9
 73
     5
 74
     0
 42
0.000000001
 43
0.0000000001
 40
0.0
 40
0.0
 40
0.0
 40
0.0
 40
0.5600557918678496
 40
1.0
 40
1.0
 40
1.0
 40
1.0
 10
-1011.15347713112
 20
590.3190705181605
 30
0.0
 10
-1012.273836335072
 20
592.0647971628259
 30
0.0
 10
-1014.274278469987
 20
595.1818556238195
 30
0.0
 10
-1016.277471243193
 20
598.2971470178581
 30
0.0
 10
-1017.15876430153
 20
599.6677014233191
 30
0.0
  0
SPLINE
  5
351A9
330
2A709
100
AcDbEntity
  8
0
100
AcDbSpline
210
0.0
220
0.0
230
1.0
 70
     8
 71
     3
 72
    16
 73
    12
 74
     0
 42
0.000000001
 43
0.0000000001
 40
0.0
 40
0.0
 40
0.0
 40
0.0
 40
0.0957636198416745
 40
0.2149643937821881
 40
0.3492337071062969
 40
0.4901898104295272
 40
0.6294609729807764
 40
0.7564964565009062
 40
0.8658866943929483
 40
0.9496988272529316
 40
1.0
 40
1.0
 40
1.0
 40
1.0
 10
-1017.15876430153
 20
599.6677014233191
 30
0.0
 10
-1017.714698598596
 20
600.5316369561824
 30
0.0
 10
-1018.962626353975
 20
602.4709472955055
 30
0.0
 10
-1020.989493073539
 20
605.6219158807635
 30
0.0
 10
-1023.278760095003
 20
609.1805611302825
 30
0.0
 10
-1025.684003409194
 20
612.9206182020261
 30
0.0
 10
-1028.047333461953
 20
616.5953627849575
 30
0.0
 10
-1030.22714602606
 20
619.9855075194846
 30
0.0
 10
-1032.084989182353
 20
622.875335410461
 30
0.0
 10
-1033.497645702759
 20
625.0727233269699
 30
0.0
 10
-1034.274986208351
 20
626.283419154357
 30
0.0
 10
-1034.566539226762
 20
626.7375084759168
 30
0.0
  0
SPLINE
  5
351AA
330
2A709
100
AcDbEntity
  8
0
100
AcDbSpline
210
0.0
220
0.0
230
1.0
 70
     8
 71
     3
 72
     9
 73
     5
 74
     0
 42
0.000000001
 43
0.0000000001
 40
0.0
 40
0.0
 40
0.0
 40
0.0
 40
0.5911511779404063
 40
1.0
 40
1.0
 40
1.0
 40
1.0
 10
-1034.566539226762
 20
626.7375084759168
 30
0.0
 10
-1034.442888983518
 20
626.9435299328888
 30
0.0
 10
-1034.233720419106
 20
627.2920388501424
 30
0.0
 10
-1034.012189589171
 20
627.6328043334778
 30
0.0
 10
-1033.921616970292
 20
627.7721258999281
 30
0.0
  0
SPLINE
  5
351AB
330
2A709
100
AcDbEntity
  8
0
100
AcDbSpline
210
0.0
220
0.0
230
1.0
 70
     8
 71
     3
 72
    10
 73
     6
 74
     0
 42
0.000000001
 43
0.0000000001
 40
0.0
 40
0.0
 40
0.0
 40
0.0
 40
0.280154298642356
 40
0.5599843874808048
 40
1.0
 40
1.0
 40
1.0
 40
1.0
 10
-1033.921616970292
 20
627.7721258999281
 30
0.0
 10
-1032.179401667141
 20
630.3623052983511
 30
0.0
 10
-1028.696987247233
 20
635.5396665986027
 30
0.0
 10
-1022.873105536091
 20
645.0463271505413
 30
0.0
 10
-1019.176123724748
 20
652.1672685093708
 30
0.0
 10
-1016.916292606584
 20
656.5200421215467
 30
0.0
  0
SPLINE
  5
351AC
330
2A709
100
AcDbEntity
  8
0
100
AcDbSpline
210
0.0
220
0.0
230
1.0
 70
     8
 71
     3
 72
    10
 73
     6
 74
     0
 42
0.000000001
 43
0.0000000001
 40
0.0
 40
0.0
 40
0.0
 40
0.0
 40
0.2801695129458167
 40
0.5598933918360151
 40
1.0
 40
1.0
 40
1.0
 40
1.0
 10
-1016.916292606584
 20
656.5200421215467
 30
0.0
 10
-1015.970962566258
 20
658.4839747997667
 30
0.0
 10
-1014.081806115537
 20
662.4087163498971
 30
0.0
 10
-1011.007835065531
 20
669.5647834772152
 30
0.0
 10
-1009.350103733413
 20
674.9191876020322
 30
0.0
 10
-1008.336561619035
 20
678.1928870083338
 30
0.0
  0
SPLINE
  5
351AD
330
2A709
100
AcDbEntity
  8
0
100
AcDbSpline
210
0.0
220
0.0
230
1.0
 70
     8
 71
     3
 72
     9
 73
     5
 74
     0
 42
0.000000001
 43
0.0000000001
 40
0.0
 40
0.0
 40
0.0
 40
0.0
 40
0.5596234280537127
 40
1.0
 40
1.0
 40
1.0
 40
1.0
 10
-1008.336561619035
 20
678.1928870083338
 30
0.0
 10
-1007.965873284054
 20
679.6407675677746
 30
0.0
 10
-1007.303484405412
 20
682.2280083565983
 30
0.0
 10
-1007.107260917306
 20
684.8898144002069
 30
0.0
 10
-1007.020848690263
 20
686.0620114208777
 30
0.0
  0
SPLINE
  5
351AE
330
2A709
100
AcDbEntity
  8
0
100
AcDbSpline
210
0.0
220
0.0
230
1.0
 70
     8
 71
     3
 72
     9
 73
     5
 74
     0
 42
0.000000001
 43
0.0000000001
 40
0.0
 40
0.0
 40
0.0
 40
0.0
 40
0.5593960527291024
 40
1.0
 40
1.0
 40
1.0
 40
1.0
 10
-1007.020848690263
 20
686.0620114208777
 30
0.0
 10
-1007.013378011957
 20
686.8116433879022
 30
0.0
 10
-1007.000023112043
 20
688.1517171395589
 30
0.0
 10
-1007.385528117498
 20
689.432702751792
 30
0.0
 10
-1007.555383144608
 20
689.9971100689417
 30
0.0
  0
SPLINE
  5
351AF
330
2A709
100
AcDbEntity
  8
0
100
AcDbSpline
210
0.0
220
0.0
230
1.0
 70
     8
 71
     3
 72
    11
 73
     7
 74
     0
 42
0.000000001
 43
0.0000000001
 40
0.0
 40
0.0
 40
0.0
 40
0.0
 40
0.2938224373548706
 40
0.5578977554549539
 40
0.7678870741602447
 40
1.0
 40
1.0
 40
1.0
 40
1.0
 10
-1007.555383144608
 20
689.9971100689417
 30
0.0
 10
-1007.810595161332
 20
690.5448203105025
 30
0.0
 10
-1008.295181064946
 20
691.584789610204
 30
0.0
 10
-1009.564585398497
 20
692.5899375094577
 30
0.0
 10
-1010.970365622073
 20
693.0123624175958
 30
0.0
 10
-1011.872908323035
 20
692.9308501797331
 30
0.0
 10
-1012.346762119523
 20
692.8880545498523
 30
0.0
  0
SPLINE
  5
351B0
330
2A709
100
AcDbEntity
  8
0
100
AcDbSpline
210
0.0
220
0.0
230
1.0
 70
     8
 71
     3
 72
     9
 73
     5
 74
     0
 42
0.000000001
 43
0.0000000001
 40
0.0
 40
0.0
 40
0.0
 40
0.0
 40
0.5591200767014812
 40
1.0
 40
1.0
 40
1.0
 40
1.0
 10
-1012.346762119523
 20
692.8880545498523
 30
0.0
 10
-1012.959887068071
 20
692.7550034857977
 30
0.0
 10
-1014.05647610878
 20
692.5170383874265
 30
0.0
 10
-1015.081453628307
 20
692.0626078942423
 30
0.0
 10
-1015.533345638505
 20
691.8622586132459
 30
0.0
  0
SPLINE
  5
351B1
330
2A709
100
AcDbEntity
  8
0
100
AcDbSpline
210
0.0
220
0.0
230
1.0
 70
     8
 71
     3
 72
    10
 73
     6
 74
     0
 42
0.000000001
 43
0.0000000001
 40
0.0
 40
0.0
 40
0.0
 40
0.0
 40
0.280629029156748
 40
0.5598316732821296
 40
1.0
 40
1.0
 40
1.0
 40
1.0
 10
-1015.533345638505
 20
691.8622586132459
 30
0.0
 10
-1016.331580508755
 20
691.446526231657
 30
0.0
 10
-1017.923992970252
 20
690.6171745586235
 30
0.0
 10
-1020.519943584302
 20
688.7249520799796
 30
0.0
 10
-1022.253369209436
 20
687.2067418824717
 30
0.0
 10
-1023.314016758195
 20
686.2777802349573
 30
0.0
  0
SPLINE
  5
351B2
330
2A709
100
AcDbEntity
  8
0
100
AcDbSpline
210
0.0
220
0.0
230
1.0
 70
     8
 71
     3
 72
    10
 73
     6
 74
     0
 42
0.000000001
 43
0.0000000001
 40
0.0
 40
0.0
 40
0.0
 40
0.0
 40
0.2803329982877978
 40
0.5600385272465438
 40
1.0
 40
1.0
 40
1.0
 40
1.0
 10
-1023.314016758195
 20
686.2777802349573
 30
0.0
 10
-1024.972060401917
 20
684.7367898767897
 30
0.0
 10
-1028.284436490408
 20
681.658258359077
 30
0.0
 10
-1033.749555310576
 20
675.7070075869178
 30
0.0
 10
-1037.401084039033
 20
671.1878559560045
 30
0.0
 10
-1039.633410869828
 20
668.4251162411146
 30
0.0
  0
SPLINE
  5
351B3
330
2A709
100
AcDbEntity
  8
0
100
AcDbSpline
210
0.0
220
0.0
230
1.0
 70
     8
 71
     3
 72
    10
 73
     6
 74
     0
 42
0.000000001
 43
0.0000000001
 40
0.0
 40
0.0
 40
0.0
 40
0.0
 40
0.2438721690897656
 40
0.5201176562576345
 40
1.0
 40
1.0
 40
1.0
 40
1.0
 10
-1039.633410869828
 20
668.4251162411146
 30
0.0
 10
-1040.116096620062
 20
667.8170388140552
 30
0.0
 10
-1041.145543243903
 20
666.5201634577442
 30
0.0
 10
-1043.068311523813
 20
663.9827101371975
 30
0.0
 10
-1044.489566671654
 20
662.0400015437826
 30
0.0
 10
-1045.391577183
 20
660.8070465923865
 30
0.0
  0
ARC
  5
351B4
330
2A709
100
AcDbEntity
  8
0
100
AcDbCircle
 10
-1043.349883145907
 20
659.3253648601512
 30
0.0
 40
2.522629080271086
100
AcDbArc
 50
144.0312493595597
 51
323.0243907001524
  0
SPLINE
  5
351B5
330
2A709
100
AcDbEntity
  8
0
100
AcDbSpline
210
0.0
220
0.0
230
1.0
 70
     8
 71
     3
 72
    11
 73
     7
 74
     0
 42
0.000000001
 43
0.0000000001
 40
0.0
 40
0.0
 40
0.0
 40
0.0
 40
0.3041885884256772
 40
0.5956626312071722
 40
0.8081443677224097
 40
1.0
 40
1.0
 40
1.0
 40
1.0
 10
-1041.334527431718
 20
657.8080984951502
 30
0.0
 10
-1040.429802847728
 20
658.9997092631001
 30
0.0
 10
-1038.658169569149
 20
661.3331235738788
 30
0.0
 10
-1036.176512980913
 20
664.4382070536503
 30
0.0
 10
-1033.984400550594
 20
667.0672079275082
 30
0.0
 10
-1032.644701983685
 20
668.5371757152807
 30
0.0
 10
-1032.009023128739
 20
669.2346665264612
 30
0.0
  0
SPLINE
  5
351B6
330
2A709
100
AcDbEntity
  8
0
100
AcDbSpline
210
0.0
220
0.0
230
1.0
 70
     8
 71
     3
 72
    18
 73
    14
 74
     0
 42
0.000000001
 43
0.0000000001
 40
0.0
 40
0.0
 40
0.0
 40
0.0
 40
0.2432061240492209
 40
0.4544698414383328
 40
0.6309056806350726
 40
0.7270427299787844
 40
0.8063795327382084
 40
0.8568833896403116
 40
0.8974071081126751
 40
0.9253849838473316
 40
0.9491887877423613
 40
0.972619120983545
 40
1.0
 40
1.0
 40
1.0
 40
1.0
 10
-1032.009023128739
 20
669.2346665264612
 30
0.0
 10
-1030.952263749954
 20
670.3720269107561
 30
0.0
 10
-1028.977538527913
 20
672.4973681023966
 30
0.0
 10
-1026.022494036202
 20
675.2371184125859
 30
0.0
 10
-1023.614032615173
 20
677.17591669996
 30
0.0
 10
-1021.744860809056
 20
678.4243620950564
 30
0.0
 10
-1020.474298504959
 20
679.1136688575188
 30
0.0
 10
-1019.458270159164
 20
679.5085531316636
 30
0.0
 10
-1018.709877268695
 20
679.6660938807599
 30
0.0
 10
-1018.112943224398
 20
679.641647220551
 30
0.0
 10
-1017.659294435572
 20
679.4456843137067
 30
0.0
 10
-1017.344303642479
 20
679.0614113437459
 30
0.0
 10
-1017.275947020091
 20
678.7406502671347
 30
0.0
 10
-1017.239111362687
 20
678.5678002239637
 30
0.0
  0
SPLINE
  5
351B7
330
2A709
100
AcDbEntity
  8
0
100
AcDbSpline
210
0.0
220
0.0
230
1.0
 70
     8
 71
     3
 72
    11
 73
     7
 74
     0
 42
0.000000001
 43
0.0000000001
 40
0.0
 40
0.0
 40
0.0
 40
0.0
 40
0.2741361888068
 40
0.5817932785849412
 40
0.8119602212617705
 40
1.0
 40
1.0
 40
1.0
 40
1.0
 10
-1017.239111362687
 20
678.5678002239637
 30
0.0
 10
-1017.218061952466
 20
677.5385570232811
 30
0.0
 10
-1017.173389246389
 20
675.3542165361559
 30
0.0
 10
-1017.920877856369
 20
672.3849606834028
 30
0.0
 10
-1018.698014619287
 20
669.7873515648297
 30
0.0
 10
-1019.230959946661
 20
668.3160803249975
 30
0.0
 10
-1019.470590053788
 20
667.6545473934729
 30
0.0
  0
SPLINE
  5
351B8
330
2A709
100
AcDbEntity
  8
0
100
AcDbSpline
210
0.0
220
0.0
230
1.0
 70
     8
 71
     3
 72
     9
 73
     5
 74
     0
 42
0.000000001
 43
0.0000000001
 40
0.0
 40
0.0
 40
0.0
 40
0.0
 40
0.5599012236585547
 40
1.0
 40
1.0
 40
1.0
 40
1.0
 10
-1019.470590053788
 20
667.6545473934729
 30
0.0
 10
-1020.906896552704
 20
664.1379346281155
 30
0.0
 10
-1023.472182067802
 20
657.8571611331772
 30
0.0
 10
-1026.689305311585
 20
651.8857178671805
 30
0.0
 10
-1028.10515731453
 20
649.2576929928236
 30
0.0
  0
SPLINE
  5
351B9
330
2A709
100
AcDbEntity
  8
0
100
AcDbSpline
210
0.0
220
0.0
230
1.0
 70
     8
 71
     3
 72
     9
 73
     5
 74
     0
 42
0.000000001
 43
0.0000000001
 40
0.0
 40
0.0
 40
0.0
 40
0.0
 40
0.5599874851446123
 40
1.0
 40
1.0
 40
1.0
 40
1.0
 10
-1028.10515731453
 20
649.2576929928236
 30
0.0
 10
-1030.459401361579
 20
645.1317252013013
 30
0.0
 10
-1034.66350254148
 20
637.7637609146313
 30
0.0
 10
-1039.396203716627
 20
630.7247693931404
 30
0.0
 10
-1041.478651462785
 20
627.6275250317103
 30
0.0
  0
SPLINE
  5
351BA
330
2A709
100
AcDbEntity
  8
0
100
AcDbSpline
210
0.0
220
0.0
230
1.0
 70
     8
 71
     3
 72
    11
 73
     7
 74
     0
 42
0.000000001
 43
0.0000000001
 40
0.0
 40
0.0
 40
0.0
 40
0.0
 40
0.298088249783309
 40
0.5523080354842224
 40
0.7575117395717707
 40
0.9999999999999998
 40
0.9999999999999998
 40
0.9999999999999998
 40
0.9999999999999998
 10
-1041.478651462785
 20
627.6275250317103
 30
0.0
 10
-1041.633791688298
 20
627.380749591588
 30
0.0
 10
-1041.92124076833
 20
626.9235156729537
 30
0.0
 10
-1042.058285173953
 20
626.1764571145231
 30
0.0
 10
-1041.904688672097
 20
625.4966884557634
 30
0.0
 10
-1041.674344698105
 20
625.1248847795486
 30
0.0
 10
-1041.549580990067
 20
624.9235007168299
 30
0.0
  0
SPLINE
  5
351BB
330
2A709
100
AcDbEntity
  8
0
100
AcDbSpline
210
0.0
220
0.0
230
1.0
 70
     8
 71
     3
 72
    11
 73
     7
 74
     0
 42
0.000000001
 43
0.0000000001
 40
0.0
 40
0.0
 40
0.0
 40
0.0
 40
0.1723399371607533
 40
0.4284154727694117
 40
0.6883530378066496
 40
1.0
 40
1.0
 40
1.0
 40
1.0
 10
-1041.549580990067
 20
624.9235007168299
 30
0.0
 10
-1041.287511976312
 20
624.5341802517414
 30
0.0
 10
-1040.636041270969
 20
623.5663783953696
 30
0.0
 10
-1039.609633940235
 20
621.9978422322292
 30
0.0
 10
-1038.378725513517
 20
620.1098355306003
 30
0.0
 10
-1037.532665161758
 20
618.8033563449844
 30
0.0
 10
-1037.071364818803
 20
618.0910202862269
 30
0.0
  0
ARC
  5
351BC
330
2A709
100
AcDbEntity
  8
0
100
AcDbCircle
 10
-1037.701069478695
 20
617.6835421057603
 30
0.0
 40
0.7500000000196201
100
AcDbArc
 50
225.4734086319791
 51
32.90471142643677
  0
SPLINE
  5
351BD
330
2A709
100
AcDbEntity
  8
0
100
AcDbSpline
210
0.0
220
0.0
230
1.0
 70
     8
 71
     3
 72
    16
 73
    12
 74
     0
 42
0.000000001
 43
0.0000000001
 40
0.0
 40
0.0
 40
0.0
 40
0.0
 40
0.1923394794053071
 40
0.3644126212342548
 40
0.5162180043258184
 40
0.6477599244451381
 40
0.7590355167848446
 40
0.8485998824696981
 40
0.9186153991117699
 40
0.96908207584676
 40
1.0
 40
1.0
 40
1.0
 40
1.0
 10
-1038.226979671708
 20
617.1487900616102
 30
0.0
 10
-1040.912185626039
 20
619.7900926493657
 30
0.0
 10
-1045.999663991904
 20
624.794390271707
 30
0.0
 10
-1053.205600340872
 20
631.8842311470635
 30
0.0
 10
-1059.562217232356
 20
638.1397171384069
 30
0.0
 10
-1065.069371018406
 20
643.5609945188534
 30
0.0
 10
-1069.706909915687
 20
648.128239714757
 30
0.0
 10
-1073.485004576876
 20
651.8510702318945
 30
0.0
 10
-1076.413311051052
 20
654.7396997525047
 30
0.0
 10
-1078.523414353978
 20
656.8224176915955
 30
0.0
 10
-1079.65443101024
 20
657.9452691421156
 30
0.0
 10
-1080.084103046647
 20
658.3718392254286
 30
0.0
  0
SPLINE
  5
351BE
330
2A709
100
AcDbEntity
  8
0
100
AcDbSpline
210
0.0
220
0.0
230
1.0
 70
     8
 71
     3
 72
     9
 73
     5
 74
     0
 42
0.000000001
 43
0.0000000001
 40
0.0
 40
0.0
 40
0.0
 40
0.0
 40
0.56011778545129
 40
1.0
 40
1.0
 40
1.0
 40
1.0
 10
-1080.084103046647
 20
658.3718392254286
 30
0.0
 10
-1080.52704035164
 20
658.8192606135107
 30
0.0
 10
-1081.317833496425
 20
659.6180593656736
 30
0.0
 10
-1082.134129489852
 20
660.3907434511256
 30
0.0
 10
-1082.493203579179
 20
660.7306334377772
 30
0.0
  0
SPLINE
  5
351BF
330
2A709
100
AcDbEntity
  8
0
100
AcDbSpline
210
0.0
220
0.0
230
1.0
 70
     8
 71
     3
 72
    11
 73
     7
 74
     0
 42
0.000000001
 43
0.0000000001
 40
0.0
 40
0.0
 40
0.0
 40
0.0
 40
0.2869350951617393
 40
0.5618187763779938
 40
0.777786640677311
 40
1.0
 40
1.0
 40
1.0
 40
1.0
 10
-1082.493203579179
 20
660.7306334377772
 30
0.0
 10
-1082.883701198465
 20
661.0147040832653
 30
0.0
 10
-1083.648295346582
 20
661.5709142685936
 30
0.0
 10
-1084.978744982123
 20
661.7171728225931
 30
0.0
 10
-1086.157827563344
 20
661.4616175702304
 30
0.0
 10
-1086.751127197109
 20
661.0299105947324
 30
0.0
 10
-1087.05200523018
 20
660.8109804989417
 30
0.0
  0
SPLINE
  5
351C0
330
2A709
100
AcDbEntity
  8
0
100
AcDbSpline
210
0.0
220
0.0
230
1.0
 70
     8
 71
     3
 72
    11
 73
     7
 74
     0
 42
0.000000001
 43
0.0000000001
 40
0.0
 40
0.0
 40
0.0
 40
0.0
 40
0.2811796916844298
 40
0.5535049035261946
 40
0.7714569467279412
 40
1.0
 40
1.0
 40
1.0
 40
1.0
 10
-1087.05200523018
 20
660.8109804989417
 30
0.0
 10
-1087.358749682629
 20
660.4676655157581
 30
0.0
 10
-1087.962579061415
 20
659.7918466986211
 30
0.0
 10
-1088.231499212728
 20
658.5278686506772
 30
0.0
 10
-1088.101777546217
 20
657.354348491257
 30
0.0
 10
-1087.752464509503
 20
656.7171136111555
 30
0.0
 10
-1087.573665081254
 20
656.3909384609632
 30
0.0
  0
SPLINE
  5
351C1
330
2A709
100
AcDbEntity
  8
0
100
AcDbSpline
210
0.0
220
0.0
230
1.0
 70
     8
 71
     3
 72
     9
 73
     5
 74
     0
 42
0.000000001
 43
0.0000000001
 40
0.0
 40
0.0
 40
0.0
 40
0.0
 40
0.5599960349878387
 40
0.9999999999999998
 40
0.9999999999999998
 40
0.9999999999999998
 40
0.9999999999999998
 10
-1087.573665081254
 20
656.3909384609632
 30
0.0
 10
-1087.312531118186
 20
656.0045330272896
 30
0.0
 10
-1086.846217168196
 20
655.3145184387085
 30
0.0
 10
-1086.380911096399
 20
654.6238238369751
 30
0.0
 10
-1086.17617457985
 20
654.3199154735975
 30
0.0
  0
SPLINE
  5
351C2
330
2A709
100
AcDbEntity
  8
0
100
AcDbSpline
210
0.0
220
0.0
230
1.0
 70
     8
 71
     3
 72
    16
 73
    12
 74
     0
 42
0.000000001
 43
0.0000000001
 40
0.0
 40
0.0
 40
0.0
 40
0.0
 40
0.0397609817035346
 40
0.0977457013058036
 40
0.1739517898490303
 40
0.2683816228904921
 40
0.3810316542873063
 40
0.5094085263617484
 40
0.6553610253252887
 40
0.8188926990509754
 40
1.0
 40
1.0
 40
1.0
 40
1.0
 10
-1086.17617457985
 20
654.3199154735975
 30
0.0
 10
-1085.765844751928
 20
653.700418682185
 30
0.0
 10
-1084.757117726571
 20
652.1774897770137
 30
0.0
 10
-1082.9636022259
 20
649.4661369966397
 30
0.0
 10
-1080.606474941705
 20
645.9026407007749
 30
0.0
 10
-1077.686615615406
 20
641.486498093318
 30
0.0
 10
-1074.229232454519
 20
636.2569293126853
 30
0.0
 10
-1070.241283776406
 20
630.223853945934
 30
0.0
 10
-1065.729145135316
 20
623.3974180167988
 30
0.0
 10
-1060.674043612431
 20
615.7486139333541
 30
0.0
 10
-1057.122953863691
 20
610.375284773645
 30
0.0
 10
-1055.256861149064
 20
607.55160778776
 30
0.0
  0
ARC
  5
351C3
330
2A709
100
AcDbEntity
  8
0
100
AcDbCircle
 10
-1055.953003214199
 20
607.0915336265516
 30
0.0
 40
0.8344278177374595
100
AcDbArc
 50
240.7464939631999
 51
33.45907440111974
  0
SPLINE
  5
351C4
330
2A709
100
AcDbEntity
  8
0
100
AcDbSpline
210
0.0
220
0.0
230
1.0
 70
     8
 71
     3
 72
    13
 73
     9
 74
     0
 42
0.000000001
 43
0.0000000001
 40
0.0
 40
0.0
 40
0.0
 40
0.0
 40
0.1896507652542798
 40
0.3314295711945448
 40
0.4392494958212441
 40
0.5338282135803824
 40
0.715766625447503
 40
1.0
 40
1.0
 40
1.0
 40
1.0
 10
-1056.360739170304
 20
606.3635680080969
 30
0.0
 10
-1056.532561741849
 20
606.4594352139956
 30
0.0
 10
-1056.832835147674
 20
606.626970667412
 30
0.0
 10
-1057.244275707191
 20
606.8226744941475
 30
0.0
 10
-1057.593932531796
 20
606.9178469578819
 30
0.0
 10
-1058.000645681626
 20
606.8635155179927
 30
0.0
 10
-1058.480305115248
 20
606.5043327940784
 30
0.0
 10
-1058.82413174901
 20
606.1685761576791
 30
0.0
 10
-1059.033769069901
 20
605.9638592602259
 30
0.0
  0
SPLINE
  5
351C5
330
2A709
100
AcDbEntity
  8
0
100
AcDbSpline
210
0.0
220
0.0
230
1.0
 70
     8
 71
     3
 72
    11
 73
     7
 74
     0
 42
0.000000001
 43
0.0000000001
 40
0.0
 40
0.0
 40
0.0
 40
0.0
 40
0.2348464010178132
 40
0.5170990510044584
 40
0.754251270999207
 40
1.0
 40
1.0
 40
1.0
 40
1.0
 10
-1059.033769069901
 20
605.9638592602259
 30
0.0
 10
-1059.816532695542
 20
605.1255928621522
 30
0.0
 10
-1061.540069127099
 20
603.2798470595571
 30
0.0
 10
-1064.081965320561
 20
600.6185130239664
 30
0.0
 10
-1067.055270113393
 20
598.2867806403501
 30
0.0
 10
-1069.268866724269
 20
597.4385933556313
 30
0.0
 10
-1070.395368038407
 20
597.0069500805457
 30
0.0
  0
SPLINE
  5
351C6
330
2A709
100
AcDbEntity
  8
0
100
AcDbSpline
210
0.0
220
0.0
230
1.0
 70
     8
 71
     3
 72
    16
 73
    12
 74
     0
 42
0.000000001
 43
0.0000000001
 40
0.0
 40
0.0
 40
0.0
 40
0.0
 40
0.0417127740281874
 40
0.077784421899527
 40
0.112124856384778
 40
0.1484574240430604
 40
0.2300517592485125
 40
0.3340106122798762
 40
0.5403865903341099
 40
0.7598275146935685
 40
1.0
 40
1.0
 40
1.0
 40
1.0
 10
-1070.395368038407
 20
597.0069500805457
 30
0.0
 10
-1070.549805981012
 20
596.9980587006993
 30
0.0
 10
-1070.837796083906
 20
596.9814783879464
 30
0.0
 10
-1071.242437034634
 20
597.1044287667664
 30
0.0
 10
-1071.563525453057
 20
597.3443028176534
 30
0.0
 10
-1071.884537897065
 20
597.8144386450495
 30
0.0
 10
-1072.083867646164
 20
598.6261651511795
 30
0.0
 10
-1072.106994706257
 20
600.0734590233242
 30
0.0
 10
-1071.812794738296
 20
602.0131582581798
 30
0.0
 10
-1071.238879665958
 20
604.4001139438169
 30
0.0
 10
-1070.736778433136
 20
606.0186138382541
 30
0.0
 10
-1070.474403797379
 20
606.8643662334925
 30
0.0
  0
ARC
  5
351C7
330
2A709
100
AcDbEntity
  8
0
100
AcDbCircle
 10
-1072.42394434235
 20
607.4909985884278
 30
0.0
 40
2.047751736841601
100
AcDbArc
 50
342.1797845286923
 51
160.4434222921752
  0
LINE
  5
351C8
330
2A709
100
AcDbEntity
  8
0
100
AcDbLine
 10
-1159.761088787309
 20
421.3880631329138
 30
0.0
 11
-1217.761176525346
 21
421.3880631329138
 31
0.0
  0
LINE
  5
351C9
330
2A709
100
AcDbEntity
  8
0
100
AcDbLine
 10
-1217.761176525346
 20
421.3880631329138
 30
0.0
 11
-1217.761176525346
 21
571.3880392910486
 31
0.0
  0
LINE
  5
351CA
330
2A709
100
AcDbEntity
  8
0
100
AcDbLine
 10
-1217.761176525346
 20
571.3880392910486
 30
0.0
 11
-1209.761160312882
 21
571.3880392910486
 31
0.0
  0
LWPOLYLINE
  5
351CB
330
2A709
100
AcDbEntity
  8
0
100
AcDbPolyline
 90
        8
 70
   128
 43
0.0
 10
-1209.761160312882
 20
571.3880392910486
 10
-1210.864680706254
 20
572.4916788937098
 10
-1211.925881801835
 20
573.5528799892835
 10
-1212.90387481331
 20
574.5308730007654
 10
-1213.761108814469
 20
575.3879877926428
 10
-1214.464682041398
 20
576.0915610195643
 10
-1214.987414776078
 20
576.6142937542517
 10
-1215.417998729936
 20
577.0448777081091
  0
LINE
  5
351CC
330
2A709
100
AcDbEntity
  8
0
100
AcDbLine
 10
-1003.285902439347
 20
789.1769739986975
 30
0.0
 11
-1215.417998729936
 21
577.0448777081091
 31
0.0
  0
LWPOLYLINE
  5
351CD
330
2A709
100
AcDbEntity
  8
0
100
AcDbPolyline
 90
        7
 70
   128
 43
0.0
 10
-1003.285902439347
 20
789.1769739986975
 10
-1003.177302776566
 20
789.0682551266272
 10
-1002.85531848549
 20
788.7462708355578
 10
-1002.33258575081
 20
788.2235381008704
 10
-1000.771897732011
 20
786.6628500820715
 10
-999.7939047205363
 20
785.6848570705897
 10
-997.6290640222941
 20
783.5200163723547
  0
LINE
  5
351CE
330
2A709
100
AcDbEntity
  8
0
100
AcDbLine
 10
-997.6290640222941
 20
783.5200163723547
 30
0.0
 11
-997.6290640222941
 21
791.5200325848254
 31
0.0
  0
LINE
  5
351CF
330
2A709
100
AcDbEntity
  8
0
100
AcDbLine
 10
-847.629087864152
 20
791.5200325848254
 30
0.0
 11
-997.6290640222941
 21
791.5200325848254
 31
0.0
  0
LINE
  5
351D0
330
2A709
100
AcDbEntity
  8
0
100
AcDbLine
 10
1124.238735736617
 20
421.388061415877
 30
0.0
 11
1182.238823474654
 21
421.388061415877
 31
0.0
  0
ARC
  5
351D1
330
2A709
100
AcDbEntity
  8
0
100
AcDbCircle
 10
1124.238778706152
 20
471.38803953561
 30
0.0
 40
49.99999999999959
100
AcDbArc
 50
225.0000000000737
 51
270.0
  0
LINE
  5
351D2
330
2A709
100
AcDbEntity
  8
0
100
AcDbLine
 10
826.7513576161945
 20
698.1647328254767
 30
0.0
 11
1088.883406223067
 21
436.0326842186041
 31
0.0
  0
ARC
  5
351D3
330
2A709
100
AcDbEntity
  8
0
100
AcDbCircle
 10
862.1067443501742
 20
733.5200738915664
 30
0.0
 40
50.00000000000266
100
AcDbArc
 50
180.0
 51
225.0000000000737
  0
LINE
  5
351D4
330
2A709
100
AcDbEntity
  8
0
100
AcDbLine
 10
812.106734813431
 20
791.5200308677886
 30
0.0
 11
812.106734813431
 21
733.5200623390337
 31
0.0
  0
LINE
  5
351D5
330
2A709
100
AcDbEntity
  8
0
100
AcDbLine
 10
962.1067109716022
 20
783.5200146553179
 30
0.0
 11
812.106734813431
 21
783.5200146553179
 31
0.0
  0
LINE
  5
351D6
330
2A709
100
AcDbEntity
  8
0
100
AcDbLine
 10
1174.23880726219
 20
571.3880375740118
 30
0.0
 11
962.1067109716022
 21
783.5200146553179
 31
0.0
  0
LINE
  5
351D7
330
2A709
100
AcDbEntity
  8
0
100
AcDbLine
 10
1174.23880726219
 20
421.388061415877
 30
0.0
 11
1174.23880726219
 21
571.3880375740118
 31
0.0
  0
SPLINE
  5
351D8
330
2A709
100
AcDbEntity
  8
0
100
AcDbSpline
210
0.0
220
0.0
230
1.0
 70
     8
 71
     3
 72
    10
 73
     6
 74
     0
 42
0.000000001
 43
0.0000000001
 40
0.0
 40
0.0
 40
0.0
 40
0.0
 40
0.599296363675263
 40
0.8113596857262875
 40
1.0
 40
1.0
 40
1.0
 40
1.0
 10
998.8951745641315
 20
648.1124476310797
 30
0.0
 10
996.9188049150762
 20
648.7829348563609
 30
0.0
 10
994.2430892683406
 20
649.6906765637249
 30
0.0
 10
990.8601649742122
 20
650.5282177001427
 30
0.0
 10
989.4804584130834
 20
650.7367690931205
 30
0.0
 10
988.8309302937777
 20
650.8349493858477
 30
0.0
  0
SPLINE
  5
351D9
330
2A709
100
AcDbEntity
  8
0
100
AcDbSpline
210
0.0
220
0.0
230
1.0
 70
     8
 71
     3
 72
    17
 73
    13
 74
     0
 42
0.000000001
 43
0.0000000001
 40
0.0
 40
0.0
 40
0.0
 40
0.0
 40
0.1480032116044974
 40
0.2612803065434726
 40
0.3496446974746623
 40
0.4332750809531716
 40
0.514174366283606
 40
0.5996957679834197
 40
0.6900502805265606
 40
0.8111271140106609
 40
0.9199382109877403
 40
1.0
 40
1.0
 40
1.0
 40
1.0
 10
988.8309302937777
 20
650.8349493858477
 30
0.0
 10
987.9841913172057
 20
650.9451855213919
 30
0.0
 10
986.4893844345424
 20
651.1397929963277
 30
0.0
 10
984.4651157353437
 20
650.9551615981108
 30
0.0
 10
982.9027855382664
 20
650.3614752836438
 30
0.0
 10
981.8221629486725
 20
649.3141696353996
 30
0.0
 10
981.2920139285925
 20
647.9400197196301
 30
0.0
 10
981.1911256512466
 20
646.4521347963309
 30
0.0
 10
981.4042206824597
 20
644.7491353262157
 30
0.0
 10
981.9085821237605
 20
642.9704292212554
 30
0.0
 10
982.564079793352
 20
641.3073360964117
 30
0.0
 10
983.0670028580135
 20
640.342908072409
 30
0.0
 10
983.2801881444247
 20
639.9340943214556
 30
0.0
  0
SPLINE
  5
351DA
330
2A709
100
AcDbEntity
  8
0
100
AcDbSpline
210
0.0
220
0.0
230
1.0
 70
     8
 71
     3
 72
    10
 73
     6
 74
     0
 42
0.000000001
 43
0.0000000001
 40
0.0
 40
0.0
 40
0.0
 40
0.0
 40
0.2823387494269969
 40
0.5559768570016877
 40
1.0
 40
1.0
 40
1.0
 40
1.0
 10
983.2801881444247
 20
639.9340943214556
 30
0.0
 10
983.9242580046192
 20
638.9743872138569
 30
0.0
 10
985.1925498606943
 20
637.084547642029
 30
0.0
 10
987.7975468423173
 20
633.9213907985468
 30
0.0
 10
989.8424867405628
 20
631.8129589817399
 30
0.0
 10
991.1077085149081
 20
630.5084542152544
 30
0.0
  0
LINE
  5
351DB
330
2A709
100
AcDbEntity
  8
0
100
AcDbLine
 10
991.1077085149081
 20
630.5084542152544
 30
0.0
 11
983.7926688802035
 21
619.0998867866583
 31
0.0
  0
SPLINE
  5
351DC
330
2A709
100
AcDbEntity
  8
0
100
AcDbSpline
210
0.0
220
0.0
230
1.0
 70
     8
 71
     3
 72
     9
 73
     5
 74
     0
 42
0.000000001
 43
0.0000000001
 40
0.0
 40
0.0
 40
0.0
 40
0.0
 40
0.5586799452009116
 40
1.0
 40
1.0
 40
1.0
 40
1.0
 10
983.7926688802035
 20
619.0998867866583
 30
0.0
 10
983.5915481054181
 20
618.7464718343253
 30
0.0
 10
983.2315552749278
 20
618.1138825399102
 30
0.0
 10
983.2196421274639
 20
617.3896217955626
 30
0.0
 10
983.2143846165926
 20
617.0699910041876
 30
0.0
  0
SPLINE
  5
351DD
330
2A709
100
AcDbEntity
  8
0
100
AcDbSpline
210
0.0
220
0.0
230
1.0
 70
     8
 71
     3
 72
    14
 73
    10
 74
     0
 42
0.000000001
 43
0.0000000001
 40
0.0
 40
0.0
 40
0.0
 40
0.0
 40
0.1539168361724694
 40
0.3114148057753734
 40
0.4714718959198437
 40
0.5930553827356702
 40
0.7177677163428457
 40
0.8506762884692831
 40
1.0
 40
1.0
 40
1.0
 40
1.0
 10
983.2143846165926
 20
617.0699910041876
 30
0.0
 10
983.269428514097
 20
616.7000987635837
 30
0.0
 10
983.3807969976987
 20
615.9517081187877
 30
0.0
 10
984.0220775621784
 20
614.9787270908419
 30
0.0
 10
984.8383752846348
 20
614.2879239686517
 30
0.0
 10
985.7471295326321
 20
613.8954611807567
 30
0.0
 10
986.6618196825802
 20
613.7766619857575
 30
0.0
 10
987.6487781864488
 20
613.9327465643437
 30
0.0
 10
988.242735744927
 20
614.2710299560567
 30
0.0
 10
988.55698734639
 20
614.4500092384405
 30
0.0
  0
SPLINE
  5
351DE
330
2A709
100
AcDbEntity
  8
0
100
AcDbSpline
210
0.0
220
0.0
230
1.0
 70
     8
 71
     3
 72
    14
 73
    10
 74
     0
 42
0.000000001
 43
0.0000000001
 40
0.0
 40
0.0
 40
0.0
 40
0.0
 40
0.0494268020949342
 40
0.1283425797441352
 40
0.2367489214670686
 40
0.3746402764300778
 40
0.5507313703403707
 40
0.7591856678264356
 40
1.0
 40
1.0
 40
1.0
 40
1.0
 10
988.55698734639
 20
614.4500092384405
 30
0.0
 10
989.128294787959
 20
614.8305597550643
 30
0.0
 10
990.6117626184787
 20
615.8187045056256
 30
0.0
 10
993.3491183521473
 20
617.6402134837844
 30
0.0
 10
997.1093510367573
 20
620.1423160616977
 30
0.0
 10
1001.993565313729
 20
623.3914479900777
 30
0.0
 10
1008.03486446516
 20
627.4098774590092
 30
0.0
 10
1015.266390702025
 20
632.2198741992543
 30
0.0
 10
1020.461825656973
 20
635.6751709142772
 30
0.0
 10
1023.246652187088
 20
637.5272587654253
 30
0.0
  0
SPLINE
  5
351DF
330
2A709
100
AcDbEntity
  8
0
100
AcDbSpline
210
0.0
220
0.0
230
1.0
 70
     8
 71
     3
 72
    16
 73
    12
 74
     0
 42
0.000000001
 43
0.0000000001
 40
0.0
 40
0.0
 40
0.0
 40
0.0
 40
0.1889389127739418
 40
0.3584700946655362
 40
0.5085948219865866
 40
0.6393092899640874
 40
0.7506160335952617
 40
0.8410439976000782
 40
0.9127504178800897
 40
0.9657353124471997
 40
1.0
 40
1.0
 40
1.0
 40
1.0
 10
1023.246652187088
 20
637.5272587654253
 30
0.0
 10
1020.302990930482
 20
634.5405765210525
 30
0.0
 10
1014.718040144922
 20
628.874002858909
 30
0.0
 10
1006.793336517708
 20
620.8351118994469
 30
0.0
 10
999.7752562890019
 20
613.7171173373062
 30
0.0
 10
993.6636825146925
 20
607.5201342754008
 30
0.0
 10
988.4814829893949
 20
602.2675073876235
 30
0.0
 10
984.2183067834776
 20
597.9479750020982
 30
0.0
 10
980.8628893890199
 20
594.5512588242709
 30
0.0
 10
978.3827633572292
 20
592.0420846229608
 30
0.0
 10
977.0187777826576
 20
590.6674612657807
 30
0.0
 10
976.4831128728182
 20
590.1276186821124
 30
0.0
  0
SPLINE
  5
351E0
330
2A709
100
AcDbEntity
  8
0
100
AcDbSpline
210
0.0
220
0.0
230
1.0
 70
     8
 71
     3
 72
     9
 73
     5
 74
     0
 42
0.000000001
 43
0.0000000001
 40
0.0
 40
0.0
 40
0.0
 40
0.0
 40
0.5608034439010349
 40
1.0
 40
1.0
 40
1.0
 40
1.0
 10
976.4831128728182
 20
590.1276186821124
 30
0.0
 10
976.301162674914
 20
589.9464816571999
 30
0.0
 10
975.9767170962076
 20
589.6234860927433
 30
0.0
 10
975.6859785657798
 20
589.2699633290976
 30
0.0
 10
975.5582872044833
 20
589.1146973487848
 30
0.0
  0
SPLINE
  5
351E1
330
2A709
100
AcDbEntity
  8
0
100
AcDbSpline
210
0.0
220
0.0
230
1.0
 70
     8
 71
     3
 72
    11
 73
     7
 74
     0
 42
0.000000001
 43
0.0000000001
 40
0.0
 40
0.0
 40
0.0
 40
0.0
 40
0.2820576974142158
 40
0.5559865393668641
 40
0.7739895475895708
 40
1.0
 40
1.0
 40
1.0
 40
1.0
 10
975.5582872044833
 20
589.1146973487848
 30
0.0
 10
975.3371819345121
 20
588.7502062691346
 30
0.0
 10
974.9013436113383
 20
588.0317286815262
 30
0.0
 10
974.8364462481186
 20
586.8398441781246
 30
0.0
 10
975.0986352715189
 20
585.7838069001154
 30
0.0
 10
975.4835007339206
 20
585.2383681209394
 30
0.0
 10
975.679403842696
 20
584.9607304451056
 30
0.0
  0
SPLINE
  5
351E2
330
2A709
100
AcDbEntity
  8
0
100
AcDbSpline
210
0.0
220
0.0
230
1.0
 70
     8
 71
     3
 72
    11
 73
     7
 74
     0
 42
0.000000001
 43
0.0000000001
 40
0.0
 40
0.0
 40
0.0
 40
0.0
 40
0.282146223901401
 40
0.5601838339701288
 40
0.7786842036614667
 40
1.0
 40
1.0
 40
1.0
 40
1.0
 10
975.679403842696
 20
584.9607304451056
 30
0.0
 10
975.9885109301613
 20
584.6673856923807
 30
0.0
 10
976.6022238871446
 20
584.0849678737286
 30
0.0
 10
977.7525701048798
 20
583.7517395949398
 30
0.0
 10
978.8417487284242
 20
583.7520632786763
 30
0.0
 10
979.453602371832
 20
584.0044102491374
 30
0.0
 10
979.7614875447543
 20
584.1313914177008
 30
0.0
  0
SPLINE
  5
351E3
330
2A709
100
AcDbEntity
  8
0
100
AcDbSpline
210
0.0
220
0.0
230
1.0
 70
     8
 71
     3
 72
     9
 73
     5
 74
     0
 42
0.000000001
 43
0.0000000001
 40
0.0
 40
0.0
 40
0.0
 40
0.0
 40
0.5598243740207857
 40
1.0
 40
1.0
 40
1.0
 40
1.0
 10
979.7614875447543
 20
584.1313914177008
 30
0.0
 10
980.0038270402074
 20
584.2703848740057
 30
0.0
 10
980.4367118996234
 20
584.5186653397395
 30
0.0
 10
980.8541259271223
 20
584.7920940355179
 30
0.0
 10
981.0378614079745
 20
584.9124506828375
 30
0.0
  0
SPLINE
  5
351E4
330
2A709
100
AcDbEntity
  8
0
100
AcDbSpline
210
0.0
220
0.0
230
1.0
 70
     8
 71
     3
 72
     9
 73
     5
 74
     0
 42
0.000000001
 43
0.0000000001
 40
0.0
 40
0.0
 40
0.0
 40
0.0
 40
0.5600518199267893
 40
1.0
 40
1.0
 40
1.0
 40
1.0
 10
981.0378614079745
 20
584.9124506828375
 30
0.0
 10
982.7835450641941
 20
586.0328149521519
 30
0.0
 10
985.9005488736801
 20
588.0332803188139
 30
0.0
 10
989.0158166952678
 20
590.0364479149502
 30
0.0
 10
990.3863731038363
 20
590.9177378532477
 30
0.0
  0
SPLINE
  5
351E5
330
2A709
100
AcDbEntity
  8
0
100
AcDbSpline
210
0.0
220
0.0
230
1.0
 70
     8
 71
     3
 72
    16
 73
    12
 74
     0
 42
0.000000001
 43
0.0000000001
 40
0.0
 40
0.0
 40
0.0
 40
0.0
 40
0.095761615767439
 40
0.2149675089546005
 40
0.3492348186886491
 40
0.4901929258720779
 40
0.6294589697769668
 40
0.7564964568079427
 40
0.8658866948819717
 40
0.9497019438384761
 40
1.0
 40
1.0
 40
1.0
 40
1.0
 10
990.3863731038363
 20
590.9177378532477
 30
0.0
 10
991.2503157980463
 20
591.473621282872
 30
0.0
 10
993.1897109029597
 20
592.7214790510915
 30
0.0
 10
996.3406057064203
 20
594.7484824900166
 30
0.0
 10
999.8994359647113
 20
597.0375634001539
 30
0.0
 10
1003.639305241704
 20
599.4429971755598
 30
0.0
 10
1007.314131334344
 20
601.806178433857
 30
0.0
 10
1010.70415004393
 20
603.9861251741386
 30
0.0
 10
1013.594014223032
 20
605.8440134764241
 30
0.0
 10
1015.791480220046
 20
607.2565484614606
 30
0.0
 10
1017.002134536313
 20
608.0339535877792
 30
0.0
 10
1017.456180156449
 20
608.3255127784869
 30
0.0
  0
SPLINE
  5
351E6
330
2A709
100
AcDbEntity
  8
0
100
AcDbSpline
210
0.0
220
0.0
230
1.0
 70
     8
 71
     3
 72
     9
 73
     5
 74
     0
 42
0.000000001
 43
0.0000000001
 40
0.0
 40
0.0
 40
0.0
 40
0.0
 40
0.5912339174971441
 40
1.0
 40
1.0
 40
1.0
 40
1.0
 10
1017.456180156449
 20
608.3255127784869
 30
0.0
 10
1017.662249759778
 20
608.2018758916529
 30
0.0
 10
1018.010791339075
 20
607.9927591898595
 30
0.0
 10
1018.351519475116
 20
607.7711690538344
 30
0.0
 10
1018.49079758046
 20
607.6805905220026
 30
0.0
  0
SPLINE
  5
351E7
330
2A709
100
AcDbEntity
  8
0
100
AcDbSpline
210
0.0
220
0.0
230
1.0
 70
     8
 71
     3
 72
    10
 73
     6
 74
     0
 42
0.000000001
 43
0.0000000001
 40
0.0
 40
0.0
 40
0.0
 40
0.0
 40
0.2801562364681439
 40
0.5599844371298623
 40
1.0
 40
1.0
 40
1.0
 40
1.0
 10
1018.49079758046
 20
607.6805905220026
 30
0.0
 10
1021.080966436631
 20
605.9383188383872
 30
0.0
 10
1026.258271312203
 20
602.4558155024497
 30
0.0
 10
1035.765052341543
 20
596.632126382472
 30
0.0
 10
1042.885953522614
 20
592.9351188359651
 30
0.0
 10
1047.238713802078
 20
590.6752661583014
 30
0.0
  0
SPLINE
  5
351E8
330
2A709
100
AcDbEntity
  8
0
100
AcDbSpline
210
0.0
220
0.0
230
1.0
 70
     8
 71
     3
 72
    10
 73
     6
 74
     0
 42
0.000000001
 43
0.0000000001
 40
0.0
 40
0.0
 40
0.0
 40
0.0
 40
0.2801741554344868
 40
0.5598933531028451
 40
1.0
 40
1.0
 40
1.0
 40
1.0
 10
1047.238713802078
 20
590.6752661583014
 30
0.0
 10
1049.202689764446
 20
589.7299441027426
 30
0.0
 10
1053.127452508146
 20
587.8408350425888
 30
0.0
 10
1060.283477201861
 20
584.7667675763513
 30
0.0
 10
1065.637854365261
 20
583.1090658251269
 30
0.0
 10
1068.911558688887
 20
582.0955351707453
 30
0.0
  0
SPLINE
  5
351E9
330
2A709
100
AcDbEntity
  8
0
100
AcDbSpline
210
0.0
220
0.0
230
1.0
 70
     8
 71
     3
 72
     9
 73
     5
 74
     0
 42
0.000000001
 43
0.0000000001
 40
0.0
 40
0.0
 40
0.0
 40
0.0
 40
0.5596403955245766
 40
1.0
 40
1.0
 40
1.0
 40
1.0
 10
1068.911558688887
 20
582.0955351707453
 30
0.0
 10
1070.359475417797
 20
581.7247832273642
 30
0.0
 10
1072.946702395165
 20
581.0623007719113
 30
0.0
 10
1075.608524272371
 20
580.8661841014327
 30
0.0
 10
1076.780683101395
 20
580.7798222419733
 30
0.0
  0
SPLINE
  5
351EA
330
2A709
100
AcDbEntity
  8
0
100
AcDbSpline
210
0.0
220
0.0
230
1.0
 70
     8
 71
     3
 72
     9
 73
     5
 74
     0
 42
0.000000001
 43
0.0000000001
 40
0.0
 40
0.0
 40
0.0
 40
0.0
 40
0.5594294987319027
 40
1.0
 40
1.0
 40
1.0
 40
1.0
 10
1076.780683101395
 20
580.7798222419733
 30
0.0
 10
1077.530353016227
 20
580.7723562475439
 30
0.0
 10
1078.870414483339
 20
580.7590105186245
 30
0.0
 10
1080.151412021842
 20
581.1444321053714
 30
0.0
 10
1080.715781749495
 20
581.314237487044
 30
0.0
  0
SPLINE
  5
351EB
330
2A709
100
AcDbEntity
  8
0
100
AcDbSpline
210
0.0
220
0.0
230
1.0
 70
     8
 71
     3
 72
    11
 73
     7
 74
     0
 42
0.000000001
 43
0.0000000001
 40
0.0
 40
0.0
 40
0.0
 40
0.0
 40
0.2938411266030841
 40
0.5579092850849124
 40
0.7678929105532494
 40
1.0
 40
1.0
 40
1.0
 40
1.0
 10
1080.715781749495
 20
581.314237487044
 30
0.0
 10
1081.263534361096
 20
581.5694876537163
 30
0.0
 10
1082.303539453256
 20
582.0541251843824
 30
0.0
 10
1083.308720885725
 20
583.3235558742526
 30
0.0
 10
1083.731181346411
 20
584.7293414756495
 30
0.0
 10
1083.649572579867
 20
585.6318823768524
 30
0.0
 10
1083.606726230362
 20
586.1057356712481
 30
0.0
  0
SPLINE
  5
351EC
330
2A709
100
AcDbEntity
  8
0
100
AcDbSpline
210
0.0
220
0.0
230
1.0
 70
     8
 71
     3
 72
     9
 73
     5
 74
     0
 42
0.000000001
 43
0.0000000001
 40
0.0
 40
0.0
 40
0.0
 40
0.0
 40
0.5591200767014812
 40
1.0
 40
1.0
 40
1.0
 40
1.0
 10
1083.606726230362
 20
586.1057356712481
 30
0.0
 10
1083.473675166322
 20
586.7188606198033
 30
0.0
 10
1083.235710067944
 20
587.8154496604984
 30
0.0
 10
1082.781279574767
 20
588.8404271800391
 30
0.0
 10
1082.580930293807
 20
589.2923191902228
 30
0.0
  0
SPLINE
  5
351ED
330
2A709
100
AcDbEntity
  8
0
100
AcDbSpline
210
0.0
220
0.0
230
1.0
 70
     8
 71
     3
 72
    10
 73
     6
 74
     0
 42
0.000000001
 43
0.0000000001
 40
0.0
 40
0.0
 40
0.0
 40
0.0
 40
0.2806339353167038
 40
0.5598414606649449
 40
1.0
 40
1.0
 40
1.0
 40
1.0
 10
1082.580930293807
 20
589.2923191902228
 30
0.0
 10
1082.165197979404
 20
590.0905541167085
 30
0.0
 10
1081.335846440437
 20
591.682966690394
 30
0.0
 10
1079.443655848714
 20
594.2788709220694
 30
0.0
 10
1077.925490816509
 20
596.0122614048741
 30
0.0
 10
1076.996571124771
 20
597.0728711006231
 30
0.0
  0
SPLINE
  5
351EE
330
2A709
100
AcDbEntity
  8
0
100
AcDbSpline
210
0.0
220
0.0
230
1.0
 70
     8
 71
     3
 72
    10
 73
     6
 74
     0
 42
0.000000001
 43
0.0000000001
 40
0.0
 40
0.0
 40
0.0
 40
0.0
 40
0.28033556783715
 40
0.5600436172573425
 40
1.0
 40
1.0
 40
1.0
 40
1.0
 10
1076.996571124771
 20
597.0728711006231
 30
0.0
 10
1075.455530068815
 20
598.7309036435909
 30
0.0
 10
1072.376897507238
 20
602.0432572990903
 30
0.0
 10
1066.425754814998
 20
607.5085237855601
 30
0.0
 10
1061.906616566302
 20
611.1600667460734
 30
0.0
 10
1059.143907130936
 20
613.3923844215533
 30
0.0
  0
SPLINE
  5
351EF
330
2A709
100
AcDbEntity
  8
0
100
AcDbSpline
210
0.0
220
0.0
230
1.0
 70
     8
 71
     3
 72
    10
 73
     6
 74
     0
 42
0.000000001
 43
0.0000000001
 40
0.0
 40
0.0
 40
0.0
 40
0.0
 40
0.2438813881960554
 40
0.5201262129028644
 40
1.0
 40
1.0
 40
1.0
 40
1.0
 10
1059.143907130936
 20
613.3923844215533
 30
0.0
 10
1058.535785881693
 20
613.8750649502689
 30
0.0
 10
1057.238844755142
 20
614.9044784585858
 30
0.0
 10
1054.701415795549
 20
616.8272908347571
 30
0.0
 10
1052.758682163497
 20
618.2484726442999
 30
0.0
 10
1051.525718272904
 20
619.1504315254205
 30
0.0
  0
ARC
  5
351F0
330
2A709
100
AcDbEntity
  8
0
100
AcDbCircle
 10
1050.044067957708
 20
617.1088252806002
 30
0.0
 40
2.522629080271733
100
AcDbArc
 50
54.03124935985864
 51
233.02439070047
  0
SPLINE
  5
351F1
330
2A709
100
AcDbEntity
  8
0
100
AcDbSpline
210
0.0
220
0.0
230
1.0
 70
     8
 71
     3
 72
    11
 73
     7
 74
     0
 42
0.000000001
 43
0.0000000001
 40
0.0
 40
0.0
 40
0.0
 40
0.0
 40
0.3041933483636255
 40
0.5956658061827027
 40
0.8081454109850065
 40
1.0
 40
1.0
 40
1.0
 40
1.0
 10
1048.526770175704
 20
615.0935009834284
 30
0.0
 10
1049.718419341814
 20
614.1887753002883
 30
0.0
 10
1052.051884767839
 20
612.4171581485061
 30
0.0
 10
1055.157047192166
 20
609.9355522285041
 30
0.0
 10
1057.785852270092
 20
607.7432150221284
 30
0.0
 10
1059.255837456243
 20
606.4035445365589
 30
0.0
 10
1059.953338207015
 20
605.7678774711676
 30
0.0
  0
SPLINE
  5
351F2
330
2A709
100
AcDbEntity
  8
0
100
AcDbSpline
210
0.0
220
0.0
230
1.0
 70
     8
 71
     3
 72
    18
 73
    14
 74
     0
 42
0.000000001
 43
0.0000000001
 40
0.0
 40
0.0
 40
0.0
 40
0.0
 40
0.2432023455516882
 40
0.4544665146978072
 40
0.6309027311771568
 40
0.7270451858832078
 40
0.8063766502053674
 40
0.8568864496854459
 40
0.8974052620735319
 40
0.9253836570258641
 40
0.9491875118218972
 40
0.9726131065862656
 40
1.0
 40
1.0
 40
1.0
 40
1.0
 10
1059.953338207015
 20
605.7678774711676
 30
0.0
 10
1061.090706764204
 20
604.7111649525613
 30
0.0
 10
1063.21608069077
 20
602.7365110721439
 30
0.0
 10
1065.95576137142
 20
599.7814506912909
 30
0.0
 10
1067.894673949726
 20
597.3730151331038
 30
0.0
 10
1069.142935880816
 20
595.5037465134737
 30
0.0
 10
1069.832449119865
 20
594.2332272686326
 30
0.0
 10
1070.227102855199
 20
593.2171744535954
 30
0.0
 10
1070.38498407667
 20
592.4688205252241
 30
0.0
 10
1070.360282827292
 20
591.8719148950185
 30
0.0
 10
1070.164364628559
 20
591.4183150396056
 30
0.0
 10
1069.780160912087
 20
591.1032145499412
 30
0.0
 10
1069.459371075245
 20
591.0349032889789
 30
0.0
 10
1069.286471904495
 20
590.9980849144122
 30
0.0
  0
SPLINE
  5
351F3
330
2A709
100
AcDbEntity
  8
0
100
AcDbSpline
210
0.0
220
0.0
230
1.0
 70
     8
 71
     3
 72
    11
 73
     7
 74
     0
 42
0.000000001
 43
0.0000000001
 40
0.0
 40
0.0
 40
0.0
 40
0.0
 40
0.2741367910575914
 40
0.5817923598250721
 40
0.8119598081564959
 40
1.0
 40
1.0
 40
1.0
 40
1.0
 10
1069.286471904495
 20
590.9980849144122
 30
0.0
 10
1068.257231078991
 20
590.9770466707195
 30
0.0
 10
1066.072903880856
 20
590.9323978317551
 30
0.0
 10
1063.103618007335
 20
591.6797038597433
 30
0.0
 10
1060.506024366834
 20
592.4568742612973
 30
0.0
 10
1059.034752353364
 20
592.9898159328877
 30
0.0
 10
1058.37321907399
 20
593.2294443962164
 30
0.0
  0
SPLINE
  5
351F4
330
2A709
100
AcDbEntity
  8
0
100
AcDbSpline
210
0.0
220
0.0
230
1.0
 70
     8
 71
     3
 72
     9
 73
     5
 74
     0
 42
0.000000001
 43
0.0000000001
 40
0.0
 40
0.0
 40
0.0
 40
0.0
 40
0.5599037578880831
 40
1.0
 40
1.0
 40
1.0
 40
1.0
 10
1058.37321907399
 20
593.2294443962164
 30
0.0
 10
1054.856615861856
 20
594.6658105681781
 30
0.0
 10
1048.575887857041
 20
597.2311910495773
 30
0.0
 10
1042.604395860726
 20
600.4482125734867
 30
0.0
 10
1039.976364673355
 20
601.8640116569586
 30
0.0
  0
SPLINE
  5
351F5
330
2A709
100
AcDbEntity
  8
0
100
AcDbSpline
210
0.0
220
0.0
230
1.0
 70
     8
 71
     3
 72
     9
 73
     5
 74
     0
 42
0.000000001
 43
0.0000000001
 40
0.0
 40
0.0
 40
0.0
 40
0.0
 40
0.5599860444297465
 40
1.0
 40
1.0
 40
1.0
 40
1.0
 10
1039.976364673355
 20
601.8640116569586
 30
0.0
 10
1035.850390472951
 20
604.2182459543765
 30
0.0
 10
1028.48239578549
 20
608.4223405400335
 30
0.0
 10
1021.443436868437
 20
613.1551311134171
 30
0.0
 10
1018.346196712264
 20
615.2376250144953
 30
0.0
  0
SPLINE
  5
351F6
330
2A709
100
AcDbEntity
  8
0
100
AcDbSpline
210
0.0
220
0.0
230
1.0
 70
     8
 71
     3
 72
    11
 73
     7
 74
     0
 42
0.000000001
 43
0.0000000001
 40
0.0
 40
0.0
 40
0.0
 40
0.0
 40
0.2980726848670661
 40
0.5523023847163256
 40
0.7575086788849906
 40
1.0
 40
1.0
 40
1.0
 40
1.0
 10
1018.346196712264
 20
615.2376250144953
 30
0.0
 10
1018.099412795134
 20
615.3926976889779
 30
0.0
 10
1017.642143971614
 20
615.6800336719607
 30
0.0
 10
1016.895142594068
 20
615.817295138484
 30
0.0
 10
1016.215358115973
 20
615.6636525594803
 30
0.0
 10
1015.843555750274
 20
615.4333148543446
 30
0.0
 10
1015.642172397383
 20
615.3085545417925
 30
0.0
  0
SPLINE
  5
351F7
330
2A709
100
AcDbEntity
  8
0
100
AcDbSpline
210
0.0
220
0.0
230
1.0
 70
     8
 71
     3
 72
    11
 73
     7
 74
     0
 42
0.000000001
 43
0.0000000001
 40
0.0
 40
0.0
 40
0.0
 40
0.0
 40
0.1723399321485178
 40
0.4284154603096228
 40
0.6883609852555271
 40
1.0
 40
1.0
 40
1.0
 40
1.0
 10
1015.642172397383
 20
615.3085545417925
 30
0.0
 10
1015.252852913669
 20
615.0464840211643
 30
0.0
 10
1014.285053496896
 20
614.3950095699183
 30
0.0
 10
1012.716473865388
 20
613.3686292256388
 30
0.0
 10
1010.828578287248
 20
612.1375500313879
 30
0.0
 10
1009.522041338154
 20
611.291578508426
 30
0.0
 10
1008.80969196678
 20
610.8303383705279
 30
0.0
  0
ARC
  5
351F8
330
2A709
100
AcDbEntity
  8
0
100
AcDbCircle
 10
1008.402245203302
 20
611.4600116133806
 30
0.0
 40
0.7500000000201
100
AcDbArc
 50
135.4734086320896
 51
302.9047114261318
  0
SPLINE
  5
351F9
330
2A709
100
AcDbEntity
  8
0
100
AcDbSpline
210
0.0
220
0.0
230
1.0
 70
     8
 71
     3
 72
    16
 73
    12
 74
     0
 42
0.000000001
 43
0.0000000001
 40
0.0
 40
0.0
 40
0.0
 40
0.0
 40
0.1923368845295794
 40
0.3644117185451721
 40
0.5162187417405562
 40
0.6477608497202102
 40
0.7590366009770891
 40
0.8485996702737971
 40
0.9186138423047987
 40
0.9690805911132903
 40
0.9999999999999998
 40
0.9999999999999998
 40
0.9999999999999998
 40
0.9999999999999998
 10
1007.867580951431
 20
611.9859532234259
 30
0.0
 10
1010.508854584048
 20
614.6711088329466
 30
0.0
 10
1015.513152464562
 20
619.7585478471737
 30
0.0
 10
1022.602856942896
 20
626.9646184104713
 30
0.0
 10
1028.858515684529
 20
633.3211441388339
 30
0.0
 10
1034.279767346838
 20
638.8283623624447
 30
0.0
 10
1038.8470499311
 20
643.4658252650042
 30
0.0
 10
1042.5697001929
 20
647.2440186796084
 30
0.0
 10
1045.458396704991
 20
650.1721802731262
 30
0.0
 10
1047.541134356994
 20
652.282263795314
 30
0.0
 10
1048.663944276231
 20
653.4133613961603
 30
0.0
 10
1049.09051090596
 20
653.8430765983648
 30
0.0
  0
SPLINE
  5
351FA
330
2A709
100
AcDbEntity
  8
0
100
AcDbSpline
210
0.0
220
0.0
230
1.0
 70
     8
 71
     3
 72
     9
 73
     5
 74
     0
 42
0.000000001
 43
0.0000000001
 40
0.0
 40
0.0
 40
0.0
 40
0.0
 40
0.5601424525075098
 40
1.0
 40
1.0
 40
1.0
 40
1.0
 10
1049.09051090596
 20
653.8430765983648
 30
0.0
 10
1049.537985256036
 20
654.286001023669
 30
0.0
 10
1050.33684338237
 20
655.0767363505583
 30
0.0
 10
1051.109462686181
 20
655.8930954288371
 30
0.0
 10
1051.449305118331
 20
656.2521771308893
 30
0.0
  0
SPLINE
  5
351FB
330
2A709
100
AcDbEntity
  8
0
100
AcDbSpline
210
0.0
220
0.0
230
1.0
 70
     8
 71
     3
 72
    11
 73
     7
 74
     0
 42
0.000000001
 43
0.0000000001
 40
0.0
 40
0.0
 40
0.0
 40
0.0
 40
0.2869336003890728
 40
0.5617952159198165
 40
0.7777674728254639
 40
1.0
 40
1.0
 40
1.0
 40
1.0
 10
1051.449305118331
 20
656.2521771308893
 30
0.0
 10
1051.733355325042
 20
656.6426748532903
 30
0.0
 10
1052.289505064931
 20
657.4072411221859
 30
0.0
 10
1052.436053700549
 20
658.7376535513612
 30
0.0
 10
1052.180221778289
 20
659.9166894912923
 30
0.0
 10
1051.748564290559
 20
660.5100567024055
 30
0.0
 10
1051.529652179459
 20
660.8109787819048
 30
0.0
  0
SPLINE
  5
351FC
330
2A709
100
AcDbEntity
  8
0
100
AcDbSpline
210
0.0
220
0.0
230
1.0
 70
     8
 71
     3
 72
    11
 73
     7
 74
     0
 42
0.000000001
 43
0.0000000001
 40
0.0
 40
0.0
 40
0.0
 40
0.0
 40
0.281158760308679
 40
0.5535067953520361
 40
0.7714579150782265
 40
1.0
 40
1.0
 40
1.0
 40
1.0
 10
1051.529652179459
 20
660.8109787819048
 30
0.0
 10
1051.186378790131
 20
661.117726428958
 30
0.0
 10
1050.510589234567
 20
661.7216091140435
 30
0.0
 10
1049.24657445099
 20
661.9904620245433
 30
0.0
 10
1048.073021374854
 20
661.8607547055581
 30
0.0
 10
1047.435785699002
 20
661.5114392826072
 30
0.0
 10
1047.109610141495
 20
661.3326386329645
 30
0.0
  0
SPLINE
  5
351FD
330
2A709
100
AcDbEntity
  8
0
100
AcDbSpline
210
0.0
220
0.0
230
1.0
 70
     8
 71
     3
 72
     9
 73
     5
 74
     0
 42
0.000000001
 43
0.0000000001
 40
0.0
 40
0.0
 40
0.0
 40
0.0
 40
0.5599960349878387
 40
0.9999999999999998
 40
0.9999999999999998
 40
0.9999999999999998
 40
0.9999999999999998
 10
1047.109610141495
 20
661.3326386329645
 30
0.0
 10
1046.723204707821
 20
661.0715046699188
 30
0.0
 10
1046.033190119233
 20
660.6051907198998
 30
0.0
 10
1045.342495517492
 20
660.139884648117
 30
0.0
 10
1045.038587154129
 20
659.9351481315752
 30
0.0
  0
SPLINE
  5
351FE
330
2A709
100
AcDbEntity
  8
0
100
AcDbSpline
210
0.0
220
0.0
230
1.0
 70
     8
 71
     3
 72
    16
 73
    12
 74
     0
 42
0.000000001
 43
0.0000000001
 40
0.0
 40
0.0
 40
0.0
 40
0.0
 40
0.0397609816973578
 40
0.0977457012906191
 40
0.1739517898220074
 40
0.2683798492478826
 40
0.3810316543290759
 40
0.5094067526217913
 40
0.6553610253788272
 40
0.8188926990791099
 40
1.0
 40
1.0
 40
1.0
 40
1.0
 10
1045.038587154129
 20
659.9351481315752
 30
0.0
 10
1044.419090265823
 20
659.5248184501761
 30
0.0
 10
1042.896161122458
 20
658.516091785088
 30
0.0
 10
1040.184811044492
 20
656.7225721973227
 30
0.0
 10
1036.621326927801
 20
654.3654865897479
 30
0.0
 10
1032.205263927149
 20
651.4455068630122
 30
0.0
 10
1026.975621347759
 20
647.9882954325221
 30
0.0
 10
1020.942623221293
 20
644.0001697991392
 30
0.0
 10
1014.11609512737
 20
639.4881705886946
 30
0.0
 10
1006.467292162335
 20
634.4330072572774
 30
0.0
 10
1001.093958709949
 20
630.8819240027442
 30
0.0
 10
998.2702794682772
 20
629.0158347007818
 30
0.0
  0
ARC
  5
351FF
330
2A709
100
AcDbEntity
  8
0
100
AcDbCircle
 10
997.8102367241008
 20
629.7119453488995
 30
0.0
 40
0.8344278177379418
100
AcDbArc
 50
150.7464939632735
 51
303.4590744011198
  0
SPLINE
  5
35200
330
2A709
100
AcDbEntity
  8
0
100
AcDbSpline
210
0.0
220
0.0
230
1.0
 70
     8
 71
     3
 72
    13
 73
     9
 74
     0
 42
0.000000001
 43
0.0000000001
 40
0.0
 40
0.0
 40
0.0
 40
0.0
 40
0.1896213990731938
 40
0.3314540306226501
 40
0.4392680448429396
 40
0.5338109192080544
 40
0.7157861582364794
 40
0.9999999999999998
 40
0.9999999999999998
 40
0.9999999999999998
 40
0.9999999999999998
 10
997.0822396886141
 20
630.1197127220294
 30
0.0
 10
997.1780938706434
 20
630.2914996133113
 30
0.0
 10
997.3456448703437
 20
630.5917793169792
 30
0.0
 10
997.5415092895055
 20
631.0031721273917
 30
0.0
 10
997.6364858248343
 20
631.3528867248387
 30
0.0
 10
997.5821636746768
 20
631.759558227277
 30
0.0
 10
997.2230558689698
 20
632.239242555428
 30
0.0
 10
996.8873279049658
 20
632.5831054047303
 30
0.0
 10
996.6826501500399
 20
632.7927426216192
 30
0.0
  0
SPLINE
  5
35201
330
2A709
100
AcDbEntity
  8
0
100
AcDbSpline
210
0.0
220
0.0
230
1.0
 70
     8
 71
     3
 72
    11
 73
     7
 74
     0
 42
0.000000001
 43
0.0000000001
 40
0.0
 40
0.0
 40
0.0
 40
0.0
 40
0.2348472934246657
 40
0.5171005794996834
 40
0.7542581711097749
 40
1.0
 40
1.0
 40
1.0
 40
1.0
 10
996.6826501500399
 20
632.7927426216192
 30
0.0
 10
995.8443219102992
 20
633.5754442747566
 30
0.0
 10
993.9984414989377
 20
635.298842796852
 30
0.0
 10
991.3373635522512
 20
637.841025265443
 30
0.0
 10
989.0054564602978
 20
640.8141663787828
 30
0.0
 10
988.1572593055098
 20
643.0277538049558
 30
0.0
 10
987.7256217610629
 20
644.1542223808355
 30
0.0
  0
SPLINE
  5
35202
330
2A709
100
AcDbEntity
  8
0
100
AcDbSpline
210
0.0
220
0.0
230
1.0
 70
     8
 71
     3
 72
    16
 73
    12
 74
     0
 42
0.000000001
 43
0.0000000001
 40
0.0
 40
0.0
 40
0.0
 40
0.0
 40
0.041723090075054
 40
0.077794336035065
 40
0.1121343878982162
 40
0.1484665507379942
 40
0.2300599768170379
 40
0.334017671535898
 40
0.5404020436264139
 40
0.759840522968839
 40
1.0
 40
1.0
 40
1.0
 40
1.0
 10
987.7256217610629
 20
644.1542223808355
 30
0.0
 10
987.7167267135009
 20
644.3087003179025
 30
0.0
 10
987.7001415488265
 20
644.5967304835358
 30
0.0
 10
987.8230996647108
 20
645.0014106423404
 30
0.0
 10
988.0629747121203
 20
645.3224989972804
 30
0.0
 10
988.5331101786068
 20
645.6435114083141
 30
0.0
 10
989.3448369456528
 20
645.8428417171453
 30
0.0
 10
990.792169810018
 20
645.8659653410432
 30
0.0
 10
992.7319107999865
 20
645.5717805276144
 30
0.0
 10
995.1188701588616
 20
644.9978692035147
 30
0.0
 10
996.7373259413653
 20
644.4957539315947
 30
0.0
 10
997.5830379140461
 20
644.23337734909
 30
0.0
  0
ARC
  5
35203
330
2A709
100
AcDbEntity
  8
0
100
AcDbCircle
 10
998.2097016859697
 20
646.1828864770577
 30
0.0
 40
2.04775173684043
100
AcDbArc
 50
252.1797845292345
 51
70.44342229227666
  0
LINE
  5
35204
330
2A709
100
AcDbEntity
  8
0
100
AcDbLine
 10
1174.23880726219
 20
571.3880375740118
 30
0.0
 11
1182.238823474654
 21
571.3880375740118
 31
0.0
  0
LINE
  5
35205
330
2A709
100
AcDbEntity
  8
0
100
AcDbLine
 10
1182.238823474654
 20
421.388061415877
 30
0.0
 11
1182.238823474654
 21
571.3880375740118
 31
0.0
  0
LINE
  5
35206
330
2A709
100
AcDbEntity
  8
0
100
AcDbLine
 10
812.106734813431
 20
791.5200308677886
 30
0.0
 11
962.1067109716022
 21
791.5200308677886
 31
0.0
  0
LINE
  5
35207
330
2A709
100
AcDbEntity
  8
0
100
AcDbLine
 10
962.1067109716022
 20
791.5200308677886
 30
0.0
 11
962.1067109716022
 21
783.5200146553179
 31
0.0
  0
LWPOLYLINE
  5
35208
330
2A709
100
AcDbEntity
  8
0
100
AcDbPolyline
 90
        3
 70
   128
 43
0.0
 10
962.1067109716022
 20
783.5200146553179
 10
967.6549497258747
 20
789.0682534095904
 10
967.7635493886263
 20
789.1769722816607
  0
LINE
  5
35209
330
2A709
100
AcDbEntity
  8
0
100
AcDbLine
 10
1179.895645679244
 20
577.0448759910723
 30
0.0
 11
967.7635493886263
 21
789.1769722816607
 31
0.0
  0
LWPOLYLINE
  5
3520A
330
2A709
100
AcDbEntity
  8
0
100
AcDbPolyline
 90
        6
 70
   128
 43
0.0
 10
1179.895645679244
 20
577.0448759910723
 10
1178.942328990706
 20
576.0915593025274
 10
1178.238755763777
 20
575.387986075606
 10
1177.381521762618
 20
574.5308712837286
 10
1175.342327655562
 20
572.4916771766729
 10
1174.23880726219
 20
571.3880375740118
  0
ARC
  5
3520B
330
2A709
100
AcDbEntity
  8
0
100
AcDbCircle
 10
862.1067443501742
 20
-650.4799672660974
 30
0.0
 40
49.99999999999959
100
AcDbArc
 50
134.9999999999263
 51
180.0
  0
LINE
  5
3520C
330
2A709
100
AcDbEntity
  8
0
100
AcDbLine
 10
1088.883406223067
 20
-352.9925872383774
 30
0.0
 11
826.7513576161945
 21
-615.1246283946693
 31
0.0
  0
ARC
  5
3520D
330
2A709
100
AcDbEntity
  8
0
100
AcDbCircle
 10
1124.238778706152
 20
-388.3479329101483
 30
0.0
 40
50.0000000000023
100
AcDbArc
 50
90.0
 51
134.9999999999263
  0
LINE
  5
3520E
330
2A709
100
AcDbEntity
  8
0
100
AcDbLine
 10
1182.238823474654
 20
-338.3479346333134
 30
0.0
 11
1124.238735736617
 21
-338.3479346333134
 31
0.0
  0
LINE
  5
3520F
330
2A709
100
AcDbEntity
  8
0
100
AcDbLine
 10
1174.23880726219
 20
-488.3479256926166
 30
0.0
 11
1174.23880726219
 21
-338.3479346333134
 31
0.0
  0
LINE
  5
35210
330
2A709
100
AcDbEntity
  8
0
100
AcDbLine
 10
962.1067109716022
 20
-700.4799679665102
 30
0.0
 11
1174.23880726219
 21
-488.3479256926166
 31
0.0
  0
LINE
  5
35211
330
2A709
100
AcDbEntity
  8
0
100
AcDbLine
 10
812.106734813431
 20
-700.4799679665102
 30
0.0
 11
962.1067109716022
 21
-700.4799679665102
 31
0.0
  0
SPLINE
  5
35212
330
2A709
100
AcDbEntity
  8
0
100
AcDbSpline
210
0.0
220
0.0
230
1.0
 70
     8
 71
     3
 72
    10
 73
     6
 74
     0
 42
0.000000001
 43
0.0000000001
 40
0.0
 40
0.0
 40
0.0
 40
0.0
 40
0.5993005585144921
 40
0.8113625885024692
 40
1.0
 40
1.0
 40
1.0
 40
1.0
 10
1038.83124023793
 20
-525.1363445816623
 30
0.0
 10
1039.50172524932
 20
-523.1599743607603
 30
0.0
 10
1040.409460853239
 20
-520.4842670958696
 30
0.0
 10
1041.247008399317
 20
-517.1013696933532
 30
0.0
 10
1041.455561417715
 20
-515.7216880232827
 30
0.0
 10
1041.55374199272
 20
-515.0721748171508
 30
0.0
  0
SPLINE
  5
35213
330
2A709
100
AcDbEntity
  8
0
100
AcDbSpline
210
0.0
220
0.0
230
1.0
 70
     8
 71
     3
 72
    17
 73
    13
 74
     0
 42
0.000000001
 43
0.0000000001
 40
0.0
 40
0.0
 40
0.0
 40
0.0
 40
0.1480063500375586
 40
0.2612846323916752
 40
0.3496526494557326
 40
0.4332740579345471
 40
0.5141808788653443
 40
0.5996954279222889
 40
0.6900568884607655
 40
0.8111330683136175
 40
0.9199376584741061
 40
1.0
 40
1.0
 40
1.0
 40
1.0
 10
1041.55374199272
 20
-515.0721748171508
 30
0.0
 10
1041.663900202817
 20
-514.2254195785153
 30
0.0
 10
1041.858369206551
 20
-512.7305909364094
 30
0.0
 10
1041.674033304771
 20
-510.706235698979
 30
0.0
 10
1041.080142797909
 20
-509.1440027344451
 30
0.0
 10
1040.032896921104
 20
-508.0633510623829
 30
0.0
 10
1038.658768585832
 20
-507.5332290083625
 30
0.0
 10
1037.170849424736
 20
-507.4323672324844
 30
0.0
 10
1035.467854680093
 20
-507.6454288509212
 30
0.0
 10
1033.68912594641
 20
-508.1497010952388
 30
0.0
 10
1032.026093109489
 20
-508.8052428025712
 30
0.0
 10
1031.061701115577
 20
-509.3081545708428
 30
0.0
 10
1030.652886928328
 20
-509.5213432608306
 30
0.0
  0
SPLINE
  5
35214
330
2A709
100
AcDbEntity
  8
0
100
AcDbSpline
210
0.0
220
0.0
230
1.0
 70
     8
 71
     3
 72
    10
 73
     6
 74
     0
 42
0.000000001
 43
0.0000000001
 40
0.0
 40
0.0
 40
0.0
 40
0.0
 40
0.2823467962866084
 40
0.5559717856927371
 40
1.0
 40
1.0
 40
1.0
 40
1.0
 10
1030.652886928328
 20
-509.5213432608306
 30
0.0
 10
1029.693135720306
 20
-510.1654324551946
 30
0.0
 10
1027.803280407832
 20
-511.4337146678899
 30
0.0
 10
1024.640139948176
 20
-514.0388087975534
 30
0.0
 10
1022.531679574465
 20
-516.0837202356215
 30
0.0
 10
1021.227127612808
 20
-517.3489530382739
 30
0.0
  0
LINE
  5
35215
330
2A709
100
AcDbEntity
  8
0
100
AcDbLine
 10
1021.227127612808
 20
-517.3489530382739
 30
0.0
 11
1009.818560184249
 21
-510.033868700093
 31
0.0
  0
SPLINE
  5
35216
330
2A709
100
AcDbEntity
  8
0
100
AcDbSpline
210
0.0
220
0.0
230
1.0
 70
     8
 71
     3
 72
     9
 73
     5
 74
     0
 42
0.000000001
 43
0.0000000001
 40
0.0
 40
0.0
 40
0.0
 40
0.0
 40
0.5587108299269108
 40
1.0
 40
1.0
 40
1.0
 40
1.0
 10
1009.818560184249
 20
-510.033868700093
 30
0.0
 10
1009.465145601462
 20
-509.8327478298542
 30
0.0
 10
1008.832591937164
 20
-509.472774728465
 30
0.0
 10
1008.108373405739
 20
-509.4607960095909
 30
0.0
 10
1007.788783611038
 20
-509.4555099306835
 30
0.0
  0
SPLINE
  5
35217
330
2A709
100
AcDbEntity
  8
0
100
AcDbSpline
210
0.0
220
0.0
230
1.0
 70
     8
 71
     3
 72
    14
 73
    10
 74
     0
 42
0.000000001
 43
0.0000000001
 40
0.0
 40
0.0
 40
0.0
 40
0.0
 40
0.1539312471840695
 40
0.3114309161499431
 40
0.4714821144121319
 40
0.5930578382119821
 40
0.7177721488158591
 40
0.8506825381913197
 40
0.9999999999999998
 40
0.9999999999999998
 40
0.9999999999999998
 40
0.9999999999999998
 10
1007.788783611038
 20
-509.4555099306835
 30
0.0
 10
1007.418847286586
 20
-509.5105553142802
 30
0.0
 10
1006.670398803581
 20
-509.6219221391602
 30
0.0
 10
1005.697426870385
 20
-510.2632983704989
 30
0.0
 10
1005.006603853522
 20
-511.0795526347592
 30
0.0
 10
1004.614122052509
 20
-511.9882915586003
 30
0.0
 10
1004.495339847119
 20
-512.9029894990835
 30
0.0
 10
1004.651408111538
 20
-513.8899618783925
 30
0.0
 10
1004.989702314058
 20
-514.4839158679988
 30
0.0
 10
1005.168682636031
 20
-514.7981573639644
 30
0.0
  0
SPLINE
  5
35218
330
2A709
100
AcDbEntity
  8
0
100
AcDbSpline
210
0.0
220
0.0
230
1.0
 70
     8
 71
     3
 72
    14
 73
    10
 74
     0
 42
0.000000001
 43
0.0000000001
 40
0.0
 40
0.0
 40
0.0
 40
0.0
 40
0.0494266501589303
 40
0.1283437705271726
 40
0.2367475985451874
 40
0.3746419010342611
 40
0.5507290823276911
 40
0.7591827390336201
 40
1.0
 40
1.0
 40
1.0
 40
1.0
 10
1005.168682636031
 20
-514.7981573639644
 30
0.0
 10
1005.549228091615
 20
-515.3694681738797
 30
0.0
 10
1006.537371906197
 20
-516.8529630749563
 30
0.0
 10
1008.359040888936
 20
-519.5902023877224
 30
0.0
 10
1010.860967630557
 20
-523.3505983922677
 30
0.0
 10
1014.110239730224
 20
-528.2346830364276
 30
0.0
 10
1018.128545791791
 20
-534.2760642857192
 30
0.0
 10
1022.938578197187
 20
-541.5075717611707
 30
0.0
 10
1026.393924075739
 20
-546.7030352168094
 30
0.0
 10
1028.246051372298
 20
-549.4878967104541
 30
0.0
  0
SPLINE
  5
35219
330
2A709
100
AcDbEntity
  8
0
100
AcDbSpline
210
0.0
220
0.0
230
1.0
 70
     8
 71
     3
 72
    16
 73
    12
 74
     0
 42
0.000000001
 43
0.0000000001
 40
0.0
 40
0.0
 40
0.0
 40
0.0
 40
0.1889406737511598
 40
0.3584717439422329
 40
0.5085946441223176
 40
0.6393104938228075
 40
0.7506170609658484
 40
0.8410439218540805
 40
0.9127502284362885
 40
0.9657359971242978
 40
1.0
 40
1.0
 40
1.0
 40
1.0
 10
1028.246051372298
 20
-549.4878967104541
 30
0.0
 10
1025.259328778142
 20
-546.544211241644
 30
0.0
 10
1019.592705304509
 20
-540.9592408767657
 30
0.0
 10
1011.553792860046
 20
-533.0345391638712
 30
0.0
 10
1004.435888162152
 20
-526.0163628346145
 30
0.0
 10
998.2388270702577
 20
-519.9048681951844
 30
0.0
 10
992.9861691592741
 20
-514.7226802107852
 30
0.0
 10
988.6667597654813
 20
-510.4594097015742
 30
0.0
 10
985.2700657679598
 20
-507.1039699592383
 30
0.0
 10
982.7607817524476
 20
-504.6239446495328
 30
0.0
 10
981.3861327681589
 20
-503.2599745569987
 30
0.0
 10
980.8462920796664
 20
-502.7243275938762
 30
0.0
  0
SPLINE
  5
3521A
330
2A709
100
AcDbEntity
  8
0
100
AcDbSpline
210
0.0
220
0.0
230
1.0
 70
     8
 71
     3
 72
     9
 73
     5
 74
     0
 42
0.000000001
 43
0.0000000001
 40
0.0
 40
0.0
 40
0.0
 40
0.0
 40
0.5607850030992701
 40
1.0
 40
1.0
 40
1.0
 40
1.0
 10
980.8462920796664
 20
-502.7243275938762
 30
0.0
 10
980.6651508403083
 20
-502.5423920855555
 30
0.0
 10
980.3421371391815
 20
-502.2179620324768
 30
0.0
 10
979.9886344353508
 20
-501.9271958793852
 30
0.0
 10
979.8333707463534
 20
-501.7994870243728
 30
0.0
  0
SPLINE
  5
3521B
330
2A709
100
AcDbEntity
  8
0
100
AcDbSpline
210
0.0
220
0.0
230
1.0
 70
     8
 71
     3
 72
    11
 73
     7
 74
     0
 42
0.000000001
 43
0.0000000001
 40
0.0
 40
0.0
 40
0.0
 40
0.0
 40
0.2820319900630109
 40
0.5559882307909474
 40
0.7739903995830658
 40
1.0
 40
1.0
 40
1.0
 40
1.0
 10
979.8333707463534
 20
-501.7994870243728
 30
0.0
 10
979.4689183420924
 20
-501.5783918312608
 30
0.0
 10
978.7504493222586
 20
-501.1425323203166
 30
0.0
 10
977.5585601676503
 20
-501.0777053493383
 30
0.0
 10
976.5024800814353
 20
-501.3398406061551
 30
0.0
 10
975.9570414528498
 20
-501.7247024088519
 30
0.0
 10
975.679403842696
 20
-501.9206036625637
 30
0.0
  0
SPLINE
  5
3521C
330
2A709
100
AcDbEntity
  8
0
100
AcDbSpline
210
0.0
220
0.0
230
1.0
 70
     8
 71
     3
 72
    11
 73
     7
 74
     0
 42
0.000000001
 43
0.0000000001
 40
0.0
 40
0.0
 40
0.0
 40
0.0
 40
0.2821552063242447
 40
0.5601870299639903
 40
0.7786970037993683
 40
1.0
 40
1.0
 40
1.0
 40
1.0
 10
975.679403842696
 20
-501.9206036625637
 30
0.0
 10
975.3860602193235
 20
-502.2297215424714
 30
0.0
 10
974.8036598615362
 20
-502.8434398903064
 30
0.0
 10
974.470408818488
 20
-503.9937763045982
 30
0.0
 10
974.4707266973346
 20
-505.0829330762589
 30
0.0
 10
974.7230845782977
 20
-505.6947677180451
 30
0.0
 10
974.8500648152912
 20
-506.0026277599917
 30
0.0
  0
SPLINE
  5
3521D
330
2A709
100
AcDbEntity
  8
0
100
AcDbSpline
210
0.0
220
0.0
230
1.0
 70
     8
 71
     3
 72
     9
 73
     5
 74
     0
 42
0.000000001
 43
0.0000000001
 40
0.0
 40
0.0
 40
0.0
 40
0.0
 40
0.5598620150316988
 40
1.0
 40
1.0
 40
1.0
 40
1.0
 10
974.8500648152912
 20
-506.0026277599917
 30
0.0
 10
974.9890516373925
 20
-506.2449961789334
 30
0.0
 10
975.2373035608981
 20
-506.6779035961316
 30
0.0
 10
975.5107638290283
 20
-507.0953031331973
 30
0.0
 10
975.6311240804279
 20
-507.2790165243804
 30
0.0
  0
SPLINE
  5
3521E
330
2A709
100
AcDbEntity
  8
0
100
AcDbSpline
210
0.0
220
0.0
230
1.0
 70
     8
 71
     3
 72
     9
 73
     5
 74
     0
 42
0.000000001
 43
0.0000000001
 40
0.0
 40
0.0
 40
0.0
 40
0.0
 40
0.5600545730136615
 40
1.0
 40
1.0
 40
1.0
 40
1.0
 10
975.6311240804279
 20
-507.2790165243804
 30
0.0
 10
976.7514848387582
 20
-509.0247173371771
 30
0.0
 10
978.7519341026854
 20
-512.1417364580138
 30
0.0
 10
980.7551191499005
 20
-515.2569980362041
 30
0.0
 10
981.6364112508381
 20
-516.6275431214034
 30
0.0
  0
SPLINE
  5
3521F
330
2A709
100
AcDbEntity
  8
0
100
AcDbSpline
210
0.0
220
0.0
230
1.0
 70
     8
 71
     3
 72
    16
 73
    12
 74
     0
 42
0.000000001
 43
0.0000000001
 40
0.0
 40
0.0
 40
0.0
 40
0.0
 40
0.0957638600709434
 40
0.2149663953201845
 40
0.3492358889444886
 40
0.4901913833457022
 40
0.6294611607486633
 40
0.7564952781176269
 40
0.8658865140325106
 40
0.9497000743441343
 40
1.0
 40
1.0
 40
1.0
 40
1.0
 10
981.6364112508381
 20
-516.6275431214034
 30
0.0
 10
982.1923475931471
 20
-517.4914823057206
 30
0.0
 10
983.4402884285154
 20
-519.4308140336743
 30
0.0
 10
985.4671199528166
 20
-522.581840028617
 30
0.0
 10
987.7564027799889
 20
-526.1404999449386
 30
0.0
 10
990.1616429164205
 20
-529.8805441589957
 30
0.0
 10
992.5249773918841
 20
-533.5552511270889
 30
0.0
 10
994.7048142838248
 20
-536.9453653177206
 30
0.0
 10
996.5626497719277
 20
-539.8352180172751
 30
0.0
 10
997.975263130189
 20
-542.032653528784
 30
0.0
 10
998.7526306472791
 20
-543.2433369709051
 30
0.0
 10
999.0441861760409
 20
-543.6974097786532
 30
0.0
  0
SPLINE
  5
35220
330
2A709
100
AcDbEntity
  8
0
100
AcDbSpline
210
0.0
220
0.0
230
1.0
 70
     8
 71
     3
 72
     9
 73
     5
 74
     0
 42
0.000000001
 43
0.0000000001
 40
0.0
 40
0.0
 40
0.0
 40
0.0
 40
0.5911882822391562
 40
1.0
 40
1.0
 40
1.0
 40
1.0
 10
999.0441861760409
 20
-543.6974097786532
 30
0.0
 10
998.9205419213467
 20
-543.903449920459
 30
0.0
 10
998.7113966144752
 20
-544.2519685701063
 30
0.0
 10
998.4898391906245
 20
-544.5927122800949
 30
0.0
 10
998.3992639195712
 20
-544.7320123015178
 30
0.0
  0
SPLINE
  5
35221
330
2A709
100
AcDbEntity
  8
0
100
AcDbSpline
210
0.0
220
0.0
230
1.0
 70
     8
 71
     3
 72
    10
 73
     6
 74
     0
 42
0.000000001
 43
0.0000000001
 40
0.0
 40
0.0
 40
0.0
 40
0.0
 40
0.280155206925303
 40
0.5599841283745865
 40
0.9999999999999998
 40
0.9999999999999998
 40
0.9999999999999998
 40
0.9999999999999998
 10
998.3992639195712
 20
-544.7320123015178
 30
0.0
 10
996.6570521152535
 20
-547.3222038257826
 30
0.0
 10
993.1746575904908
 20
-552.4995701826792
 30
0.0
 10
987.3507308969347
 20
-562.0061953159474
 30
0.0
 10
983.6537650795726
 20
-569.1271291210887
 30
0.0
 10
981.3939395558918
 20
-573.4799061713947
 30
0.0
  0
SPLINE
  5
35222
330
2A709
100
AcDbEntity
  8
0
100
AcDbSpline
210
0.0
220
0.0
230
1.0
 70
     8
 71
     3
 72
    10
 73
     6
 74
     0
 42
0.000000001
 43
0.0000000001
 40
0.0
 40
0.0
 40
0.0
 40
0.0
 40
0.2801721033930721
 40
0.5598956751357587
 40
1.0
 40
1.0
 40
1.0
 40
1.0
 10
981.3939395558918
 20
-573.4799061713947
 30
0.0
 10
980.4486117092674
 20
-575.443859751811
 30
0.0
 10
978.5594694053362
 20
-579.3686227903909
 30
0.0
 10
975.4854861139101
 20
-586.5246754767158
 30
0.0
 10
973.8277512382847
 20
-591.8790516145545
 30
0.0
 10
972.8142085683138
 20
-595.1527287064181
 30
0.0
  0
SPLINE
  5
35223
330
2A709
100
AcDbEntity
  8
0
100
AcDbSpline
210
0.0
220
0.0
230
1.0
 70
     8
 71
     3
 72
     9
 73
     5
 74
     0
 42
0.000000001
 43
0.0000000001
 40
0.0
 40
0.0
 40
0.0
 40
0.0
 40
0.5596292764004538
 40
1.0
 40
1.0
 40
1.0
 40
1.0
 10
972.8142085683138
 20
-595.1527287064181
 30
0.0
 10
972.4435207082496
 20
-596.6006392414
 30
0.0
 10
971.7811396004472
 20
-599.1879065557387
 30
0.0
 10
971.5849095908707
 20
-601.8497359071716
 30
0.0
 10
971.4984956395419
 20
-603.0219276247607
 30
0.0
  0
SPLINE
  5
35224
330
2A709
100
AcDbEntity
  8
0
100
AcDbSpline
210
0.0
220
0.0
230
1.0
 70
     8
 71
     3
 72
     9
 73
     5
 74
     0
 42
0.000000001
 43
0.0000000001
 40
0.0
 40
0.0
 40
0.0
 40
0.0
 40
0.5594104734215235
 40
1.0
 40
1.0
 40
1.0
 40
1.0
 10
971.4984956395419
 20
-603.0219276247607
 30
0.0
 10
971.4910208957808
 20
-603.7715703586455
 30
0.0
 10
971.477659072676
 20
-605.1116288121284
 30
0.0
 10
971.8631755650349
 20
-606.3925941895741
 30
0.0
 10
972.0330300939167
 20
-606.9569741187678
 30
0.0
  0
SPLINE
  5
35225
330
2A709
100
AcDbEntity
  8
0
100
AcDbSpline
210
0.0
220
0.0
230
1.0
 70
     8
 71
     3
 72
    11
 73
     7
 74
     0
 42
0.000000001
 43
0.0000000001
 40
0.0
 40
0.0
 40
0.0
 40
0.0
 40
0.2938307361765144
 40
0.5579022598397675
 40
0.7678895134108864
 40
0.9999999999999998
 40
0.9999999999999998
 40
0.9999999999999998
 40
0.9999999999999998
 10
972.0330300939167
 20
-606.9569741187678
 30
0.0
 10
972.2882358401038
 20
-607.5047167081883
 30
0.0
 10
972.7728000636634
 20
-608.544726451315
 30
0.0
 10
974.0422373835826
 20
-609.5498674252976
 30
0.0
 10
975.4480113765531
 20
-609.9723256081288
 30
0.0
 10
976.3505549605252
 20
-609.8907630085177
 30
0.0
 10
976.8244090688021
 20
-609.8479409514129
 30
0.0
  0
SPLINE
  5
35226
330
2A709
100
AcDbEntity
  8
0
100
AcDbSpline
210
0.0
220
0.0
230
1.0
 70
     8
 71
     3
 72
     9
 73
     5
 74
     0
 42
0.000000001
 43
0.0000000001
 40
0.0
 40
0.0
 40
0.0
 40
0.0
 40
0.5591212948170359
 40
0.9999999999999998
 40
0.9999999999999998
 40
0.9999999999999998
 40
0.9999999999999998
 10
976.8244090688021
 20
-609.8479409514129
 30
0.0
 10
977.4375332337877
 20
-609.7148743738089
 30
0.0
 10
978.5341184840145
 20
-609.4768820475892
 30
0.0
 10
979.5591000445492
 20
-609.0224549793584
 30
0.0
 10
980.0109925878132
 20
-608.8221077619254
 30
0.0
  0
SPLINE
  5
35227
330
2A709
100
AcDbEntity
  8
0
100
AcDbSpline
210
0.0
220
0.0
230
1.0
 70
     8
 71
     3
 72
    10
 73
     6
 74
     0
 42
0.000000001
 43
0.0000000001
 40
0.0
 40
0.0
 40
0.0
 40
0.0
 40
0.2806276440388969
 40
0.5598341386150434
 40
1.0
 40
1.0
 40
1.0
 40
1.0
 10
980.0109925878132
 20
-608.8221077619254
 30
0.0
 10
980.8092316757901
 20
-608.4064019395754
 30
0.0
 10
982.4016674237572
 20
-607.5770955048519
 30
0.0
 10
984.9975536099591
 20
-605.6848117956197
 30
0.0
 10
986.7310070947933
 20
-604.1666507947975
 30
0.0
 10
987.791663707474
 20
-603.2377262411773
 30
0.0
  0
SPLINE
  5
35228
330
2A709
100
AcDbEntity
  8
0
100
AcDbSpline
210
0.0
220
0.0
230
1.0
 70
     8
 71
     3
 72
    10
 73
     6
 74
     0
 42
0.000000001
 43
0.0000000001
 40
0.0
 40
0.0
 40
0.0
 40
0.0
 40
0.2803361310518598
 40
0.5600415930193031
 40
1.0
 40
1.0
 40
1.0
 40
1.0
 10
987.791663707474
 20
-603.2377262411773
 30
0.0
 10
989.4497032711587
 20
-601.6966967544521
 30
0.0
 10
992.7620523252771
 20
-598.6181046179208
 30
0.0
 10
998.2271853072816
 20
-592.6668765577069
 30
0.0
 10
1001.878728179617
 20
-588.1477728750342
 30
0.0
 10
1004.111057819107
 20
-585.3850696979297
 30
0.0
  0
SPLINE
  5
35229
330
2A709
100
AcDbEntity
  8
0
100
AcDbSpline
210
0.0
220
0.0
230
1.0
 70
     8
 71
     3
 72
    10
 73
     6
 74
     0
 42
0.000000001
 43
0.0000000001
 40
0.0
 40
0.0
 40
0.0
 40
0.0
 40
0.2438740421793169
 40
0.5201218327866272
 40
1.0
 40
1.0
 40
1.0
 40
1.0
 10
1004.111057819107
 20
-585.3850696979297
 30
0.0
 10
1004.593743995014
 20
-584.776977644864
 30
0.0
 10
1005.623191886268
 20
-583.4800706419355
 30
0.0
 10
1007.545935956739
 20
-580.9425696022317
 30
0.0
 10
1008.96720831452
 20
-578.999859117519
 30
0.0
 10
1009.869224132279
 20
-577.7669106422126
 30
0.0
  0
ARC
  5
3522A
330
2A709
100
AcDbEntity
  8
0
100
AcDbCircle
 10
1007.827530095186
 20
-576.2852565176526
 30
0.0
 40
2.522629080271631
100
AcDbArc
 50
324.0312493595597
 51
143.0243907001524
  0
SPLINE
  5
3522B
330
2A709
100
AcDbEntity
  8
0
100
AcDbSpline
210
0.0
220
0.0
230
1.0
 70
     8
 71
     3
 72
    11
 73
     7
 74
     0
 42
0.000000001
 43
0.0000000001
 40
0.0
 40
0.0
 40
0.0
 40
0.0
 40
0.3041919180816702
 40
0.5956656942459928
 40
0.8081449187883251
 40
1.0
 40
1.0
 40
1.0
 40
1.0
 10
1005.812174380997
 20
-574.767955094403
 30
0.0
 10
1004.907451774496
 20
-575.9595896496266
 30
0.0
 10
1003.135832650245
 20
-578.2930369979385
 30
0.0
 10
1000.654176378135
 20
-581.3981297504742
 30
0.0
 10
998.4620361318594
 20
-584.0270898260296
 30
0.0
 10
997.1223473023638
 20
-585.4970483370435
 30
0.0
 10
996.4866700780184
 20
-586.1945380268825
 30
0.0
  0
SPLINE
  5
3522C
330
2A709
100
AcDbEntity
  8
0
100
AcDbSpline
210
0.0
220
0.0
230
1.0
 70
     8
 71
     3
 72
    18
 73
    14
 74
     0
 42
0.000000001
 43
0.0000000001
 40
0.0
 40
0.0
 40
0.0
 40
0.0
 40
0.2432064691099529
 40
0.4544671296007113
 40
0.6309040920699733
 40
0.727041046729809
 40
0.8063770502023835
 40
0.8568811526936682
 40
0.8974052354446714
 40
0.9253832508386889
 40
0.9491866521205258
 40
0.972615114318571
 40
1.0
 40
1.0
 40
1.0
 40
1.0
 10
996.4866700780184
 20
-586.1945380268825
 30
0.0
 10
995.4299181847382
 20
-587.3319164359799
 30
0.0
 10
993.4552215354123
 20
-589.4572756123034
 30
0.0
 10
990.5001008160253
 20
-592.1969457926989
 30
0.0
 10
988.0916878695497
 20
-594.1357980511038
 30
0.0
 10
986.2225172756662
 20
-595.3842596416743
 30
0.0
 10
984.9519351233393
 20
-596.0735449291769
 30
0.0
 10
983.9359154660851
 20
-596.4684159614862
 30
0.0
 10
983.1875253475518
 20
-596.6260852260038
 30
0.0
 10
982.5905946798812
 20
-596.6015115256104
 30
0.0
 10
982.1369556752397
 20
-596.4055925702796
 30
0.0
 10
981.8219188705334
 20
-596.0213308347538
 30
0.0
 10
981.7535853570808
 20
-595.7005454466943
 30
0.0
 10
981.7167583119662
 20
-595.5276642738117
 30
0.0
  0
SPLINE
  5
3522D
330
2A709
100
AcDbEntity
  8
0
100
AcDbSpline
210
0.0
220
0.0
230
1.0
 70
     8
 71
     3
 72
    11
 73
     7
 74
     0
 42
0.000000001
 43
0.0000000001
 40
0.0
 40
0.0
 40
0.0
 40
0.0
 40
0.2741315685228856
 40
0.5817945357358214
 40
0.8119583240508113
 40
1.0
 40
1.0
 40
1.0
 40
1.0
 10
981.7167583119662
 20
-595.5276642738117
 30
0.0
 10
981.6957123393439
 20
-594.4984390549307
 30
0.0
 10
981.6510460794743
 20
-592.3140951954646
 30
0.0
 10
982.3985062947103
 20
-589.3448397429255
 30
0.0
 10
983.1756731145505
 20
-586.747221793952
 30
0.0
 10
983.7086083125104
 20
-585.2759522675206
 30
0.0
 10
983.9482370030673
 20
-584.614411443299
 30
0.0
  0
SPLINE
  5
3522E
330
2A709
100
AcDbEntity
  8
0
100
AcDbSpline
210
0.0
220
0.0
230
1.0
 70
     8
 71
     3
 72
     9
 73
     5
 74
     0
 42
0.000000001
 43
0.0000000001
 40
0.0
 40
0.0
 40
0.0
 40
0.0
 40
0.5599020319662971
 40
0.9999999999999998
 40
0.9999999999999998
 40
0.9999999999999998
 40
0.9999999999999998
 10
983.9482370030673
 20
-584.614411443299
 30
0.0
 10
985.3845417986812
 20
-581.0977904195405
 30
0.0
 10
987.9498205681811
 20
-574.8170112421303
 30
0.0
 10
991.1669514846071
 20
-568.8455691312865
 30
0.0
 10
992.5828042638094
 20
-566.2175495920764
 30
0.0
  0
SPLINE
  5
3522F
330
2A709
100
AcDbEntity
  8
0
100
AcDbSpline
210
0.0
220
0.0
230
1.0
 70
     8
 71
     3
 72
     9
 73
     5
 74
     0
 42
0.000000001
 43
0.0000000001
 40
0.0
 40
0.0
 40
0.0
 40
0.0
 40
0.5599880334949027
 40
0.9999999999999998
 40
0.9999999999999998
 40
0.9999999999999998
 40
0.9999999999999998
 10
992.5828042638094
 20
-566.2175495920764
 30
0.0
 10
994.9370466324108
 20
-562.0915806999492
 30
0.0
 10
999.1411406982589
 20
-554.7236216627079
 30
0.0
 10
1003.87384978147
 20
-547.6846452755726
 30
0.0
 10
1005.956298412064
 20
-544.5874114332782
 30
0.0
  0
SPLINE
  5
35230
330
2A709
100
AcDbEntity
  8
0
100
AcDbSpline
210
0.0
220
0.0
230
1.0
 70
     8
 71
     3
 72
    11
 73
     7
 74
     0
 42
0.000000001
 43
0.0000000001
 40
0.0
 40
0.0
 40
0.0
 40
0.0
 40
0.2980935553578094
 40
0.5523000989769454
 40
0.7575012541041827
 40
1.0
 40
1.0
 40
1.0
 40
1.0
 10
1005.956298412064
 20
-544.5874114332782
 30
0.0
 10
1006.11143774636
 20
-544.3406258977647
 30
0.0
 10
1006.398875928578
 20
-543.8833879828835
 30
0.0
 10
1006.535934594787
 20
-543.1363335437654
 30
0.0
 10
1006.382326742263
 20
-542.4565642759862
 30
0.0
 10
1006.151990592487
 20
-542.0847417990753
 30
0.0
 10
1006.027227939346
 20
-541.8833424149142
 30
0.0
  0
SPLINE
  5
35231
330
2A709
100
AcDbEntity
  8
0
100
AcDbSpline
210
0.0
220
0.0
230
1.0
 70
     8
 71
     3
 72
    11
 73
     7
 74
     0
 42
0.000000001
 43
0.0000000001
 40
0.0
 40
0.0
 40
0.0
 40
0.0
 40
0.1723399345923837
 40
0.4284108945114206
 40
0.6883515119803184
 40
1.0
 40
1.0
 40
1.0
 40
1.0
 10
1006.027227939346
 20
-541.8833424149142
 30
0.0
 10
1005.765160384158
 20
-541.4940209917131
 30
0.0
 10
1005.113700256719
 20
-540.5262270816037
 30
0.0
 10
1004.08725734958
 20
-538.9577192282977
 30
0.0
 10
1002.856381363155
 20
-537.0696912695511
 30
0.0
 10
1002.010314321997
 20
-535.7632015619619
 30
0.0
 10
1001.549011768082
 20
-535.0508619843112
 30
0.0
  0
ARC
  5
35232
330
2A709
100
AcDbEntity
  8
0
100
AcDbCircle
 10
1002.178716427945
 20
-534.6434337632835
 30
0.0
 40
0.7500000000197758
100
AcDbArc
 50
45.47340863197913
 51
212.9047114264368
  0
SPLINE
  5
35233
330
2A709
100
AcDbEntity
  8
0
100
AcDbSpline
210
0.0
220
0.0
230
1.0
 70
     8
 71
     3
 72
    16
 73
    12
 74
     0
 42
0.000000001
 43
0.0000000001
 40
0.0
 40
0.0
 40
0.0
 40
0.0
 40
0.1923389049071318
 40
0.3644117245674572
 40
0.5162183722148345
 40
0.6477602080830289
 40
0.7590360576602011
 40
0.8485995969482168
 40
0.9186154306418725
 40
0.969082232461465
 40
1.0
 40
1.0
 40
1.0
 40
1.0
 10
1002.704626621016
 20
-534.1087360678302
 30
0.0
 10
1005.389830520355
 20
-536.750020874666
 30
0.0
 10
1010.477307670437
 20
-541.7542874425798
 30
0.0
 10
1017.683296511073
 20
-548.8440749835809
 30
0.0
 10
1024.039823031817
 20
-555.099667699711
 30
0.0
 10
1029.547038616707
 20
-560.5209145912031
 30
0.0
 10
1034.184519466544
 20
-565.0881938726179
 30
0.0
 10
1037.962682664693
 20
-568.8109424229715
 30
0.0
 10
1040.890954437585
 20
-571.6995922659643
 30
0.0
 10
1043.001054032887
 20
-573.7823188767015
 30
0.0
 10
1044.132077414608
 20
-574.9051610598489
 30
0.0
 10
1044.561749995955
 20
-575.3317256270183
 30
0.0
  0
SPLINE
  5
35234
330
2A709
100
AcDbEntity
  8
0
100
AcDbSpline
210
0.0
220
0.0
230
1.0
 70
     8
 71
     3
 72
     9
 73
     5
 74
     0
 42
0.000000001
 43
0.0000000001
 40
0.0
 40
0.0
 40
0.0
 40
0.0
 40
0.560128745831358
 40
1.0
 40
1.0
 40
1.0
 40
1.0
 10
1044.561749995955
 20
-575.3317256270183
 30
0.0
 10
1045.004681578379
 20
-575.7791678097728
 30
0.0
 10
1045.795449032688
 20
-576.5779880561694
 30
0.0
 10
1046.611773056363
 20
-577.3506383044459
 30
0.0
 10
1046.970850528458
 20
-577.6905049381984
 30
0.0
  0
SPLINE
  5
35235
330
2A709
100
AcDbEntity
  8
0
100
AcDbSpline
210
0.0
220
0.0
230
1.0
 70
     8
 71
     3
 72
    11
 73
     7
 74
     0
 42
0.000000001
 43
0.0000000001
 40
0.0
 40
0.0
 40
0.0
 40
0.0
 40
0.2869359751832277
 40
0.5618200011451629
 40
0.7777887450553497
 40
0.9999999999999998
 40
0.9999999999999998
 40
0.9999999999999998
 40
0.9999999999999998
 10
1046.970850528458
 20
-577.6905049381984
 30
0.0
 10
1047.361347689009
 20
-577.9745759157322
 30
0.0
 10
1048.125940260746
 20
-578.5307862578502
 30
0.0
 10
1049.456395235094
 20
-578.6771200130624
 30
0.0
 10
1050.635466280866
 20
-578.4214988590774
 30
0.0
 10
1051.228772709095
 20
-577.9898091370505
 30
0.0
 10
1051.529652179459
 20
-577.7708892522514
 30
0.0
  0
SPLINE
  5
35236
330
2A709
100
AcDbEntity
  8
0
100
AcDbSpline
210
0.0
220
0.0
230
1.0
 70
     8
 71
     3
 72
    11
 73
     7
 74
     0
 42
0.000000001
 43
0.0000000001
 40
0.0
 40
0.0
 40
0.0
 40
0.0
 40
0.281175432807172
 40
0.5535150903289692
 40
0.7714560032143507
 40
1.0
 40
1.0
 40
1.0
 40
1.0
 10
1051.529652179459
 20
-577.7708892522514
 30
0.0
 10
1051.836397409184
 20
-577.4275821300707
 30
0.0
 10
1052.44024857731
 20
-576.7517561134245
 30
0.0
 10
1052.709142796615
 20
-575.4877645790639
 30
0.0
 10
1052.579416483124
 20
-574.3142403151087
 30
0.0
 10
1052.230111932535
 20
-573.6770175176079
 30
0.0
 10
1052.051312030533
 20
-573.3508397636996
 30
0.0
  0
SPLINE
  5
35237
330
2A709
100
AcDbEntity
  8
0
100
AcDbSpline
210
0.0
220
0.0
230
1.0
 70
     8
 71
     3
 72
     9
 73
     5
 74
     0
 42
0.000000001
 43
0.0000000001
 40
0.0
 40
0.0
 40
0.0
 40
0.0
 40
0.5599932653901069
 40
0.9999999999999998
 40
0.9999999999999998
 40
0.9999999999999998
 40
0.9999999999999998
 10
1052.051312030533
 20
-573.3508397636996
 30
0.0
 10
1051.790177247669
 20
-572.964434882555
 30
0.0
 10
1051.323859527423
 20
-572.2744178680023
 30
0.0
 10
1050.858557538078
 20
-571.5837155477147
 30
0.0
 10
1050.653821529129
 20
-571.2798018751873
 30
0.0
  0
SPLINE
  5
35238
330
2A709
100
AcDbEntity
  8
0
100
AcDbSpline
210
0.0
220
0.0
230
1.0
 70
     8
 71
     3
 72
    16
 73
    12
 74
     0
 42
0.000000001
 43
0.0000000001
 40
0.0
 40
0.0
 40
0.0
 40
0.0
 40
0.0397616376849829
 40
0.0977453469832782
 40
0.1739520836788533
 40
0.2683807872895469
 40
0.3810313479998399
 40
0.5094077481804247
 40
0.6553613234298832
 40
0.8188920739813283
 40
1.0
 40
1.0
 40
1.0
 40
1.0
 10
1050.653821529129
 20
-571.2798018751873
 30
0.0
 10
1050.243495402108
 20
-570.6602877330824
 30
0.0
 10
1049.234797772959
 20
-569.1373468205511
 30
0.0
 10
1047.441205583811
 20
-566.426037337902
 30
0.0
 10
1045.084168195062
 20
-562.862513862603
 30
0.0
 10
1042.164217261779
 20
-558.4464293520377
 30
0.0
 10
1038.706911344554
 20
-553.216831850399
 30
0.0
 10
1034.718891229226
 20
-547.183776389249
 30
0.0
 10
1030.2068400684
 20
-540.3572876043126
 30
0.0
 10
1025.151653801738
 20
-532.7085196630232
 30
0.0
 10
1021.600593430055
 20
-527.3351760547684
 30
0.0
 10
1019.734508098372
 20
-524.5114792881595
 30
0.0
  0
ARC
  5
35239
330
2A709
100
AcDbEntity
  8
0
100
AcDbCircle
 10
1020.430650163478
 20
-524.0514252840748
 30
0.0
 40
0.8344278177379237
100
AcDbArc
 50
60.74649396319988
 51
213.4590744011197
  0
SPLINE
  5
3523A
330
2A709
100
AcDbEntity
  8
0
100
AcDbSpline
210
0.0
220
0.0
230
1.0
 70
     8
 71
     3
 72
    13
 73
     9
 74
     0
 42
0.000000001
 43
0.0000000001
 40
0.0
 40
0.0
 40
0.0
 40
0.0
 40
0.1896558036067056
 40
0.3314427626637554
 40
0.4392608642728592
 40
0.533841049483724
 40
0.7157724162619684
 40
1.0
 40
1.0
 40
1.0
 40
1.0
 10
1020.838386119583
 20
-523.3234097061813
 30
0.0
 10
1021.010211917404
 20
-523.4192789966855
 30
0.0
 10
1021.310494935613
 20
-523.5868203104492
 30
0.0
 10
1021.721903687903
 20
-523.7826237980571
 30
0.0
 10
1022.07158788076
 20
-523.8777497277351
 30
0.0
 10
1022.478276591988
 20
-523.8233686182156
 30
0.0
 10
1022.957964335895
 20
-523.4642735076504
 30
0.0
 10
1023.301782413742
 20
-523.1285210699297
 30
0.0
 10
1023.51141601921
 20
-522.9238052664459
 30
0.0
  0
SPLINE
  5
3523B
330
2A709
100
AcDbEntity
  8
0
100
AcDbSpline
210
0.0
220
0.0
230
1.0
 70
     8
 71
     3
 72
    11
 73
     7
 74
     0
 42
0.000000001
 43
0.0000000001
 40
0.0
 40
0.0
 40
0.0
 40
0.0
 40
0.2348480206301962
 40
0.5170985038875213
 40
0.7542531409981218
 40
1.0
 40
1.0
 40
1.0
 40
1.0
 10
1023.51141601921
 20
-522.9238052664459
 30
0.0
 10
1024.29417528888
 20
-522.0855192319304
 30
0.0
 10
1026.017688419502
 20
-520.2397448748761
 30
0.0
 10
1028.55965158344
 20
-517.5784597411857
 30
0.0
 10
1031.532880724473
 20
-515.2466193000818
 30
0.0
 10
1033.746507944808
 20
-514.3984710302629
 30
0.0
 10
1034.873014987686
 20
-513.9668513832821
 30
0.0
  0
SPLINE
  5
3523C
330
2A709
100
AcDbEntity
  8
0
100
AcDbSpline
210
0.0
220
0.0
230
1.0
 70
     8
 71
     3
 72
    16
 73
    12
 74
     0
 42
0.000000001
 43
0.0000000001
 40
0.0
 40
0.0
 40
0.0
 40
0.0
 40
0.041712738265936
 40
0.0777843878735252
 40
0.1121256270501158
 40
0.1484636851582459
 40
0.2300554416512554
 40
0.334016992814056
 40
0.5403943175017325
 40
0.7598352524236198
 40
1.0
 40
1.0
 40
1.0
 40
1.0
 10
1034.873014987686
 20
-513.9668513832821
 30
0.0
 10
1035.027452974325
 20
-513.9579282381182
 30
0.0
 10
1035.315443280218
 20
-513.9412886835798
 30
0.0
 10
1035.720086811001
 20
-514.0642588999853
 30
0.0
 10
1036.041193676537
 20
-514.3041506980025
 30
0.0
 10
1036.362141865109
 20
-514.7743488205541
 30
0.0
 10
1036.561536164379
 20
-515.5860598105373
 30
0.0
 10
1036.58462912299
 20
-517.0333772860121
 30
0.0
 10
1036.290446874838
 20
-518.9730816695173
 30
0.0
 10
1035.716538101034
 20
-521.36001986472
 30
0.0
 10
1035.214426669678
 20
-522.9784861353709
 30
0.0
 10
1034.952050746658
 20
-523.8242079315768
 30
0.0
  0
ARC
  5
3523D
330
2A709
100
AcDbEntity
  8
0
100
AcDbCircle
 10
1036.901591291629
 20
-524.4508902459511
 30
0.0
 40
2.047751736840979
100
AcDbArc
 50
162.1797845286923
 51
340.4434222921752
  0
LWPOLYLINE
  5
3523E
330
2A709
100
AcDbEntity
  8
0
100
AcDbPolyline
 90
        9
 70
   128
 43
0.0
 10
1174.23880726219
 20
-488.3479256926166
 10
1175.342327655562
 20
-489.4515354929626
 10
1176.403528751143
 20
-490.5127216873897
 10
1177.381521762618
 20
-491.4907146988498
 10
1178.238755763777
 20
-492.3479337988628
 10
1178.942328990706
 20
-493.0514325199855
 10
1179.465061725386
 20
-493.5741801558196
 10
1179.786926807173
 20
-493.8960899410903
 10
1179.895645679244
 20
-494.0047939119922
  0
LINE
  5
3523F
330
2A709
100
AcDbEntity
  8
0
100
AcDbLine
 10
967.7635493886263
 20
-706.136823147377
 30
0.0
 11
1179.895645679244
 21
-494.0047939119922
 31
0.0
  0
LWPOLYLINE
  5
35240
330
2A709
100
AcDbEntity
  8
0
100
AcDbPolyline
 90
        9
 70
   128
 43
0.0
 10
967.7635493886263
 20
-706.136823147377
 10
967.6549497258747
 20
-706.0281266270485
 10
967.3329654347689
 20
-705.7062205670535
 10
966.8102327001179
 20
-705.1834692059219
 10
966.1067786824787
 20
-704.4799667595234
 10
965.249544681319
 20
-703.6227476595104
 10
964.2715516698153
 20
-702.6447509227527
 10
963.2103505742634
 20
-701.5835647283256
 10
962.1067109716022
 20
-700.4799679665102
  0
LINE
  5
35241
330
2A709
100
AcDbEntity
  8
0
100
AcDbLine
 10
962.1067109716022
 20
-700.4799679665102
 30
0.0
 11
962.1067109716022
 21
-708.4799674151745
 31
0.0
  0
LINE
  5
35242
330
2A709
100
AcDbEntity
  8
0
100
AcDbLine
 10
812.106734813431
 20
-708.4799674151745
 30
0.0
 11
962.1067109716022
 21
-708.4799674151745
 31
0.0
  0
LINE
  5
35243
330
2A709
100
AcDbEntity
  8
0
100
AcDbLine
 10
812.106734813431
 20
-708.4799674151745
 30
0.0
 11
812.106734813431
 21
-650.4799672214375
 31
0.0
  0
LINE
  5
35244
330
2A709
100
AcDbEntity
  8
0
100
AcDbLine
 10
1182.238823474654
 20
-338.3479346333134
 30
0.0
 11
1182.238823474654
 21
-488.3479256926166
 31
0.0
  0
LINE
  5
35245
330
2A709
100
AcDbEntity
  8
0
100
AcDbLine
 10
1182.238823474654
 20
-488.3479256926166
 30
0.0
 11
1174.23880726219
 21
-488.3479256926166
 31
0.0
  0
LINE
  5
35246
330
2A709
100
AcDbEntity
  8
0
100
AcDbLine
 10
1114.606744350203
 20
422.3245695945734
 30
0.0
 11
1114.606744350203
 21
-339.2844726143467
 31
0.0
  0
LINE
  5
35247
330
2A709
100
AcDbEntity
  8
0
100
AcDbLine
 10
-1150.129097400895
 20
422.3245713116102
 30
0.0
 11
-1150.129097400895
 21
-339.2844708973098
 31
0.0
  0
LINE
  5
35248
102
{ACAD_REACTORS
330
35151
102
}
330
2A709
100
AcDbEntity
  8
0
100
AcDbLine
 10
812.9477563512118
 20
724.3880347129961
 30
0.0
 11
-848.4701094019328
 21
724.388036430033
 31
0.0
  0
LINE
  5
35249
102
{ACAD_REACTORS
330
35151
102
}
330
2A709
100
AcDbEntity
  8
0
100
AcDbLine
 10
-848.4701094019328
 20
-641.3479322904277
 30
0.0
 11
812.9477563512118
 21
-641.3479340074645
 31
0.0
  0
LINE
  5
3524A
330
2A709
100
AcDbEntity
  8
0
100
AcDbLine
 10
-648.7611588823856
 20
-705.4164749382198
 30
0.0
 11
-648.7611588823856
 21
-709.4164755938709
 31
0.0
  0
LINE
  5
3524B
330
2A709
100
AcDbEntity
  8
0
100
AcDbLine
 10
613.2388058316937
 20
-705.4164749382198
 30
0.0
 11
613.2388058316937
 21
-709.4164755938709
 31
0.0
  0
LINE
  5
3524C
330
2A709
100
AcDbEntity
  8
0
100
AcDbLine
 10
617.2388139379254
 20
-705.4164749382198
 30
0.0
 11
617.2388139379254
 21
-709.4164755938709
 31
0.0
  0
LINE
  5
3524D
330
2A709
100
AcDbEntity
  8
0
100
AcDbLine
 10
-652.7611669886173
 20
-705.4164749382198
 30
0.0
 11
-652.7611669886173
 21
-709.4164755938709
 31
0.0
  0
LINE
  5
3524E
330
2A709
100
AcDbEntity
  8
0
100
AcDbLine
 10
617.2388139379254
 20
-709.4164755938709
 30
0.0
 11
-652.7611669886173
 21
-709.4164755938709
 31
0.0
  0
ARC
  5
3524F
330
2A709
100
AcDbEntity
  8
0
100
AcDbCircle
 10
566.2388234746686
 20
-804.7040864644168
 30
0.0
 40
9.999999999999918
100
AcDbArc
 50
270.0
 51
0.0
  0
LINE
  5
35250
330
2A709
100
AcDbEntity
  8
0
100
AcDbLine
 10
-601.7611679422916
 20
-814.704083353101
 30
0.0
 11
566.2388148915997
 21
-814.704083353101
 31
0.0
  0
ARC
  5
35251
330
2A709
100
AcDbEntity
  8
0
100
AcDbCircle
 10
-601.7611765253604
 20
-804.7040864644168
 30
0.0
 40
9.999999999999918
100
AcDbArc
 50
180.0
 51
270.0
  0
LINE
  5
35252
330
2A709
100
AcDbEntity
  8
0
100
AcDbLine
 10
-611.7611584055484
 20
-709.3868551604046
 30
0.0
 11
-611.7611584055484
 21
-804.7040928898441
 31
0.0
  0
LINE
  5
35253
330
2A709
100
AcDbEntity
  8
0
100
AcDbLine
 10
576.2388053548566
 20
-804.7040928898441
 30
0.0
 11
576.2388053548566
 21
-709.4465789837504
 31
0.0
  0
LINE
  5
35254
330
2A709
100
AcDbEntity
  8
0
100
AcDbLine
 10
-520.1903638231815
 20
-711.3094930348907
 30
0.0
 11
-518.2609614718021
 21
-711.2801787255321
 31
0.0
  0
ARC
  5
35255
330
2A709
100
AcDbEntity
  8
0
100
AcDbCircle
 10
-516.2008610890552
 20
-695.7797610975849
 30
0.0
 40
15.63671833307989
100
AcDbArc
 50
262.4294078787002
 51
270.0383843957683
  0
LINE
  5
35256
330
2A709
100
AcDbEntity
  8
0
100
AcDbLine
 10
-516.1903855192722
 20
-709.4164755938709
 30
0.0
 11
-516.1903855192722
 21
-791.5238220987975
 31
0.0
  0
ARC
  5
35257
330
2A709
100
AcDbEntity
  8
0
100
AcDbCircle
 10
-516.2009686499441
 20
-775.8883176734543
 30
0.0
 40
15.63550800700423
100
AcDbArc
 50
262.429216032898
 51
270.0387815202489
  0
LINE
  5
35258
330
2A709
100
AcDbEntity
  8
0
100
AcDbLine
 10
-518.2609614718021
 20
-791.3875286279307
 30
0.0
 11
-520.1903638231815
 21
-789.7413973508392
 31
0.0
  0
LINE
  5
35259
330
2A709
100
AcDbEntity
  8
0
100
AcDbLine
 10
-520.1903638231815
 20
-711.3094930348907
 30
0.0
 11
-520.1903638231815
 21
-789.7413973508392
 31
0.0
  0
LINE
  5
3525A
330
2A709
100
AcDbEntity
  8
0
100
AcDbLine
 10
-518.2609614718021
 20
-711.2801787255321
 30
0.0
 11
-517.2256585943468
 21
-709.3483288584266
 31
0.0
  0
LINE
  5
3525B
330
2A709
100
AcDbEntity
  8
0
100
AcDbLine
 10
482.7386084211102
 20
-711.2801787255321
 30
0.0
 11
481.7033055436841
 21
-709.3483288584266
 31
0.0
  0
ARC
  5
3525C
330
2A709
100
AcDbEntity
  8
0
100
AcDbCircle
 10
480.6785080383924
 20
-695.7797610975849
 30
0.0
 40
15.63671833307981
100
AcDbArc
 50
269.9616156042317
 51
277.5705921212998
  0
LINE
  5
3525D
330
2A709
100
AcDbEntity
  8
0
100
AcDbLine
 10
482.7386084211102
 20
-711.2801787255321
 30
0.0
 11
484.6680107724896
 21
-711.2450827656448
 31
0.0
  0
LINE
  5
3525E
330
2A709
100
AcDbEntity
  8
0
100
AcDbLine
 10
484.6680107724896
 20
-711.2450827656448
 30
0.0
 11
484.6680107724896
 21
-789.8464579878509
 31
0.0
  0
LINE
  5
3525F
330
2A709
100
AcDbEntity
  8
0
100
AcDbLine
 10
484.6680107724896
 20
-789.8464579878509
 30
0.0
 11
482.7386084211102
 21
-791.3875286279307
 31
0.0
  0
ARC
  5
35260
330
2A709
100
AcDbEntity
  8
0
100
AcDbCircle
 10
480.6786155992813
 20
-775.8883176734543
 30
0.0
 40
15.6355080070041
100
AcDbArc
 50
269.9612184797512
 51
277.570783967102
  0
LINE
  5
35261
330
2A709
100
AcDbEntity
  8
0
100
AcDbLine
 10
480.6680324685803
 20
-709.4164755938709
 30
0.0
 11
480.6680324685803
 21
-791.5238220987975
 31
0.0
  0
LINE
  5
35262
330
2A709
100
AcDbEntity
  8
0
100
AcDbLine
 10
480.6680324685803
 20
-711.4164759216964
 30
0.0
 11
-516.1903855192722
 21
-711.4164759216964
 31
0.0
  0
LINE
  5
35263
330
2A709
100
AcDbEntity
  8
0
100
AcDbLine
 10
-516.1903855192722
 20
-791.5238220987975
 30
0.0
 11
480.6680324685803
 21
-791.5238220987975
 31
0.0
  0
LINE
  5
35264
330
2A709
100
AcDbEntity
  8
0
100
AcDbLine
 10
482.6680365216962
 20
-709.5130313931094
 30
0.0
 11
484.6680107724896
 21
-711.2450827656448
 31
0.0
  0
LINE
  5
35265
330
2A709
100
AcDbEntity
  8
0
100
AcDbLine
 10
-518.190389572388
 20
-709.5774416623771
 30
0.0
 11
-520.1903638231815
 21
-711.3094930348907
 31
0.0
  0
LINE
  5
35266
330
2A709
100
AcDbEntity
  8
0
100
AcDbLine
 10
538.1258669507733
 20
-709.4164755938709
 30
0.0
 11
538.938516677641
 21
-710.1202760635078
 31
0.0
  0
LINE
  5
35267
330
2A709
100
AcDbEntity
  8
0
100
AcDbLine
 10
538.938516677641
 20
-710.1202760635078
 30
0.0
 11
484.6680107724896
 21
-711.2450827656448
 31
0.0
  0
LINE
  5
35268
330
2A709
100
AcDbEntity
  8
0
100
AcDbLine
 10
487.3266759526959
 20
-709.4164755938709
 30
0.0
 11
482.6680365216962
 21
-709.5130313931094
 31
0.0
  0
LINE
  5
35269
330
2A709
100
AcDbEntity
  8
0
100
AcDbLine
 10
542.4005928647748
 20
-724.7371529040992
 30
0.0
 11
538.938516677641
 21
-710.1202760635078
 31
0.0
  0
LINE
  5
3526A
330
2A709
100
AcDbEntity
  8
0
100
AcDbLine
 10
484.6680107724896
 20
-789.8464579878509
 30
0.0
 11
542.4005928647748
 21
-724.7371529040992
 31
0.0
  0
LINE
  5
3526B
330
2A709
100
AcDbEntity
  8
0
100
AcDbLine
 10
-520.1903638231815
 20
-711.3094930348907
 30
0.0
 11
-567.352896629578
 21
-712.5651319323242
 31
0.0
  0
LINE
  5
3526C
330
2A709
100
AcDbEntity
  8
0
100
AcDbLine
 10
-565.3529223787845
 20
-710.8330805597888
 30
0.0
 11
-567.352896629578
 21
-712.5651319323242
 31
0.0
  0
LINE
  5
3526D
330
2A709
100
AcDbEntity
  8
0
100
AcDbLine
 10
-518.190389572388
 20
-709.5774416623771
 30
0.0
 11
-565.3529223787845
 21
-710.8330805597888
 31
0.0
  0
LINE
  5
3526E
330
2A709
100
AcDbEntity
  8
0
100
AcDbLine
 10
-571.1017307627262
 20
-728.3928771315204
 30
0.0
 11
-520.1903638231815
 21
-789.7413973508392
 31
0.0
  0
LINE
  5
3526F
330
2A709
100
AcDbEntity
  8
0
100
AcDbLine
 10
-567.352896629578
 20
-712.5651319323242
 30
0.0
 11
-571.1017307627262
 21
-728.3928771315204
 31
0.0
  0
LINE
  5
35270
330
2A709
100
AcDbEntity
  8
0
100
AcDbLine
 10
812.106734813431
 20
-704.4799667595234
 30
0.0
 11
-847.629087864152
 21
-704.4799650424866
 31
0.0
  0
LINE
  5
35271
330
2A709
100
AcDbEntity
  8
0
100
AcDbLine
 10
812.4680581700886
 20
-644.4799681006206
 30
0.0
 11
-847.9904112207805
 21
-644.4799663835838
 31
0.0
  0
LINE
  5
35272
330
2A709
100
AcDbEntity
  8
0
100
AcDbLine
 10
-1213.761108814469
 20
-338.3479329162765
 30
0.0
 11
-1213.761108814469
 21
421.3880631329138
 31
0.0
  0
LINE
  5
35273
330
2A709
100
AcDbEntity
  8
0
100
AcDbLine
 10
-1153.761166034928
 20
-338.7092264705825
 30
0.0
 11
-1153.761166034928
 21
421.749386489535
 31
0.0
  0
LINE
  5
35274
330
2A709
100
AcDbEntity
  8
0
100
AcDbLine
 10
1178.238755763777
 20
421.388061415877
 30
0.0
 11
1178.238755763777
 21
-338.3479346333134
 31
0.0
  0
LINE
  5
35275
330
2A709
100
AcDbEntity
  8
0
100
AcDbLine
 10
1118.238812984236
 20
421.7493847724981
 30
0.0
 11
1118.238812984236
 21
-338.7092281876194
 31
0.0
  0
LINE
  5
35276
330
2A709
100
AcDbEntity
  8
0
100
AcDbLine
 10
925.7388058316937
 20
726.5835121986746
 30
0.0
 11
925.7388058316937
 21
725.5835846779227
 31
0.0
  0
LINE
  5
35277
330
2A709
100
AcDbEntity
  8
0
100
AcDbLine
 10
719.7388473164828
 20
726.5835121986746
 30
0.0
 11
719.7388473164828
 21
725.5835846779227
 31
0.0
  0
LINE
  5
35278
330
2A709
100
AcDbEntity
  8
0
100
AcDbLine
 10
722.7388682973469
 20
725.5835846779227
 30
0.0
 11
922.7388444555035
 21
725.5835846779227
 31
0.0
  0
LINE
  5
35279
330
2A709
100
AcDbEntity
  8
0
100
AcDbLine
 10
922.7388444555035
 20
724.5835379478667
 30
0.0
 11
722.7388682973469
 21
724.5835379478667
 31
0.0
  0
LINE
  5
3527A
330
2A709
100
AcDbEntity
  8
0
100
AcDbLine
 10
722.7388682973469
 20
723.4515265342998
 30
0.0
 11
722.7388682973469
 21
726.5835121986746
 31
0.0
  0
LINE
  5
3527B
330
2A709
100
AcDbEntity
  8
0
100
AcDbLine
 10
922.7388444555035
 20
726.5835121986746
 30
0.0
 11
922.7388444555035
 21
723.4515265342998
 31
0.0
  0
LINE
  5
3527C
330
2A709
100
AcDbEntity
  8
0
100
AcDbLine
 10
-893.6290797579204
 20
-644.4799663835838
 30
0.0
 11
-893.6290797579204
 21
-643.479966219671
 31
0.0
  0
LINE
  5
3527D
330
2A709
100
AcDbEntity
  8
0
100
AcDbLine
 10
-687.6291212427531
 20
-644.4799663835838
 30
0.0
 11
-687.6291212427531
 21
-643.479966219671
 31
0.0
  0
LINE
  5
3527E
330
2A709
100
AcDbEntity
  8
0
100
AcDbLine
 10
-690.629142223559
 20
-644.4799663835838
 30
0.0
 11
-690.629142223559
 21
-641.3479322904277
 31
0.0
  0
LINE
  5
3527F
330
2A709
100
AcDbEntity
  8
0
100
AcDbLine
 10
-690.629142223559
 20
-643.479966219671
 30
0.0
 11
-890.6291183817302
 21
-643.479966219671
 31
0.0
  0
LINE
  5
35280
330
2A709
100
AcDbEntity
  8
0
100
AcDbLine
 10
-890.6291183817302
 20
-644.4799663835838
 30
0.0
 11
-890.6291183817302
 21
-641.3479322904277
 31
0.0
  0
LINE
  5
35281
330
2A709
100
AcDbEntity
  8
0
100
AcDbLine
 10
-890.6291183817302
 20
-642.4799660557583
 30
0.0
 11
-690.629142223559
 21
-642.4799660557583
 31
0.0
  0
LINE
  5
35282
330
2A709
100
AcDbEntity
  8
0
100
AcDbLine
 10
925.7388058316937
 20
-645.416476279317
 30
0.0
 11
925.7388058316937
 21
-644.4164761154042
 31
0.0
  0
LINE
  5
35283
330
2A709
100
AcDbEntity
  8
0
100
AcDbLine
 10
922.7388444555035
 20
-645.416476279317
 30
0.0
 11
922.7388444555035
 21
-642.284442186161
 31
0.0
  0
LINE
  5
35284
330
2A709
100
AcDbEntity
  8
0
100
AcDbLine
 10
922.7388444555035
 20
-644.4164761154042
 30
0.0
 11
722.7388682973469
 21
-644.4164761154042
 31
0.0
  0
LINE
  5
35285
330
2A709
100
AcDbEntity
  8
0
100
AcDbLine
 10
719.7388473164828
 20
-645.416476279317
 30
0.0
 11
719.7388473164828
 21
-644.4164761154042
 31
0.0
  0
LINE
  5
35286
330
2A709
100
AcDbEntity
  8
0
100
AcDbLine
 10
722.7388682973469
 20
-645.416476279317
 30
0.0
 11
722.7388682973469
 21
-642.284442186161
 31
0.0
  0
LINE
  5
35287
330
2A709
100
AcDbEntity
  8
0
100
AcDbLine
 10
722.7388682973469
 20
-643.4164759514914
 30
0.0
 11
922.7388444555035
 21
-643.4164759514914
 31
0.0
  0
LINE
  5
35288
330
2A709
100
AcDbEntity
  8
0
100
AcDbLine
 10
-687.6291212427531
 20
727.5200220944079
 30
0.0
 11
-687.6291212427531
 21
726.520094573656
 31
0.0
  0
LINE
  5
35289
330
2A709
100
AcDbEntity
  8
0
100
AcDbLine
 10
-893.6290797579204
 20
727.5200220944079
 30
0.0
 11
-893.6290797579204
 21
726.520094573656
 31
0.0
  0
LINE
  5
3528A
330
2A709
100
AcDbEntity
  8
0
100
AcDbLine
 10
-890.6291183817302
 20
726.520094573656
 30
0.0
 11
-690.629142223559
 21
726.520094573656
 31
0.0
  0
LINE
  5
3528B
330
2A709
100
AcDbEntity
  8
0
100
AcDbLine
 10
-690.629142223559
 20
725.5200478435999
 30
0.0
 11
-890.6291183817302
 21
725.5200478435999
 31
0.0
  0
LINE
  5
3528C
330
2A709
100
AcDbEntity
  8
0
100
AcDbLine
 10
-890.6291183817302
 20
724.388036430033
 30
0.0
 11
-890.6291183817302
 21
727.5200220944079
 31
0.0
  0
LINE
  5
3528D
330
2A709
100
AcDbEntity
  8
0
100
AcDbLine
 10
-690.629142223559
 20
727.5200220944079
 30
0.0
 11
-690.629142223559
 21
724.388036430033
 31
0.0
  0
LINE
  5
3528E
330
2A709
100
AcDbEntity
  8
0
100
AcDbLine
 10
812.4680581700886
 20
727.5200203773711
 30
0.0
 11
485.2388444555035
 21
726.5835121986746
 31
0.0
  0
LINE
  5
3528F
330
2A709
100
AcDbEntity
  8
0
100
AcDbLine
 10
485.2388444555035
 20
786.583574187498
 30
0.0
 11
485.2388444555035
 21
726.5835121986746
 31
0.0
  0
LINE
  5
35290
330
2A709
100
AcDbEntity
  8
0
100
AcDbLine
 10
812.106734813431
 20
787.5200823661944
 30
0.0
 11
485.2388444555035
 21
786.583574187498
 31
0.0
  0
LINE
  5
35291
330
2A709
100
AcDbEntity
  8
0
100
AcDbLine
 10
-847.629087864152
 20
787.5200840832312
 30
0.0
 11
-520.7611975061954
 21
786.583574187498
 31
0.0
  0
LINE
  5
35292
330
2A709
100
AcDbEntity
  8
0
100
AcDbLine
 10
-847.9904112207805
 20
727.5200220944079
 30
0.0
 11
-520.7611975061954
 21
726.5835121986746
 31
0.0
  0
LINE
  5
35293
330
2A709
100
AcDbEntity
  8
0
100
AcDbLine
 10
-520.7611975061954
 20
726.5835121986746
 30
0.0
 11
-520.7611975061954
 21
786.583574187498
 31
0.0
  0
LINE
  5
35294
330
2A709
100
AcDbEntity
  8
0
100
AcDbLine
 10
573.2494536054364
 20
-713.416476249522
 30
0.0
 11
539.719218314909
 21
-713.416476249522
 31
0.0
  0
LINE
  5
35295
330
2A709
100
AcDbEntity
  8
0
100
AcDbLine
 10
-567.5545391428531
 20
-713.416476249522
 30
0.0
 11
-608.7731775629581
 21
-713.416476249522
 31
0.0
  0
LINE
  5
35296
330
2A709
100
AcDbEntity
  8
0
100
AcDbLine
 10
812.106734813431
 20
-701.4799681304229
 30
0.0
 11
-847.629087864152
 21
-701.4799664133861
 31
0.0
  0
LINE
  5
35297
330
2A709
100
AcDbEntity
  8
0
100
AcDbLine
 10
812.1968570363314
 20
-647.4799667296992
 30
0.0
 11
-847.7192100870524
 21
-647.4799650126624
 31
0.0
  0
LINE
  5
35298
330
2A709
100
AcDbEntity
  8
0
100
AcDbLine
 10
-1156.761187015763
 20
-338.4380253368618
 30
0.0
 11
-1156.761187015763
 21
421.4780661465101
 31
0.0
  0
LINE
  5
35299
330
2A709
100
AcDbEntity
  8
0
100
AcDbLine
 10
-1210.761087833634
 20
-338.3479329162765
 30
0.0
 11
-1210.761087833634
 21
421.3880631329138
 31
0.0
  0
LINE
  5
3529A
330
2A709
100
AcDbEntity
  8
0
100
AcDbLine
 10
1121.238833965042
 20
421.4780644294733
 30
0.0
 11
1121.238833965042
 21
-338.4380270538986
 31
0.0
  0
LINE
  5
3529B
330
2A709
100
AcDbEntity
  8
0
100
AcDbLine
 10
1175.238734782942
 20
421.388061415877
 30
0.0
 11
1175.238734782942
 21
-338.3479346333134
 31
0.0
  0
LINE
  5
3529C
330
2A709
100
AcDbEntity
  8
0
100
AcDbLine
 10
812.1968570363314
 20
730.5200413581915
 30
0.0
 11
485.2388444555035
 21
729.5835331794951
 31
0.0
  0
LINE
  5
3529D
330
2A709
100
AcDbEntity
  8
0
100
AcDbLine
 10
812.106734813431
 20
784.5200613853521
 30
0.0
 11
485.2388444555035
 21
783.5835532066558
 31
0.0
  0
LINE
  5
3529E
330
2A709
100
AcDbEntity
  8
0
100
AcDbLine
 10
-847.629087864152
 20
784.520063102389
 30
0.0
 11
-520.7611975061954
 21
783.5835532066558
 31
0.0
  0
LINE
  5
3529F
330
2A709
100
AcDbEntity
  8
0
100
AcDbLine
 10
-847.7192100870524
 20
730.5200430752283
 30
0.0
 11
-520.7611975061954
 21
729.5835331794951
 31
0.0
  0
LINE
  5
352A0
330
2A709
100
AcDbEntity
  8
0
100
AcDbLine
 10
-462.3159524786242
 20
785.4514342514448
 30
0.0
 11
566.6323247564069
 21
785.4514342514448
 31
0.0
  0
LINE
  5
352A1
330
2A709
100
AcDbEntity
  8
0
100
AcDbLine
 10
-615.7751139986284
 20
785.4514342514448
 30
0.0
 11
-462.3159524786242
 21
785.4514342514448
 31
0.0
  0
LINE
  5
352A2
330
2A709
100
AcDbEntity
  8
0
100
AcDbLine
 10
-720.7611855852301
 20
786.4513617721968
 30
0.0
 11
-618.0262622225054
 21
786.4513617721968
 31
0.0
  0
ATTDEF
  5
352A3
102
{ACAD_XDICTIONARY
360
352A4
102
}
330
2A709
100
AcDbEntity
  8
0
100
AcDbText
 10
-160.4113567328895
 20
-1090.842384197709
 30
0.0
 40
100.0
  1
927H
  7
Annotative
 72
     1
 11
6.573636445828014
 21
-1040.842384197709
 31
0.0
100
AcDbAttributeDefinition
280
     0
  3
Tag Number?
  2
927H
 70
     0
 74
     2
280
     1
1001
AcadAnnotative
1000
AnnotativeData
1002
{
1070
     1
1070
     1
1002
}
1001
AcadAnnoPO
1070
     1
  0
ENDBLK
  5
2A70B
330
2A709
100
AcDbEntity
  8
0
100
AcDbBlockEnd
  0
ENDSEC
  0
SECTION
  2
ENTITIES
  0
INSERT
  5
2A863
330
1F
100
AcDbEntity
  8
0
100
AcDbBlockReference
 66
     1
  2
927H - Lifting Platform – 2.4×1.5m Oak-Rubber
 10
41825.31316775294
 20
4063.008401341547
 30
0.0
  0
ATTRIB
  5
2A865
102
{ACAD_XDICTIONARY
360
2A866
102
}
330
2A863
100
AcDbEntity
  8
0
100
AcDbText
 10
41664.90181102005
 20
2972.166017143838
 30
0.0
 40
100.0
  1
927H
  7
Annotative
 72
     1
 11
41831.88680419877
 21
3022.166017143838
 31
0.0
100
AcDbAttribute
280
     0
  2
XXX
 70
     0
 74
     2
280
     1
1001
AcadAnnotative
1000
AnnotativeData
1002
{
1070
     1
1070
     1
1002
}
1001
AcadAnnoPO
1070
     1
  0
SEQEND
  5
2A864
330
2A863
100
AcDbEntity
  8
0
  0
VIEWPORT
  5
27942
102
{ACAD_XDICTIONARY
360
27943
102
}
330
D2
100
AcDbEntity
 67
     1
  8
0
100
AcDbViewport
 10
132.9126456575008
 20
79.43971249921216
 30
0.0
 40
59.17324646995997
 41
34.90838257121704
 68
     1
 69
     1
 12
132.9126456575008
 22
79.43971249921216
 13
0.0
 23
0.0
 14
10.0
 24
10.0
 15
10.0
 25
10.0
 16
0.0
 26
0.0
 36
1.0
 17
0.0
 27
0.0
 37
0.0
 42
50.0
 43
0.0
 44
0.0
 45
34.90838257121704
 50
0.0
 51
0.0
 72
  1000
 90
   557088
  1

281
     0
 71
     1
 74
     0
110
0.0
120
0.0
130
0.0
111
1.0
121
0.0
131
0.0
112
0.0
122
1.0
132
0.0
 79
     0
146
0.0
170
     0
 61
     5
348
F5
292
     1
282
     1
141
0.0
142
0.0
 63
   250
421
  3355443
  0
VIEWPORT
  5
27946
102
{ACAD_XDICTIONARY
360
27947
102
}
330
D2
100
AcDbEntity
 67
     1
  8
0
100
AcDbViewport
 10
128.5
 20
97.5
 30
0.0
 40
205.6
 41
156.0
 68
     2
 69
     2
 12
24354.21263936498
 22
7931.021756414132
 13
0.0
 23
0.0
 14
10.0
 24
10.0
 15
10.0
 25
10.0
 16
0.0
 26
0.0
 36
1.0
 17
0.0
 27
0.0
 37
0.0
 42
50.0
 43
0.0
 44
0.0
 45
40739.08749714598
 50
0.0
 51
0.0
 72
  1000
 90
   819808
  1

281
     0
 71
     1
 74
     0
110
0.0
120
0.0
130
0.0
111
1.0
121
0.0
131
0.0
112
0.0
122
1.0
132
0.0
 79
     0
146
0.0
170
     0
 61
     5
348
F5
292
     1
282
     1
141
0.0
142
0.0
 63
   250
421
  3355443
  0
ENDSEC
  0
SECTION
  2
OBJECTS
  0
DICTIONARY
  5
C
330
0
100
AcDbDictionary
281
     1
  3
ACAD_CIP_PREVIOUS_PRODUCT_INFO
350
216
  3
ACAD_COLOR
350
6B
  3
ACAD_DETAILVIEWSTYLE
350
21B
  3
ACAD_GROUP
350
D
  3
ACAD_LAST_SAVED_VERSION_INFO
350
11342
  3
ACAD_LAYOUT
350
1A
  3
ACAD_MATERIAL
350
6A
  3
ACAD_MLEADERSTYLE
350
12D
  3
ACAD_MLINESTYLE
350
17
  3
ACAD_PLOTSETTINGS
350
19
  3
ACAD_PLOTSTYLENAME
350
E
  3
ACAD_SCALELIST
350
10C
  3
ACAD_SECTIONVIEWSTYLE
350
219
  3
ACAD_TABLESTYLE
350
7E
  3
ACAD_VISUALSTYLE
350
EF
  3
ACDB_RECOMPOSE_DATA
350
352BB
  3
AcDbVariableDictionary
350
5E
  0
DICTIONARY
  5
1FF
330
2
100
AcDbDictionary
280
     1
281
     1
  3
ACAD_LAYERSTATES
360
200
  0
DICTIONARY
  5
13C
330
10
100
AcDbDictionary
280
     1
281
     1
  0
DICTIONARY
  5
1CE
330
1F
100
AcDbDictionary
280
     1
281
     1
  3
ACAD_SORTENTS
360
10C81
  0
DICTIONARY
  5
352A8
330
2A709
100
AcDbDictionary
280
     1
281
     1
  0
DICTIONARY
  5
352A4
330
352A3
100
AcDbDictionary
280
     1
281
     1
  3
AcDbContextDataManager
360
352A5
  0
DICTIONARY
  5
2A866
330
2A865
100
AcDbDictionary
280
     1
281
     1
  3
AcDbContextDataManager
360
2A867
  0
DICTIONARY
  5
27943
330
27942
100
AcDbDictionary
280
     1
281
     1
  3
ASDK_XREC_ANNOTATION_SCALE_INFO
360
27944
  0
DICTIONARY
  5
27947
330
27946
100
AcDbDictionary
280
     1
281
     1
  3
ASDK_XREC_ANNOTATION_SCALE_INFO
360
27948
  0
XRECORD
  5
216
102
{ACAD_REACTORS
330
C
102
}
330
C
100
AcDbXrecord
280
     1
300
ACDLT
300
2019
300
ACDLT_F_S
  0
DICTIONARY
  5
6B
102
{ACAD_REACTORS
330
C
102
}
330
C
100
AcDbDictionary
281
     1
  0
DICTIONARY
  5
21B
102
{ACAD_REACTORS
330
C
102
}
330
C
100
AcDbDictionary
281
     1
  3
Metric50
350
21C
  0
DICTIONARY
  5
D
102
{ACAD_REACTORS
330
C
102
}
330
C
100
AcDbDictionary
281
     1
  0
XRECORD
  5
11342
102
{ACAD_REACTORS
330
C
102
}
330
C
100
AcDbXrecord
280
     1
300
{3D74595D-0D62-CC42-A1C3-C6954A981475}
301
{999202B2-484E-9C47-848E-DA00BEB8D0DD}
302
{3D74595D-0D62-CC42-A1C3-C6954A981475}
303

  0
DICTIONARY
  5
1A
102
{ACAD_REACTORS
330
C
102
}
330
C
100
AcDbDictionary
281
     1
  3
Layout1
350
D3
  3
Layout2
350
D7
  3
Model
350
22
  0
DICTIONARY
  5
6A
102
{ACAD_REACTORS
330
C
102
}
330
C
100
AcDbDictionary
281
     1
  3
ByBlock
350
ED
  3
ByLayer
350
EC
  3
Global
350
EE
  0
DICTIONARY
  5
12D
102
{ACAD_REACTORS
330
C
102
}
330
C
100
AcDbDictionary
281
     1
  3
Standard
350
12E
  0
DICTIONARY
  5
17
102
{ACAD_REACTORS
330
C
102
}
330
C
100
AcDbDictionary
281
     1
  3
Standard
350
18
  0
DICTIONARY
  5
19
102
{ACAD_REACTORS
330
C
102
}
330
C
100
AcDbDictionary
281
     1
  0
ACDBDICTIONARYWDFLT
  5
E
102
{ACAD_REACTORS
330
C
102
}
330
C
100
AcDbDictionary
281
     1
  3
Normal
350
F
100
AcDbDictionaryWithDefault
340
F
  0
DICTIONARY
  5
10C
102
{ACAD_REACTORS
330
C
102
}
330
C
100
AcDbDictionary
281
     1
  3
A0
350
10D
  3
A1
350
1BE
  3
A2
350
1BF
  3
A3
350
1C0
  3
A4
350
1C1
  3
A5
350
1C2
  3
A6
350
1C3
  3
A7
350
1C4
  3
A8
350
1C5
  3
A9
350
1C6
  3
B0
350
1C7
  3
B1
350
1C8
  3
B2
350
1C9
  3
B3
350
1CA
  3
B4
350
1CB
  3
B5
350
1CC
  3
B6
350
1CD
  0
DICTIONARY
  5
219
102
{ACAD_REACTORS
330
C
102
}
330
C
100
AcDbDictionary
281
     1
  3
Metric50
350
21A
  0
DICTIONARY
  5
7E
102
{ACAD_REACTORS
330
C
102
}
330
C
100
AcDbDictionary
281
     1
  3
Standard
350
7F
  0
DICTIONARY
  5
EF
102
{ACAD_REACTORS
330
C
102
}
330
C
100
AcDbDictionary
281
     1
  3
2dWireframe
350
F5
  3
Basic
350
F4
  3
Brighten
350
FB
  3
ColorChange
350
FF
  3
Conceptual
350
F8
  3
Dim
350
FA
  3
EdgeColorOff
350
1E6
  3
Facepattern
350
FE
  3
Flat
350
F0
  3
FlatWithEdges
350
F1
  3
Gouraud
350
F2
  3
GouraudWithEdges
350
F3
  3
Hidden
350
F7
  3
JitterOff
350
1E4
  3
Linepattern
350
FD
  3
OverhangOff
350
1E5
  3
Realistic
350
F9
  3
Shaded
350
1F3
  3
Shaded with edges
350
1F2
  3
Shades of Gray
350
1EF
  3
Sketchy
350
1F0
  3
Thicken
350
FC
  3
Wireframe
350
F6
  3
X-Ray
350
1F1
  0
XRECORD
  5
352BB
102
{ACAD_REACTORS
330
C
102
}
330
C
100
AcDbXrecord
280
     1
 90
        1
330
7F
  0
DICTIONARY
  5
5E
102
{ACAD_REACTORS
330
C
102
}
330
C
100
AcDbDictionary
281
     1
  3
CANNOSCALE
350
146
  3
CENTEREXE
350
259
  3
CENTERLTYPEFILE
350
25A
  3
CMLEADERSTYLE
350
145
  3
CTABLESTYLE
350
84
  3
CVIEWDETAILSTYLE
350
227
  3
CVIEWSECTIONSTYLE
350
228
  3
DIMASSOC
350
5F
  3
HIDETEXT
350
63
  3
HPCOLOR
350
1FFCA
  3
HPTRANSPARENCY
350
1FFC9
  3
LAYEREVAL
350
1AE
  3
LAYERNOTIFY
350
1AF
  0
DICTIONARY
  5
200
102
{ACAD_REACTORS
330
1FF
102
}
330
1FF
100
AcDbDictionary
281
     1
  0
SORTENTSTABLE
  5
10C81
102
{ACAD_REACTORS
330
1CE
102
}
330
1CE
100
AcDbSortentsTable
330
1F
  0
DICTIONARY
  5
352A5
102
{ACAD_REACTORS
330
352A4
102
}
330
352A4
100
AcDbDictionary
281
     1
  3
ACDB_ANNOTATIONSCALES
350
352A6
  0
DICTIONARY
  5
2A867
102
{ACAD_REACTORS
330
2A866
102
}
330
2A866
100
AcDbDictionary
281
     1
  3
ACDB_ANNOTATIONSCALES
350
2A868
  0
XRECORD
  5
27944
102
{ACAD_REACTORS
330
27943
102
}
330
27943
100
AcDbXrecord
280
     1
 90
        1
340
10D
  0
XRECORD
  5
27948
102
{ACAD_REACTORS
330
27947
102
}
330
27947
100
AcDbXrecord
280
     1
 90
        1
340
10D
  0
ACDBDETAILVIEWSTYLE
  5
21C
102
{ACAD_REACTORS
330
21B
102
}
330
21B
100
AcDbModelDocViewStyle
 70
     0
  3
Metric50
290
     0
300
Metric50
 90
        0
100
AcDbDetailViewStyle
 70
     0
 71
     0
 90
        3
 71
     1
340
11
 62
   256
 40
5.0
340
0
 62
   256
 40
5.0
300

 40
0.0
280
     1
 71
     2
340
16
 90
       25
 62
   256
 71
     3
340
11
 62
   256
 40
5.0
 90
        0
 40
15.0
 90
        1
300
%<\AcVar ViewDetailId>% (%<\AcVar ViewScale \f "%sn">%)
 71
     4
340
16
 90
       25
 62
   256
340
16
 90
       25
 62
   256
280
     0
  0
LAYOUT
  5
D3
102
{ACAD_REACTORS
330
1A
102
}
330
1A
100
AcDbPlotSettings
  1

  2
none_device
  4
ISO_A4_(210.00_x_297.00_MM)
  6

 40
7.5
 41
20.0
 42
7.5
 43
20.0
 44
210.0
 45
297.0
 46
0.0
 47
0.0
 48
0.0
 49
0.0
140
0.0
141
0.0
142
1.0
143
1.0
 70
   688
 72
     1
 73
     1
 74
     5
  7

 75
    16
147
1.0
 76
     0
 77
     2
 78
   300
148
0.0
149
0.0
100
AcDbLayout
  1
Layout1
 70
     1
 71
     1
 10
-20.0
 20
-7.5
 11
277.0
 21
202.5
 12
0.0
 22
0.0
 32
0.0
 14
25.69999999999999
 24
19.5
 34
0.0
 15
231.3
 25
175.5
 35
0.0
146
0.0
 13
0.0
 23
0.0
 33
0.0
 16
1.0
 26
0.0
 36
0.0
 17
0.0
 27
1.0
 37
0.0
 76
     0
330
D2
331
27942
1001
ACAD_PSEXT
1000
None
1000
None
1000
Not applicable
1000
The layout will not be plotted unless a new plotter configuration name is selected.
1070
     0
  0
LAYOUT
  5
D7
102
{ACAD_REACTORS
330
1A
102
}
330
1A
100
AcDbPlotSettings
  1

  2
C:\Documents and Settings\basas\Application Data\Autodesk\AutoCAD 2005\R16.1\enu\plotters\Default Windows System Printer.pc3
  4

  6

 40
0.0
 41
0.0
 42
0.0
 43
0.0
 44
0.0
 45
0.0
 46
0.0
 47
0.0
 48
0.0
 49
0.0
140
0.0
141
0.0
142
1.0
143
1.0
 70
   688
 72
     0
 73
     0
 74
     5
  7

 75
    16
147
1.0
 76
     0
 77
     2
 78
   300
148
0.0
149
0.0
100
AcDbLayout
  1
Layout2
 70
     1
 71
     2
 10
0.0
 20
0.0
 11
12.0
 21
9.0
 12
0.0
 22
0.0
 32
0.0
 14
0.0
 24
0.0
 34
0.0
 15
0.0
 25
0.0
 35
0.0
146
0.0
 13
0.0
 23
0.0
 33
0.0
 16
1.0
 26
0.0
 36
0.0
 17
0.0
 27
1.0
 37
0.0
 76
     0
330
D6
  0
LAYOUT
  5
22
102
{ACAD_XDICTIONARY
360
205
102
}
102
{ACAD_REACTORS
330
1A
102
}
330
1A
100
AcDbPlotSettings
  1

  2
none_device
  4
ISO_A4_(210.00_x_297.00_MM)
  6

 40
7.5
 41
20.0
 42
7.5
 43
20.0
 44
210.0
 45
297.0
 46
11.54999923706054
 47
-13.65000009536743
 48
0.0
 49
0.0
140
0.0
141
0.0
142
1.0
143
8.704084754739808
 70
 11952
 72
     1
 73
     0
 74
     0
  7

 75
     0
147
0.1148885871608098
 76
     0
 77
     2
 78
   300
148
0.0
149
0.0
100
AcDbLayout
  1
Model
 70
     1
 71
     0
 10
0.0
 20
0.0
 11
12.0
 21
9.0
 12
0.0
 22
0.0
 32
0.0
 14
0.0
 24
0.0
 34
0.0
 15
0.0
 25
0.0
 35
0.0
146
0.0
 13
0.0
 23
0.0
 33
0.0
 16
1.0
 26
0.0
 36
0.0
 17
0.0
 27
1.0
 37
0.0
 76
     0
330
1F
331
EA
1001
ACAD_PSEXT
1000
None
1000
None
1000
Not applicable
1000
The layout will not be plotted unless a new plotter configuration name is selected.
1070
     0
  0
MATERIAL
  5
ED
102
{ACAD_XDICTIONARY
360
1F9
102
}
102
{ACAD_REACTORS
330
6A
102
}
330
6A
100
AcDbMaterial
  1
ByBlock
 94
       63
  0
MATERIAL
  5
EC
102
{ACAD_XDICTIONARY
360
1F7
102
}
102
{ACAD_REACTORS
330
6A
102
}
330
6A
100
AcDbMaterial
  1
ByLayer
 94
       63
  0
MATERIAL
  5
EE
102
{ACAD_XDICTIONARY
360
173
102
}
102
{ACAD_REACTORS
330
6A
102
}
330
6A
100
AcDbMaterial
  1
Global
 43
0.0007999999797903
 43
0.0
 43
0.0
 43
0.0
 43
0.0
 43
0.0007999999797903
 43
0.0
 43
0.0
 43
0.0
 43
0.0
 43
1.0
 43
0.0
 43
0.0
 43
0.0
 43
0.0
 43
1.0
 49
0.0007999999797903
 49
0.0
 49
0.0
 49
0.0
 49
0.0
 49
0.0007999999797903
 49
0.0
 49
0.0
 49
0.0
 49
0.0
 49
1.0
 49
0.0
 49
0.0
 49
0.0
 49
0.0
 49
1.0
142
0.0007999999797903
142
0.0
142
0.0
142
0.0
142
0.0
142
0.0007999999797903
142
0.0
142
0.0
142
0.0
142
0.0
142
1.0
142
0.0
142
0.0
142
0.0
142
0.0
142
1.0
144
0.0007999999797903
144
0.0
144
0.0
144
0.0
144
0.0
144
0.0007999999797903
144
0.0
144
0.0
144
0.0
144
0.0
144
1.0
144
0.0
144
0.0
144
0.0
144
0.0
144
1.0
 94
       63
1001
ACAD
1070
    -1
1070
     3
1070
     0
1000

1071
        0
1070
     0
  0
MLEADERSTYLE
  5
12E
102
{ACAD_REACTORS
330
12D
102
}
330
12D
100
AcDbMLeaderStyle
179
     2
170
     2
171
     1
172
     0
 90
        2
 40
0.0
 41
0.0
173
     1
 91
-1056964608
340
14
 92
       -2
290
     1
 42
2.0
291
     1
 43
8.0
  3
Standard
 44
4.0
300

342
11
174
     1
178
     1
175
     1
176
     0
 93
-1056964608
 45
4.0
292
     0
297
     0
 46
4.0
 94
-1056964608
 47
1.0
 49
1.0
140
1.0
293
     1
141
0.0
294
     1
177
     0
142
1.0
295
     0
296
     0
143
3.75
271
     0
272
     9
273
     9
298
     0
  0
MLINESTYLE
  5
18
102
{ACAD_REACTORS
330
17
102
}
330
17
100
AcDbMlineStyle
  2
STANDARD
 70
     0
  3

 62
   256
 51
90.0
 52
90.0
 71
     2
 49
0.5
 62
   256
  6
BYLAYER
 49
-0.5
 62
   256
  6
BYLAYER
  0
ACDBPLACEHOLDER
  5
F
102
{ACAD_REACTORS
330
E
102
}
330
E
  0
SCALE
  5
10D
102
{ACAD_REACTORS
330
10C
102
}
330
10C
100
AcDbScale
 70
     0
300
1:1
140
1.0
141
1.0
290
     1
  0
SCALE
  5
1BE
102
{ACAD_REACTORS
330
10C
102
}
330
10C
100
AcDbScale
 70
     0
300
1:2
140
1.0
141
2.0
290
     0
  0
SCALE
  5
1BF
102
{ACAD_REACTORS
330
10C
102
}
330
10C
100
AcDbScale
 70
     0
300
1:4
140
1.0
141
4.0
290
     0
  0
SCALE
  5
1C0
102
{ACAD_REACTORS
330
10C
102
}
330
10C
100
AcDbScale
 70
     0
300
1:5
140
1.0
141
5.0
290
     0
  0
SCALE
  5
1C1
102
{ACAD_REACTORS
330
10C
102
}
330
10C
100
AcDbScale
 70
     0
300
1:8
140
1.0
141
8.0
290
     0
  0
SCALE
  5
1C2
102
{ACAD_REACTORS
330
10C
102
}
330
10C
100
AcDbScale
 70
     0
300
1:10
140
1.0
141
10.0
290
     0
  0
SCALE
  5
1C3
102
{ACAD_REACTORS
330
10C
102
}
330
10C
100
AcDbScale
 70
     0
300
1:16
140
1.0
141
16.0
290
     0
  0
SCALE
  5
1C4
102
{ACAD_REACTORS
330
10C
102
}
330
10C
100
AcDbScale
 70
     0
300
1:20
140
1.0
141
20.0
290
     0
  0
SCALE
  5
1C5
102
{ACAD_REACTORS
330
10C
102
}
330
10C
100
AcDbScale
 70
     0
300
1:30
140
1.0
141
30.0
290
     0
  0
SCALE
  5
1C6
102
{ACAD_REACTORS
330
10C
102
}
330
10C
100
AcDbScale
 70
     0
300
1:40
140
1.0
141
40.0
290
     0
  0
SCALE
  5
1C7
102
{ACAD_REACTORS
330
10C
102
}
330
10C
100
AcDbScale
 70
     0
300
1:50
140
1.0
141
50.0
290
     0
  0
SCALE
  5
1C8
102
{ACAD_REACTORS
330
10C
102
}
330
10C
100
AcDbScale
 70
     0
300
1:100
140
1.0
141
100.0
290
     0
  0
SCALE
  5
1C9
102
{ACAD_REACTORS
330
10C
102
}
330
10C
100
AcDbScale
 70
     0
300
2:1
140
2.0
141
1.0
290
     0
  0
SCALE
  5
1CA
102
{ACAD_REACTORS
330
10C
102
}
330
10C
100
AcDbScale
 70
     0
300
4:1
140
4.0
141
1.0
290
     0
  0
SCALE
  5
1CB
102
{ACAD_REACTORS
330
10C
102
}
330
10C
100
AcDbScale
 70
     0
300
8:1
140
8.0
141
1.0
290
     0
  0
SCALE
  5
1CC
102
{ACAD_REACTORS
330
10C
102
}
330
10C
100
AcDbScale
 70
     0
300
10:1
140
10.0
141
1.0
290
     0
  0
SCALE
  5
1CD
102
{ACAD_REACTORS
330
10C
102
}
330
10C
100
AcDbScale
 70
     0
300
100:1
140
100.0
141
1.0
290
     0
  0
ACDBSECTIONVIEWSTYLE
  5
21A
102
{ACAD_REACTORS
330
219
102
}
330
219
100
AcDbModelDocViewStyle
 70
     0
  3
Metric50
290
     0
300
Metric50
 90
        0
100
AcDbSectionViewStyle
 70
     0
 71
     0
 90
      102
 71
     1
340
11
 62
   256
 40
5.0
340
0
340
0
 62
   256
 40
5.0
300
I, O, Q, S, X, Z
 40
10.0
 90
        0
 40
2.5
 90
        0
 71
     2
340
16
 90
       25
 62
   256
340
16
 90
       50
 62
   256
 40
5.0
 40
2.5
 40
5.0
 71
     3
340
11
 62
   256
 40
5.0
 90
        0
 40
15.0
 90
        1
300
%<\AcVar ViewSectionStartId>%-%<\AcVar ViewSectionEndId>% (%<\AcVar ViewScale \f "%sn">%)
 71
     4
 62
   256
 62
   257
300
ANSI31
 40
1.0
 90
        0
290
     0
290
     0
 90
        6
 40
0.0
 40
1.570796326794896
 40
0.2617993877991494
 40
1.308996938995747
 40
-0.2617993877991494
 40
1.832595714594046
  0
TABLESTYLE
  5
7F
102
{ACAD_XDICTIONARY
360
162
102
}
102
{ACAD_REACTORS
330
7E
102
}
330
7E
100
AcDbTableStyle
280
     0
  3
Standard
 70
     0
 71
     0
 40
1.5
 41
1.5
280
     0
281
     0
  7
Standard
140
4.5
170
     2
 62
     0
 63
     7
283
     0
 90
      512
 91
        0
  1

274
    -2
284
     1
 64
     0
275
    -2
285
     1
 65
     0
276
    -2
286
     1
 66
     0
277
    -2
287
     1
 67
     0
278
    -2
288
     1
 68
     0
279
    -2
289
     1
 69
     0
  7
Standard
140
6.0
170
     5
 62
     0
 63
     7
283
     0
 90
      512
 91
        0
  1

274
    -2
284
     1
 64
     0
275
    -2
285
     1
 65
     0
276
    -2
286
     1
 66
     0
277
    -2
287
     1
 67
     0
278
    -2
288
     1
 68
     0
279
    -2
289
     1
 69
     0
  7
Standard
140
4.5
170
     5
 62
     0
 63
     7
283
     0
 90
      512
 91
        0
  1

274
    -2
284
     1
 64
     0
275
    -2
285
     1
 65
     0
276
    -2
286
     1
 66
     0
277
    -2
287
     1
 67
     0
278
    -2
288
     1
 68
     0
279
    -2
289
     1
 69
     0
  0
VISUALSTYLE
  5
F5
102
{ACAD_REACTORS
330
EF
102
}
330
EF
100
AcDbVisualStyle
  2
2dWireframe
 70
     4
177
     3
291
     0
 70
    58
 90
        0
176
     1
 90
        2
176
     1
 90
        1
176
     1
 90
        0
176
     1
 40
0.6
176
     1
 40
30.0
176
     1
 62
     7
420
 16777215
176
     1
 90
        1
176
     1
 90
        4
176
     1
 62
     7
176
     1
 62
   257
176
     1
 90
        1
176
     1
 90
        1
176
     1
 40
1.0
176
     1
 90
        0
176
     1
 62
   257
176
     1
 40
1.0
176
     1
 90
        1
176
     1
 90
        6
176
     1
 90
        2
176
     1
 62
     7
176
     1
 90
        5
176
     1
 90
        0
176
     1
 90
        0
176
     1
290
     0
176
     1
 90
        1
176
     1
 40
0.0
176
     1
 90
        0
176
     1
290
     1
176
     1
290
     1
176
     1
290
     0
176
     1
290
     0
176
     1
290
     0
176
     1
290
     0
176
     1
290
     0
176
     1
290
     0
176
     1
290
     0
176
     1
 90
       50
176
     1
 40
0.0
176
     1
 40
1.0
176
     1
 90
        0
176
     1
 62
    18
420
        0
176
     1
 90
       50
176
     1
 90
        3
176
     1
 62
     5
420
      255
176
     1
290
     0
176
     1
 90
       50
176
     1
 90
       50
176
     1
 90
       50
176
     1
290
     0
176
     1
 90
       50
176
     1
 62
   256
176
     0
 40
1.0
176
     0
 90
        2
176
     1
  1
strokes_ogs.tif
176
     1
290
     0
176
     1
 40
1.0
176
     1
 40
1.0
176
     1
  0
VISUALSTYLE
  5
F4
102
{ACAD_REACTORS
330
EF
102
}
330
EF
100
AcDbVisualStyle
  2
Basic
 70
     7
177
     3
291
     1
 70
    58
 90
        1
176
     1
 90
        0
176
     1
 90
        1
176
     1
 90
        0
176
     1
 40
0.6
176
     1
 40
30.0
176
     1
 62
     7
420
 16777215
176
     1
 90
        0
176
     1
 90
        4
176
     1
 62
     7
176
     1
 62
   257
176
     1
 90
        1
176
     1
 90
        1
176
     1
 40
1.0
176
     1
 90
        8
176
     1
 62
     7
176
     1
 40
1.0
176
     1
 90
        1
176
     1
 90
        6
176
     1
 90
        2
176
     1
 62
     7
176
     1
 90
        5
176
     1
 90
        0
176
     1
 90
        0
176
     1
290
     0
176
     1
 90
        1
176
     1
 40
0.0
176
     1
 90
        0
176
     1
290
     0
176
     1
290
     1
176
     1
290
     1
176
     1
290
     0
176
     1
290
     0
176
     1
290
     0
176
     1
290
     0
176
     1
290
     0
176
     1
290
     0
176
     1
 90
       50
176
     1
 40
0.0
176
     1
 40
1.0
176
     1
 90
        0
176
     1
 62
    18
420
        0
176
     1
 90
       50
176
     1
 90
        3
176
     1
 62
     5
420
      255
176
     1
290
     0
176
     1
 90
       50
176
     1
 90
       50
176
     1
 90
       50
176
     1
290
     0
176
     1
 90
       50
176
     1
 62
   256
176
     0
 40
1.0
176
     0
 90
        2
176
     1
  1
strokes_ogs.tif
176
     1
290
     0
176
     1
 40
1.0
176
     1
 40
1.0
176
     1
  0
VISUALSTYLE
  5
FB
102
{ACAD_REACTORS
330
EF
102
}
330
EF
100
AcDbVisualStyle
  2
Brighten
 70
    12
177
     3
291
     1
 70
    58
 90
        2
176
     1
 90
        2
176
     1
 90
        1
176
     1
 90
        0
176
     1
 40
0.6
176
     1
 40
30.0
176
     1
 62
     7
420
 16777215
176
     1
 90
        1
176
     1
 90
        4
176
     1
 62
     7
176
     1
 62
   257
176
     1
 90
        1
176
     1
 90
        1
176
     1
 40
1.0
176
     1
 90
        8
176
     1
 62
     7
176
     1
 40
1.0
176
     1
 90
        1
176
     1
 90
        6
176
     1
 90
        2
176
     1
 62
     7
176
     1
 90
        5
176
     1
 90
        0
176
     1
 90
        0
176
     1
290
     0
176
     1
 90
        1
176
     1
 40
50.0
176
     1
 90
        0
176
     1
290
     0
176
     1
290
     1
176
     1
290
     1
176
     1
290
     0
176
     1
290
     0
176
     1
290
     0
176
     1
290
     0
176
     1
290
     0
176
     1
290
     0
176
     1
 90
       50
176
     1
 40
0.0
176
     1
 40
1.0
176
     1
 90
        0
176
     1
 62
    18
420
        0
176
     1
 90
       50
176
     1
 90
        3
176
     1
 62
     5
420
      255
176
     1
290
     0
176
     1
 90
       50
176
     1
 90
       50
176
     1
 90
       50
176
     1
290
     0
176
     1
 90
       50
176
     1
 62
   256
176
     0
 40
1.0
176
     0
 90
        2
176
     1
  1
strokes_ogs.tif
176
     1
290
     0
176
     1
 40
1.0
176
     1
 40
1.0
176
     1
  0
VISUALSTYLE
  5
FF
102
{ACAD_REACTORS
330
EF
102
}
330
EF
100
AcDbVisualStyle
  2
ColorChange
 70
    16
177
     3
291
     1
 70
    58
 90
        2
176
     1
 90
        2
176
     1
 90
        3
176
     1
 90
        0
176
     1
 40
0.6
176
     1
 40
30.0
176
     1
 62
     8
420
  8421504
176
     1
 90
        1
176
     1
 90
        4
176
     1
 62
     7
176
     1
 62
   257
176
     1
 90
        1
176
     1
 90
        1
176
     1
 40
1.0
176
     1
 90
        8
176
     1
 62
     8
420
  8421504
176
     1
 40
1.0
176
     1
 90
        1
176
     1
 90
        6
176
     1
 90
        2
176
     1
 62
     7
176
     1
 90
        5
176
     1
 90
        0
176
     1
 90
        0
176
     1
290
     0
176
     1
 90
        1
176
     1
 40
0.0
176
     1
 90
        0
176
     1
290
     0
176
     1
290
     1
176
     1
290
     1
176
     1
290
     0
176
     1
290
     0
176
     1
290
     0
176
     1
290
     0
176
     1
290
     0
176
     1
290
     0
176
     1
 90
       50
176
     1
 40
0.0
176
     1
 40
1.0
176
     1
 90
        0
176
     1
 62
    18
420
        0
176
     1
 90
       50
176
     1
 90
        3
176
     1
 62
     5
420
      255
176
     1
290
     0
176
     1
 90
       50
176
     1
 90
       50
176
     1
 90
       50
176
     1
290
     0
176
     1
 90
       50
176
     1
 62
   256
176
     0
 40
1.0
176
     0
 90
        2
176
     1
  1
strokes_ogs.tif
176
     1
290
     0
176
     1
 40
1.0
176
     1
 40
1.0
176
     1
  0
VISUALSTYLE
  5
F8
102
{ACAD_REACTORS
330
EF
102
}
330
EF
100
AcDbVisualStyle
  2
Conceptual
 70
     9
177
     3
291
     0
 70
    58
 90
        3
176
     1
 90
        2
176
     1
 90
        1
176
     1
 90
        0
176
     1
 40
0.6
176
     1
 40
30.0
176
     1
 62
     7
420
 16777215
176
     1
 90
        2
176
     1
 90
        2
176
     1
 62
     7
176
     1
 62
   257
176
     1
 90
        1
176
     1
 90
        1
176
     1
 40
40.0
176
     1
 90
        8
176
     1
 62
     7
176
     1
 40
1.0
176
     1
 90
        1
176
     1
 90
        6
176
     1
 90
        2
176
     1
 62
     7
176
     1
 90
        3
176
     1
 90
        0
176
     1
 90
        0
176
     1
290
     0
176
     1
 90
        1
176
     1
 40
0.0
176
     1
 90
        0
176
     1
290
     0
176
     1
290
     1
176
     1
290
     1
176
     1
290
     0
176
     1
290
     0
176
     1
290
     0
176
     1
290
     0
176
     1
290
     0
176
     1
290
     0
176
     1
 90
       50
176
     1
 40
0.0
176
     1
 40
1.0
176
     1
 90
        0
176
     1
 62
    18
420
        0
176
     1
 90
       50
176
     1
 90
        3
176
     1
 62
     5
420
      255
176
     1
290
     0
176
     1
 90
       50
176
     1
 90
       50
176
     1
 90
       50
176
     1
290
     0
176
     1
 90
       50
176
     1
 62
   256
176
     0
 40
1.0
176
     0
 90
        2
176
     1
  1
strokes_ogs.tif
176
     1
290
     0
176
     1
 40
1.0
176
     1
 40
1.0
176
     1
  0
VISUALSTYLE
  5
FA
102
{ACAD_REACTORS
330
EF
102
}
330
EF
100
AcDbVisualStyle
  2
Dim
 70
    11
177
     3
291
     1
 70
    58
 90
        2
176
     1
 90
        2
176
     1
 90
        1
176
     1
 90
        0
176
     1
 40
0.6
176
     1
 40
30.0
176
     1
 62
     7
420
 16777215
176
     1
 90
        1
176
     1
 90
        4
176
     1
 62
     7
176
     1
 62
   257
176
     1
 90
        1
176
     1
 90
        1
176
     1
 40
1.0
176
     1
 90
        8
176
     1
 62
     7
176
     1
 40
1.0
176
     1
 90
        1
176
     1
 90
        6
176
     1
 90
        2
176
     1
 62
     7
176
     1
 90
        5
176
     1
 90
        0
176
     1
 90
        0
176
     1
290
     0
176
     1
 90
        1
176
     1
 40
-50.0
176
     1
 90
        0
176
     1
290
     0
176
     1
290
     1
176
     1
290
     1
176
     1
290
     0
176
     1
290
     0
176
     1
290
     0
176
     1
290
     0
176
     1
290
     0
176
     1
290
     0
176
     1
 90
       50
176
     1
 40
0.0
176
     1
 40
1.0
176
     1
 90
        0
176
     1
 62
    18
420
        0
176
     1
 90
       50
176
     1
 90
        3
176
     1
 62
     5
420
      255
176
     1
290
     0
176
     1
 90
       50
176
     1
 90
       50
176
     1
 90
       50
176
     1
290
     0
176
     1
 90
       50
176
     1
 62
   256
176
     0
 40
1.0
176
     0
 90
        2
176
     1
  1
strokes_ogs.tif
176
     1
290
     0
176
     1
 40
1.0
176
     1
 40
1.0
176
     1
  0
VISUALSTYLE
  5
1E6
102
{ACAD_REACTORS
330
EF
102
}
330
EF
100
AcDbVisualStyle
  2
EdgeColorOff
 70
    22
177
     3
291
     1
 70
    58
 90
        2
176
     0
 90
        2
176
     0
 90
        0
176
     0
 90
        0
176
     0
 40
0.6
176
     0
 40
30.0
176
     0
 62
     7
420
 16777215
176
     0
 90
        1
176
     0
 90
        4
176
     0
 62
     7
176
     0
 62
   257
176
     0
 90
        1
176
     0
 90
        1
176
     0
 40
1.0
176
     0
 90
        8
176
     2
 62
     7
176
     0
 40
1.0
176
     0
 90
        1
176
     0
 90
        6
176
     0
 90
        2
176
     0
 62
     7
176
     0
 90
        5
176
     0
 90
        0
176
     0
 90
        0
176
     0
290
     0
176
     0
 90
        1
176
     0
 40
0.0
176
     0
 90
        0
176
     0
290
     0
176
     1
290
     1
176
     1
290
     1
176
     1
290
     0
176
     1
290
     0
176
     1
290
     0
176
     1
290
     0
176
     1
290
     0
176
     1
290
     0
176
     1
 90
       50
176
     1
 40
0.0
176
     1
 40
1.0
176
     1
 90
        0
176
     1
 62
    18
420
        0
176
     1
 90
       50
176
     1
 90
        3
176
     1
 62
     5
420
      255
176
     1
290
     0
176
     1
 90
       50
176
     1
 90
       50
176
     1
 90
       50
176
     1
290
     0
176
     1
 90
       50
176
     1
 62
   256
176
     0
 40
1.0
176
     0
 90
        2
176
     1
  1
strokes_ogs.tif
176
     1
290
     0
176
     1
 40
1.0
176
     1
 40
1.0
176
     1
  0
VISUALSTYLE
  5
FE
102
{ACAD_REACTORS
330
EF
102
}
330
EF
100
AcDbVisualStyle
  2
Facepattern
 70
    15
177
     3
291
     1
 70
    58
 90
        2
176
     1
 90
        2
176
     1
 90
        1
176
     1
 90
        0
176
     1
 40
0.6
176
     1
 40
30.0
176
     1
 62
     7
420
 16777215
176
     1
 90
        1
176
     1
 90
        4
176
     1
 62
     7
176
     1
 62
   257
176
     1
 90
        1
176
     1
 90
        1
176
     1
 40
1.0
176
     1
 90
        8
176
     1
 62
     7
176
     1
 40
1.0
176
     1
 90
        1
176
     1
 90
        6
176
     1
 90
        2
176
     1
 62
     7
176
     1
 90
        5
176
     1
 90
        0
176
     1
 90
        0
176
     1
290
     0
176
     1
 90
        1
176
     1
 40
0.0
176
     1
 90
        0
176
     1
290
     0
176
     1
290
     1
176
     1
290
     1
176
     1
290
     0
176
     1
290
     0
176
     1
290
     0
176
     1
290
     0
176
     1
290
     0
176
     1
290
     0
176
     1
 90
       50
176
     1
 40
0.0
176
     1
 40
1.0
176
     1
 90
        0
176
     1
 62
    18
420
        0
176
     1
 90
       50
176
     1
 90
        3
176
     1
 62
     5
420
      255
176
     1
290
     0
176
     1
 90
       50
176
     1
 90
       50
176
     1
 90
       50
176
     1
290
     0
176
     1
 90
       50
176
     1
 62
   256
176
     0
 40
1.0
176
     0
 90
        2
176
     1
  1
strokes_ogs.tif
176
     1
290
     0
176
     1
 40
1.0
176
     1
 40
1.0
176
     1
  0
VISUALSTYLE
  5
F0
102
{ACAD_REACTORS
330
EF
102
}
330
EF
100
AcDbVisualStyle
  2
Flat
 70
     0
177
     3
291
     1
 70
    58
 90
        2
176
     1
 90
        1
176
     1
 90
        1
176
     1
 90
        2
176
     1
 40
0.6
176
     1
 40
30.0
176
     1
 62
     7
420
 16777215
176
     1
 90
        0
176
     1
 90
        0
176
     1
 62
     7
176
     1
 62
   257
176
     1
 90
        1
176
     1
 90
        1
176
     1
 40
1.0
176
     1
 90
        8
176
     1
 62
     7
176
     1
 40
1.0
176
     1
 90
        1
176
     1
 90
        6
176
     1
 90
        2
176
     1
 62
     7
176
     1
 90
        5
176
     1
 90
        0
176
     1
 90
        0
176
     1
290
     0
176
     1
 90
       13
176
     1
 40
0.0
176
     1
 90
        0
176
     1
290
     0
176
     1
290
     1
176
     1
290
     1
176
     1
290
     0
176
     1
290
     0
176
     1
290
     0
176
     1
290
     0
176
     1
290
     0
176
     1
290
     0
176
     1
 90
       50
176
     1
 40
0.0
176
     1
 40
1.0
176
     1
 90
        0
176
     1
 62
    18
420
        0
176
     1
 90
       50
176
     1
 90
        3
176
     1
 62
     5
420
      255
176
     1
290
     0
176
     1
 90
       50
176
     1
 90
       50
176
     1
 90
       50
176
     1
290
     0
176
     1
 90
       50
176
     1
 62
   256
176
     0
 40
1.0
176
     0
 90
        2
176
     1
  1
strokes_ogs.tif
176
     1
290
     0
176
     1
 40
1.0
176
     1
 40
1.0
176
     1
  0
VISUALSTYLE
  5
F1
102
{ACAD_REACTORS
330
EF
102
}
330
EF
100
AcDbVisualStyle
  2
FlatWithEdges
 70
     1
177
     3
291
     1
 70
    58
 90
        2
176
     1
 90
        1
176
     1
 90
        1
176
     1
 90
        2
176
     1
 40
0.6
176
     1
 40
30.0
176
     1
 62
     7
420
 16777215
176
     1
 90
        1
176
     1
 90
        0
176
     1
 62
     7
176
     1
 62
   257
176
     1
 90
        1
176
     1
 90
        1
176
     1
 40
1.0
176
     1
 90
        0
176
     1
 62
   257
176
     1
 40
1.0
176
     1
 90
        1
176
     1
 90
        6
176
     1
 90
        2
176
     1
 62
     7
176
     1
 90
        5
176
     1
 90
        0
176
     1
 90
        0
176
     1
290
     0
176
     1
 90
       13
176
     1
 40
0.0
176
     1
 90
        0
176
     1
290
     0
176
     1
290
     1
176
     1
290
     1
176
     1
290
     0
176
     1
290
     0
176
     1
290
     0
176
     1
290
     0
176
     1
290
     0
176
     1
290
     0
176
     1
 90
       50
176
     1
 40
0.0
176
     1
 40
1.0
176
     1
 90
        0
176
     1
 62
    18
420
        0
176
     1
 90
       50
176
     1
 90
        3
176
     1
 62
     5
420
      255
176
     1
290
     0
176
     1
 90
       50
176
     1
 90
       50
176
     1
 90
       50
176
     1
290
     0
176
     1
 90
       50
176
     1
 62
   256
176
     0
 40
1.0
176
     0
 90
        2
176
     1
  1
strokes_ogs.tif
176
     1
290
     0
176
     1
 40
1.0
176
     1
 40
1.0
176
     1
  0
VISUALSTYLE
  5
F2
102
{ACAD_REACTORS
330
EF
102
}
330
EF
100
AcDbVisualStyle
  2
Gouraud
 70
     2
177
     3
291
     1
 70
    58
 90
        2
176
     1
 90
        2
176
     1
 90
        1
176
     1
 90
        2
176
     1
 40
0.6
176
     1
 40
30.0
176
     1
 62
     7
420
 16777215
176
     1
 90
        0
176
     1
 90
        0
176
     1
 62
     7
176
     1
 62
   257
176
     1
 90
        1
176
     1
 90
        1
176
     1
 40
1.0
176
     1
 90
        0
176
     1
 62
     7
176
     1
 40
1.0
176
     1
 90
        1
176
     1
 90
        6
176
     1
 90
        2
176
     1
 62
     7
176
     1
 90
        5
176
     1
 90
        0
176
     1
 90
        0
176
     1
290
     0
176
     1
 90
       13
176
     1
 40
0.0
176
     1
 90
        0
176
     1
290
     0
176
     1
290
     1
176
     1
290
     1
176
     1
290
     0
176
     1
290
     0
176
     1
290
     0
176
     1
290
     0
176
     1
290
     0
176
     1
290
     0
176
     1
 90
       50
176
     1
 40
0.0
176
     1
 40
1.0
176
     1
 90
        0
176
     1
 62
    18
420
        0
176
     1
 90
       50
176
     1
 90
        3
176
     1
 62
     5
420
      255
176
     1
290
     0
176
     1
 90
       50
176
     1
 90
       50
176
     1
 90
       50
176
     1
290
     0
176
     1
 90
       50
176
     1
 62
   256
176
     0
 40
1.0
176
     0
 90
        2
176
     1
  1
strokes_ogs.tif
176
     1
290
     0
176
     1
 40
1.0
176
     1
 40
1.0
176
     1
  0
VISUALSTYLE
  5
F3
102
{ACAD_REACTORS
330
EF
102
}
330
EF
100
AcDbVisualStyle
  2
GouraudWithEdges
 70
     3
177
     3
291
     1
 70
    58
 90
        2
176
     1
 90
        2
176
     1
 90
        1
176
     1
 90
        2
176
     1
 40
0.6
176
     1
 40
30.0
176
     1
 62
     7
420
 16777215
176
     1
 90
        1
176
     1
 90
        0
176
     1
 62
     7
176
     1
 62
   257
176
     1
 90
        1
176
     1
 90
        1
176
     1
 40
1.0
176
     1
 90
        0
176
     1
 62
   257
176
     1
 40
1.0
176
     1
 90
        1
176
     1
 90
        6
176
     1
 90
        2
176
     1
 62
     7
176
     1
 90
        5
176
     1
 90
        0
176
     1
 90
        0
176
     1
290
     0
176
     1
 90
       13
176
     1
 40
0.0
176
     1
 90
        0
176
     1
290
     0
176
     1
290
     1
176
     1
290
     1
176
     1
290
     0
176
     1
290
     0
176
     1
290
     0
176
     1
290
     0
176
     1
290
     0
176
     1
290
     0
176
     1
 90
       50
176
     1
 40
0.0
176
     1
 40
1.0
176
     1
 90
        0
176
     1
 62
    18
420
        0
176
     1
 90
       50
176
     1
 90
        3
176
     1
 62
     5
420
      255
176
     1
290
     0
176
     1
 90
       50
176
     1
 90
       50
176
     1
 90
       50
176
     1
290
     0
176
     1
 90
       50
176
     1
 62
   256
176
     0
 40
1.0
176
     0
 90
        2
176
     1
  1
strokes_ogs.tif
176
     1
290
     0
176
     1
 40
1.0
176
     1
 40
1.0
176
     1
  0
VISUALSTYLE
  5
F7
102
{ACAD_REACTORS
330
EF
102
}
330
EF
100
AcDbVisualStyle
  2
Hidden
 70
     6
177
     3
291
     0
 70
    58
 90
        1
176
     1
 90
        2
176
     1
 90
        2
176
     1
 90
        0
176
     1
 40
0.6
176
     1
 40
30.0
176
     1
 62
     7
420
 16777215
176
     1
 90
        2
176
     1
 90
        2
176
     1
 62
     7
176
     1
 62
   257
176
     1
 90
        2
176
     1
 90
        1
176
     1
 40
40.0
176
     1
 90
        0
176
     1
 62
   257
176
     1
 40
1.0
176
     1
 90
        1
176
     1
 90
        6
176
     1
 90
        2
176
     1
 62
     7
176
     1
 90
        3
176
     1
 90
        0
176
     1
 90
        0
176
     1
290
     0
176
     1
 90
        1
176
     1
 40
0.0
176
     1
 90
        0
176
     1
290
     0
176
     1
290
     1
176
     1
290
     1
176
     1
290
     0
176
     1
290
     0
176
     1
290
     0
176
     1
290
     0
176
     1
290
     0
176
     1
290
     0
176
     1
 90
       50
176
     1
 40
0.0
176
     1
 40
1.0
176
     1
 90
        0
176
     1
 62
    18
420
        0
176
     1
 90
       50
176
     1
 90
        3
176
     1
 62
     5
420
      255
176
     1
290
     0
176
     1
 90
       50
176
     1
 90
       50
176
     1
 90
       50
176
     1
290
     0
176
     1
 90
       50
176
     1
 62
   256
176
     0
 40
1.0
176
     0
 90
        2
176
     1
  1
strokes_ogs.tif
176
     1
290
     0
176
     1
 40
1.0
176
     1
 40
1.0
176
     1
  0
VISUALSTYLE
  5
1E4
102
{ACAD_REACTORS
330
EF
102
}
330
EF
100
AcDbVisualStyle
  2
JitterOff
 70
    20
177
     3
291
     1
 70
    58
 90
        2
176
     0
 90
        2
176
     0
 90
        0
176
     0
 90
        0
176
     0
 40
0.6
176
     0
 40
30.0
176
     0
 62
     7
420
 16777215
176
     0
 90
        1
176
     0
 90
        4
176
     0
 62
     7
176
     0
 62
   257
176
     0
 90
        1
176
     0
 90
        1
176
     0
 40
1.0
176
     0
 90
       10
176
     2
 62
     7
176
     0
 40
1.0
176
     0
 90
        1
176
     0
 90
        6
176
     0
 90
        2
176
     0
 62
     7
176
     0
 90
        5
176
     0
 90
        0
176
     0
 90
        0
176
     0
290
     0
176
     0
 90
        1
176
     0
 40
0.0
176
     0
 90
        0
176
     0
290
     0
176
     1
290
     1
176
     1
290
     1
176
     1
290
     0
176
     1
290
     0
176
     1
290
     0
176
     1
290
     0
176
     1
290
     0
176
     1
290
     0
176
     1
 90
       50
176
     1
 40
0.0
176
     1
 40
1.0
176
     1
 90
        0
176
     1
 62
    18
420
        0
176
     1
 90
       50
176
     1
 90
        3
176
     1
 62
     5
420
      255
176
     1
290
     0
176
     1
 90
       50
176
     1
 90
       50
176
     1
 90
       50
176
     1
290
     0
176
     1
 90
       50
176
     1
 62
   256
176
     0
 40
1.0
176
     0
 90
        2
176
     1
  1
strokes_ogs.tif
176
     1
290
     0
176
     1
 40
1.0
176
     1
 40
1.0
176
     1
  0
VISUALSTYLE
  5
FD
102
{ACAD_REACTORS
330
EF
102
}
330
EF
100
AcDbVisualStyle
  2
Linepattern
 70
    14
177
     3
291
     1
 70
    58
 90
        2
176
     1
 90
        2
176
     1
 90
        1
176
     1
 90
        0
176
     1
 40
0.6
176
     1
 40
30.0
176
     1
 62
     7
420
 16777215
176
     1
 90
        1
176
     1
 90
        4
176
     1
 62
     7
176
     1
 62
   257
176
     1
 90
        7
176
     1
 90
        7
176
     1
 40
1.0
176
     1
 90
        8
176
     1
 62
     7
176
     1
 40
1.0
176
     1
 90
        1
176
     1
 90
        6
176
     1
 90
        2
176
     1
 62
     7
176
     1
 90
        5
176
     1
 90
        0
176
     1
 90
        0
176
     1
290
     0
176
     1
 90
        1
176
     1
 40
0.0
176
     1
 90
        0
176
     1
290
     0
176
     1
290
     1
176
     1
290
     1
176
     1
290
     0
176
     1
290
     0
176
     1
290
     0
176
     1
290
     0
176
     1
290
     0
176
     1
290
     0
176
     1
 90
       50
176
     1
 40
0.0
176
     1
 40
1.0
176
     1
 90
        0
176
     1
 62
    18
420
        0
176
     1
 90
       50
176
     1
 90
        3
176
     1
 62
     5
420
      255
176
     1
290
     0
176
     1
 90
       50
176
     1
 90
       50
176
     1
 90
       50
176
     1
290
     0
176
     1
 90
       50
176
     1
 62
   256
176
     0
 40
1.0
176
     0
 90
        2
176
     1
  1
strokes_ogs.tif
176
     1
290
     0
176
     1
 40
1.0
176
     1
 40
1.0
176
     1
  0
VISUALSTYLE
  5
1E5
102
{ACAD_REACTORS
330
EF
102
}
330
EF
100
AcDbVisualStyle
  2
OverhangOff
 70
    21
177
     3
291
     1
 70
    58
 90
        2
176
     0
 90
        2
176
     0
 90
        0
176
     0
 90
        0
176
     0
 40
0.6
176
     0
 40
30.0
176
     0
 62
     7
420
 16777215
176
     0
 90
        1
176
     0
 90
        4
176
     0
 62
     7
176
     0
 62
   257
176
     0
 90
        1
176
     0
 90
        1
176
     0
 40
1.0
176
     0
 90
        9
176
     2
 62
     7
176
     0
 40
1.0
176
     0
 90
        1
176
     0
 90
        6
176
     0
 90
        2
176
     0
 62
     7
176
     0
 90
        5
176
     0
 90
        0
176
     0
 90
        0
176
     0
290
     0
176
     0
 90
        1
176
     0
 40
0.0
176
     0
 90
        0
176
     0
290
     0
176
     1
290
     1
176
     1
290
     1
176
     1
290
     0
176
     1
290
     0
176
     1
290
     0
176
     1
290
     0
176
     1
290
     0
176
     1
290
     0
176
     1
 90
       50
176
     1
 40
0.0
176
     1
 40
1.0
176
     1
 90
        0
176
     1
 62
    18
420
        0
176
     1
 90
       50
176
     1
 90
        3
176
     1
 62
     5
420
      255
176
     1
290
     0
176
     1
 90
       50
176
     1
 90
       50
176
     1
 90
       50
176
     1
290
     0
176
     1
 90
       50
176
     1
 62
   256
176
     0
 40
1.0
176
     0
 90
        2
176
     1
  1
strokes_ogs.tif
176
     1
290
     0
176
     1
 40
1.0
176
     1
 40
1.0
176
     1
  0
VISUALSTYLE
  5
F9
102
{ACAD_REACTORS
330
EF
102
}
330
EF
100
AcDbVisualStyle
  2
Realistic
 70
     8
177
     3
291
     0
 70
    58
 90
        2
176
     1
 90
        3
176
     1
 90
        0
176
     1
 90
        2
176
     1
 40
0.6
176
     1
 40
30.0
176
     1
 62
     7
420
 16777215
176
     1
 90
        0
176
     1
 90
        0
176
     1
 62
     7
176
     1
 62
   257
176
     1
 90
        1
176
     1
 90
        1
176
     1
 40
1.0
176
     1
 90
        8
176
     1
 62
   257
176
     1
 40
1.0
176
     1
 90
        1
176
     1
 90
        6
176
     1
 90
        2
176
     1
 62
     7
176
     1
 90
        3
176
     1
 90
        0
176
     1
 90
        0
176
     1
290
     0
176
     1
 90
       13
176
     1
 40
0.0
176
     1
 90
        0
176
     1
290
     0
176
     1
290
     1
176
     1
290
     1
176
     1
290
     0
176
     1
290
     0
176
     1
290
     0
176
     1
290
     0
176
     1
290
     0
176
     1
290
     0
176
     1
 90
       50
176
     1
 40
0.0
176
     1
 40
1.0
176
     1
 90
        0
176
     1
 62
    18
420
        0
176
     1
 90
       50
176
     1
 90
        3
176
     1
 62
     5
420
      255
176
     1
290
     0
176
     1
 90
       50
176
     1
 90
       50
176
     1
 90
       50
176
     1
290
     0
176
     1
 90
       50
176
     1
 62
   256
176
     0
 40
1.0
176
     0
 90
        2
176
     1
  1
strokes_ogs.tif
176
     1
290
     0
176
     1
 40
1.0
176
     1
 40
1.0
176
     1
  0
VISUALSTYLE
  5
1F3
102
{ACAD_REACTORS
330
EF
102
}
330
EF
100
AcDbVisualStyle
  2
Shaded
 70
    27
177
     3
291
     0
 70
    58
 90
        2
176
     1
 90
        2
176
     1
 90
        1
176
     1
 90
        2
176
     1
 40
0.6
176
     1
 40
30.0
176
     1
 62
     7
420
 16777215
176
     1
 90
        0
176
     1
 90
        4
176
     1
 62
     7
176
     1
 62
   257
176
     1
 90
        1
176
     1
 90
        1
176
     1
 40
1.0
176
     1
 90
        8
176
     1
 62
   257
176
     1
 40
1.0
176
     1
 90
        1
176
     1
 90
        6
176
     1
 90
        2
176
     1
 62
     8
420
  7895160
176
     1
 90
        3
176
     1
 90
        0
176
     1
 90
        0
176
     1
290
     0
176
     1
 90
        5
176
     1
 40
0.0
176
     1
 90
        0
176
     1
290
     0
176
     1
290
     1
176
     1
290
     1
176
     1
290
     0
176
     1
290
     0
176
     1
290
     0
176
     1
290
     0
176
     1
290
     0
176
     1
290
     0
176
     1
 90
       50
176
     1
 40
0.0
176
     1
 40
1.0
176
     1
 90
        0
176
     1
 62
    18
420
        0
176
     1
 90
       50
176
     1
 90
        3
176
     1
 62
     5
420
      255
176
     1
290
     0
176
     1
 90
       50
176
     1
 90
       50
176
     1
 90
       50
176
     1
290
     0
176
     1
 90
       50
176
     1
 62
   256
176
     0
 40
1.0
176
     0
 90
        2
176
     1
  1
strokes_ogs.tif
176
     1
290
     0
176
     1
 40
1.0
176
     1
 40
1.0
176
     1
  0
VISUALSTYLE
  5
1F2
102
{ACAD_REACTORS
330
EF
102
}
330
EF
100
AcDbVisualStyle
  2
Shaded with edges
 70
    26
177
     3
291
     0
 70
    58
 90
        2
176
     1
 90
        2
176
     1
 90
        1
176
     1
 90
        2
176
     1
 40
0.6
176
     1
 40
30.0
176
     1
 62
     7
420
 16777215
176
     1
 90
        1
176
     1
 90
        2
176
     1
 62
     7
176
     1
 62
   257
176
     1
 90
        2
176
     1
 90
        1
176
     1
 40
1.0
176
     1
 90
        8
176
     1
 62
   257
176
     1
 40
1.0
176
     1
 90
        1
176
     1
 90
        6
176
     1
 90
        2
176
     1
 62
     7
176
     1
 90
        3
176
     1
 90
        0
176
     1
 90
        0
176
     1
290
     0
176
     1
 90
        5
176
     1
 40
0.0
176
     1
 90
        0
176
     1
290
     0
176
     1
290
     1
176
     1
290
     1
176
     1
290
     0
176
     1
290
     0
176
     1
290
     0
176
     1
290
     0
176
     1
290
     0
176
     1
290
     0
176
     1
 90
       50
176
     1
 40
0.0
176
     1
 40
1.0
176
     1
 90
        0
176
     1
 62
    18
420
        0
176
     1
 90
       50
176
     1
 90
        3
176
     1
 62
     5
420
      255
176
     1
290
     0
176
     1
 90
       50
176
     1
 90
       50
176
     1
 90
       50
176
     1
290
     0
176
     1
 90
       50
176
     1
 62
   256
176
     0
 40
1.0
176
     0
 90
        2
176
     1
  1
strokes_ogs.tif
176
     1
290
     0
176
     1
 40
1.0
176
     1
 40
1.0
176
     1
  0
VISUALSTYLE
  5
1EF
102
{ACAD_REACTORS
330
EF
102
}
330
EF
100
AcDbVisualStyle
  2
Shades of Gray
 70
    23
177
     3
291
     0
 70
    58
 90
        2
176
     1
 90
        2
176
     1
 90
        3
176
     1
 90
        0
176
     1
 40
0.6
176
     1
 40
30.0
176
     1
 62
     7
420
 16777215
176
     1
 90
        2
176
     1
 90
        2
176
     1
 62
     7
176
     1
 62
     7
176
     1
 90
        1
176
     1
 90
        1
176
     1
 40
40.0
176
     1
 90
        8
176
     1
 62
     7
176
     1
 40
1.0
176
     1
 90
        1
176
     1
 90
        6
176
     1
 90
        2
176
     1
 62
     7
176
     1
 90
        3
176
     1
 90
        0
176
     1
 90
        0
176
     1
290
     0
176
     1
 90
        1
176
     1
 40
0.0
176
     1
 90
        0
176
     1
290
     0
176
     1
290
     1
176
     1
290
     1
176
     1
290
     0
176
     1
290
     0
176
     1
290
     0
176
     1
290
     0
176
     1
290
     0
176
     1
290
     0
176
     1
 90
       50
176
     1
 40
0.0
176
     1
 40
1.0
176
     1
 90
        0
176
     1
 62
    18
420
        0
176
     1
 90
       50
176
     1
 90
        3
176
     1
 62
     5
420
      255
176
     1
290
     0
176
     1
 90
       50
176
     1
 90
       50
176
     1
 90
       50
176
     1
290
     0
176
     1
 90
       50
176
     1
 62
   256
176
     0
 40
1.0
176
     0
 90
        2
176
     1
  1
strokes_ogs.tif
176
     1
290
     0
176
     1
 40
1.0
176
     1
 40
1.0
176
     1
  0
VISUALSTYLE
  5
1F0
102
{ACAD_REACTORS
330
EF
102
}
330
EF
100
AcDbVisualStyle
  2
Sketchy
 70
    24
177
     3
291
     0
 70
    58
 90
        1
176
     1
 90
        2
176
     1
 90
        2
176
     1
 90
        0
176
     1
 40
0.6
176
     1
 40
30.0
176
     1
 62
     7
420
 16777215
176
     1
 90
        2
176
     1
 90
        2
176
     1
 62
     7
176
     1
 62
     7
176
     1
 90
        1
176
     1
 90
        1
176
     1
 40
40.0
176
     1
 90
       11
176
     1
 62
     7
176
     1
 40
1.0
176
     1
 90
        1
176
     1
 90
        6
176
     1
 90
        2
176
     1
 62
     7
176
     1
 90
        6
176
     1
 90
        0
176
     1
 90
        0
176
     1
290
     0
176
     1
 90
        1
176
     1
 40
0.0
176
     1
 90
        0
176
     1
290
     0
176
     1
290
     1
176
     1
290
     1
176
     1
290
     0
176
     1
290
     0
176
     1
290
     0
176
     1
290
     0
176
     1
290
     0
176
     1
290
     0
176
     1
 90
       50
176
     1
 40
0.0
176
     1
 40
1.0
176
     1
 90
        0
176
     1
 62
    18
420
        0
176
     1
 90
       50
176
     1
 90
        3
176
     1
 62
     5
420
      255
176
     1
290
     0
176
     1
 90
       50
176
     1
 90
       50
176
     1
 90
       50
176
     1
290
     0
176
     1
 90
       50
176
     1
 62
   256
176
     0
 40
1.0
176
     0
 90
        2
176
     1
  1
strokes_ogs.tif
176
     1
290
     0
176
     1
 40
1.0
176
     1
 40
1.0
176
     1
  0
VISUALSTYLE
  5
FC
102
{ACAD_REACTORS
330
EF
102
}
330
EF
100
AcDbVisualStyle
  2
Thicken
 70
    13
177
     3
291
     1
 70
    58
 90
        2
176
     1
 90
        2
176
     1
 90
        1
176
     1
 90
        0
176
     1
 40
0.6
176
     1
 40
30.0
176
     1
 62
     7
420
 16777215
176
     1
 90
        1
176
     1
 90
        4
176
     1
 62
     7
176
     1
 62
   257
176
     1
 90
        1
176
     1
 90
        1
176
     1
 40
1.0
176
     1
 90
       12
176
     1
 62
     7
176
     1
 40
1.0
176
     1
 90
        1
176
     1
 90
        6
176
     1
 90
        2
176
     1
 62
     7
176
     1
 90
        5
176
     1
 90
        0
176
     1
 90
        0
176
     1
290
     0
176
     1
 90
        1
176
     1
 40
0.0
176
     1
 90
        0
176
     1
290
     0
176
     1
290
     1
176
     1
290
     1
176
     1
290
     0
176
     1
290
     0
176
     1
290
     0
176
     1
290
     0
176
     1
290
     0
176
     1
290
     0
176
     1
 90
       50
176
     1
 40
0.0
176
     1
 40
1.0
176
     1
 90
        0
176
     1
 62
    18
420
        0
176
     1
 90
       50
176
     1
 90
        3
176
     1
 62
     5
420
      255
176
     1
290
     0
176
     1
 90
       50
176
     1
 90
       50
176
     1
 90
       50
176
     1
290
     0
176
     1
 90
       50
176
     1
 62
   256
176
     0
 40
1.0
176
     0
 90
        2
176
     1
  1
strokes_ogs.tif
176
     1
290
     0
176
     1
 40
1.0
176
     1
 40
1.0
176
     1
  0
VISUALSTYLE
  5
F6
102
{ACAD_REACTORS
330
EF
102
}
330
EF
100
AcDbVisualStyle
  2
Wireframe
 70
     5
177
     3
291
     0
 70
    58
 90
        0
176
     1
 90
        2
176
     1
 90
        0
176
     1
 90
        0
176
     1
 40
0.6
176
     1
 40
30.0
176
     1
 62
     7
420
 16777215
176
     1
 90
        1
176
     1
 90
        4
176
     1
 62
     7
176
     1
 62
   257
176
     1
 90
        1
176
     1
 90
        1
176
     1
 40
1.0
176
     1
 90
        0
176
     1
 62
   257
176
     1
 40
1.0
176
     1
 90
        1
176
     1
 90
        6
176
     1
 90
        2
176
     1
 62
     7
176
     1
 90
        3
176
     1
 90
        0
176
     1
 90
        0
176
     1
290
     0
176
     1
 90
        1
176
     1
 40
0.0
176
     1
 90
        0
176
     1
290
     0
176
     1
290
     1
176
     1
290
     1
176
     1
290
     0
176
     1
290
     0
176
     1
290
     0
176
     1
290
     0
176
     1
290
     0
176
     1
290
     0
176
     1
 90
       50
176
     1
 40
0.0
176
     1
 40
1.0
176
     1
 90
        0
176
     1
 62
    18
420
        0
176
     1
 90
       50
176
     1
 90
        3
176
     1
 62
     5
420
      255
176
     1
290
     0
176
     1
 90
       50
176
     1
 90
       50
176
     1
 90
       50
176
     1
290
     0
176
     1
 90
       50
176
     1
 62
   256
176
     0
 40
1.0
176
     0
 90
        2
176
     1
  1
strokes_ogs.tif
176
     1
290
     0
176
     1
 40
1.0
176
     1
 40
1.0
176
     1
  0
VISUALSTYLE
  5
1F1
102
{ACAD_REACTORS
330
EF
102
}
330
EF
100
AcDbVisualStyle
  2
X-Ray
 70
    25
177
     3
291
     0
 70
    58
 90
        2
176
     1
 90
        2
176
     1
 90
        1
176
     1
 90
        1
176
     1
 40
0.5
176
     1
 40
30.0
176
     1
 62
     7
420
 16777215
176
     1
 90
        1
176
     1
 90
        0
176
     1
 62
     7
176
     1
 62
   257
176
     1
 90
        1
176
     1
 90
        1
176
     1
 40
1.0
176
     1
 90
        8
176
     1
 62
     7
176
     1
 40
1.0
176
     1
 90
        1
176
     1
 90
        6
176
     1
 90
        2
176
     1
 62
     7
176
     1
 90
        3
176
     1
 90
        0
176
     1
 90
        0
176
     1
290
     0
176
     1
 90
       13
176
     1
 40
0.0
176
     1
 90
        0
176
     1
290
     0
176
     1
290
     1
176
     1
290
     1
176
     1
290
     0
176
     1
290
     0
176
     1
290
     0
176
     1
290
     0
176
     1
290
     0
176
     1
290
     0
176
     1
 90
       50
176
     1
 40
0.0
176
     1
 40
1.0
176
     1
 90
        0
176
     1
 62
    18
420
        0
176
     1
 90
       50
176
     1
 90
        3
176
     1
 62
     5
420
      255
176
     1
290
     0
176
     1
 90
       50
176
     1
 90
       50
176
     1
 90
       50
176
     1
290
     0
176
     1
 90
       50
176
     1
 62
   256
176
     0
 40
1.0
176
     0
 90
        2
176
     1
  1
strokes_ogs.tif
176
     1
290
     0
176
     1
 40
1.0
176
     1
 40
1.0
176
     1
  0
DICTIONARYVAR
  5
146
102
{ACAD_REACTORS
330
5E
102
}
330
5E
100
DictionaryVariables
280
     0
  1
1:1
  0
DICTIONARYVAR
  5
259
102
{ACAD_REACTORS
330
5E
102
}
330
5E
100
DictionaryVariables
280
     0
  1
3.500000
  0
DICTIONARYVAR
  5
25A
102
{ACAD_REACTORS
330
5E
102
}
330
5E
100
DictionaryVariables
280
     0
  1
acadiso.lin
  0
DICTIONARYVAR
  5
145
102
{ACAD_REACTORS
330
5E
102
}
330
5E
100
DictionaryVariables
280
     0
  1
STANDARD
  0
DICTIONARYVAR
  5
84
102
{ACAD_REACTORS
330
5E
102
}
330
5E
100
DictionaryVariables
280
     0
  1
STANDARD
  0
DICTIONARYVAR
  5
227
102
{ACAD_REACTORS
330
5E
102
}
330
5E
100
DictionaryVariables
280
     0
  1
Metric50
  0
DICTIONARYVAR
  5
228
102
{ACAD_REACTORS
330
5E
102
}
330
5E
100
DictionaryVariables
280
     0
  1
Metric50
  0
DICTIONARYVAR
  5
5F
102
{ACAD_REACTORS
330
5E
102
}
330
5E
100
DictionaryVariables
280
     0
  1
2
  0
DICTIONARYVAR
  5
63
102
{ACAD_REACTORS
330
5E
102
}
330
5E
100
DictionaryVariables
280
     0
  1
1
  0
DICTIONARYVAR
  5
1FFCA
102
{ACAD_REACTORS
330
5E
102
}
330
5E
100
DictionaryVariables
280
     0
  1
BYLAYER
  0
DICTIONARYVAR
  5
1FFC9
102
{ACAD_REACTORS
330
5E
102
}
330
5E
100
DictionaryVariables
280
     0
  1
ByLayer
  0
DICTIONARYVAR
  5
1AE
102
{ACAD_REACTORS
330
5E
102
}
330
5E
100
DictionaryVariables
280
     0
  1
0
  0
DICTIONARYVAR
  5
1AF
102
{ACAD_REACTORS
330
5E
102
}
330
5E
100
DictionaryVariables
280
     0
  1
0
  0
DICTIONARY
  5
352A6
102
{ACAD_REACTORS
330
352A5
102
}
330
352A5
100
AcDbDictionary
281
     1
  3
*A1
350
352A7
  0
DICTIONARY
  5
2A868
102
{ACAD_REACTORS
330
2A867
102
}
330
2A867
100
AcDbDictionary
281
     1
  3
*A1
350
2A869
  0
DICTIONARY
  5
205
330
22
100
AcDbDictionary
280
     1
281
     1
  0
DICTIONARY
  5
1F9
330
ED
100
AcDbDictionary
280
     1
281
     1
  3
FBXASSET
360
1FA
  0
DICTIONARY
  5
1F7
330
EC
100
AcDbDictionary
280
     1
281
     1
  3
FBXASSET
360
1F8
  0
DICTIONARY
  5
173
330
EE
100
AcDbDictionary
280
     1
281
     1
  3
BUMPTILE
360
175
  3
DIFFUSETILE
360
174
  3
FBXASSET
360
1FB
  3
OPACITYTILE
360
176
  3
REFLECTIONTILE
360
177
  0
DICTIONARY
  5
162
330
7F
100
AcDbDictionary
280
     1
281
     1
  3
ACAD_ROUNDTRIP_2008_TABLESTYLE_CELLSTYLEMAP
360
352BA
  0
ACDB_MTEXTATTRIBUTEOBJECTCONTEXTDATA_CLASS
  5
352A7
102
{ACAD_REACTORS
330
352A6
102
}
330
352A6
100
AcDbObjectContextData
 70
     4
290
     1
100
AcDbAnnotScaleObjectContextData
340
10D
 70
     1
 50
0.0
 10
-160.4113567328895
 20
-1090.842384197709
 11
6.573636445828014
 21
-1040.842384197709
290
     0
  0
ACDB_MTEXTATTRIBUTEOBJECTCONTEXTDATA_CLASS
  5
2A869
102
{ACAD_REACTORS
330
2A868
102
}
330
2A868
100
AcDbObjectContextData
 70
     4
290
     1
100
AcDbAnnotScaleObjectContextData
340
10D
 70
     1
 50
0.0
 10
41664.90181102005
 20
2972.166017143838
 11
41831.88680419877
 21
3022.166017143838
290
     0
  0
XRECORD
  5
1FA
102
{ACAD_REACTORS
330
1F9
102
}
330
1F9
100
AcDbXrecord
280
     1
 70
     1
 90
429727718
  1
D62C5603-E3A1-4AEA-B7FB-FE5D8D0755AF
310
504B03040A0000080000CC70623B3DEE336E79000000790000001B0000006175746F6465736B2D64657369676E2D7061636B6167652E786D6C3C3F786D6C2076657273696F6E3D22312E302220656E636F64696E673D227574662D3822203F3E3C666F726D6174733E3C666F726D61743E687474703A2F2F736368656D612E
310
6175746F6465736B2E636F6D2F64657369676E2D7061636B6167652F323030393C2F666F726D61743E3C2F666F726D6174733E504B0304140006080800CC70623BD486FD9CA0000000F4000000130000005B436F6E74656E745F54797065735D2E786D6C7D8EC10E82300C865F65E91D8A1E8C310C0EEA1BF002731658846E
310
D98AC1B77784ABF1D8FE5FBFBF75BBCE937A534CCEB38643598122B6FEE978D0B0485F9C41B54DDD7D022595594E1A469170414C76A4D9A4D207E29CF43ECE46F218070CC6BECC4078ACAA135ACF422C856C0E68EA1BF5669944DDD7BCDE7B1F8E415D77AECB980613C2E4AC91FC167A2B244592486606FC29C8FD7F045B9A
310
EF7053A7E60B504B0304140006080800CC70623B853B8169EB0000007C01000008000000636F72652E786D6C8D90416EC3201045AF62CDB6C206821CC7C244919D9CA01740401C94182C03558F5F9C3852BBEB6A467FFE9B197D7EFC9E1EC5975982F5AE035262288C535E5B377690E21535501C055FBC8FBF6C503839990E
310
5619041F179FE64D52DE45E362569DD7661365082642A11EB9E920A89B99642953CC8E702F67A9EE7234257977194EC9EAE275C4EABCCF5EAD5940D4AC6F0E35A568B8F43562CD7046CD199FD07E60174276A7BE677B5EADB0E0D14EEFFB6A31321A0D82627C4084204C3F096B71DD52F6819B16635EADF63F509AF53FA164
310
5DDCD1EDDD17164090FCC8732078B56691CB33A85CD7DCC40F504B0304140006080800CC70623B55019EA25F0000007C00000007000000636E782E786D6C4DCB3B0E80201045D1AD90E915ED2CF8AC45050C11660C8261F98AB1B07AC9C97D42D718D865D3E909258CFD00CCE24AC6E326A164D74DC0B4128928FF32603847
310
2BA13128B1252AC747C6BAB984FC68F0B87FE8960A5C09FE86CFB69FBA01504B0304140006080800CC70623BDBABAAF470010000D40300000C0000006662782F636F72652E786D6CC553D16E823014FD95A6AF4B694182CC941A83FA05FB810A9511A125A5257EFE2E82712ECEB8A7F100CD39F7F69E734AF9FADC366850B6
310
AF8DCE7018308C942E4C59EB2AC3DE1D498AD15A706B8CFB56869196ADCAF00863C12B6B7C374385D14E6907A836A59A41D9F7CA615434B0C8705F7CAA5606D23BA8E84F41278B93AC54100640439DE0BDB320004D43C63716C7C399D30917DCFBBA9CD9BA8469F5B156168B24CED3F7248AC8769F27244EB73B92EED8862C
310
B7F13E0C179B3C8F979C8ECD82BBBABDAA2BAC924E9558448CBD9330242CFA08E3154B5651FCC6D215639C8EE5774DBE2B5F6CF2B5768B68963BB5F5588420E442FC700B1139D4CB01F450C1E918227C2E09DF070D8140C84E1E9AAB8F1340832A9CB13130A5F1376A908D57309505ECF2A0DF179C4E9D30F5B239B87E3823
310
7A79C6F31DE1A8A5AEC08474B03C7837EAE4938639B44E5932B833D2C6B6B279CDC613877FA26EE21F4A2A4C63EC7F29A2F301D1F9F7A0E37D145F504B0304140006080800CC70623B9C113CC27E0000009D0000000B0000006662782F636E782E786D6C4DCCDF0A83201C86E15B91DFB94BFB330DD428C8FB886521330DA7
310
6397BF1A1DECE883878F57749FCDA1B7892F1BBC047A23808C7F84D9FA55424E0BE6803A256208E9EF06C84F9B91703228B1C690F78B66B34CD9A5439DF5CF0BFBF65E35BCA1B8D6A5C6F540381E886698B5741C695F9503EBA150A2F8958E3DC3EA0B504B0304140006080800CC70623B7DF2F77C2A010000120200003100
310
00006662782F41393633353835312D344632462D344230382D423046372D3739314545314133324237412F636F72652E786D6C8D51DB8EC22014FC15C2939B0D2DB4B45643319AE817EC0F6041255A68B86CFCFC856D4D76DF7CE190393373060EDB3DC707F856CE6B6B7A480A0C81328395DA5C7B18C3057510EC3873D686
310
3F34088C18550F330C39BB3A1BA7051AAC09CA84841A2BD5020AEF55806078A44B0FFD7053A328440C89E1EFC52486BBB8AA8214A99D789CF9E05200300FC927E4FB4D5B375D43103D5527440FB843077C5AA3F5861C8F645F5787F59E95B390B318B55CE45AA638FAA2957BD7248B390B7A7CC51F9C124149C82B8C378810
310
84AB2F42B7B8DD56F413775B8C5999E9FF4471926F8AA236A1AE96B8B3CC434E5839373893369E1FAF30EA395917409EB7F26AF8801C171837A4A6AC9C89E9F9C9B1A58BA30FD6A5EF5DDDCF894B9AD9B6A59C957943A9FCAE2FD5BC4DFE03504B0304140006080800CC70623BAD7543B64E01000033030000300000006662
310
782F41393633353835312D344632462D344230382D423046372D3739314545314133324237412F636E782E786D6CD593CD6EC32010845F0571AD6CE3D48AD20813A9873E410FBD12D82434182C7EAAE6EDBB2424CD25871E7B41D6EC30B3FA84F9E67BB2E40B4234DE8DB46F1925E094D7C6ED479AD3AE5951B2113C789FEE
310
6C943839C1488B4C05DF079FE72A69D8C96C13AAD6B8631503449F83828872B949AC57D26200B826A308D316B4064D6E46FCDA41C05550DC9E483A00797BFD207EFB092A45DE9514C1BBD22178396BD39D891265658C238DEA00936C654E5E433CB65A26D9F6EDB5EBC14EBF49A45CB856E66048291F6939A9A81BB5C89177
310
38143CA680F4AA299D66A042CEB3354A2684DC9D8D178FE0D9B8B41CAAD720F880EE7EF93C0C18769E099ECC04D5A102C8049A8A05632F4DDF376CF1DE0F6BB65C2F8627B65A33C6BB62177CEBBDAD973006829F89F22E814B54F4BC2BE347F8AA8F681390B50FA73F804400B5F542E796F19FF974E7F78DB802FE05E20750
310
4B0304140006080800CC70623BE75B7789680500003C100000340000006662782F41393633353835312D344632462D344230382D423046372D3739314545314133324237412F6F626A656374732E786D6CAD575B8F9B3818FD2B887D06C22499CB8AA1CA655245D5B455A356FB305264C061D8018C6C3393D95FBFC7600890
310
A4CD5EF210B0B1BFEBF98E3F7B1FF6596ABC522E1296DF9BAE3D320D9A872C4AF2F8DE2CE5CEBA358D0FBEC719939D65A691938CDE9B6ADAF4BD98B3B2D05311DD91329583D9D5FC0F438434A7A611A644887B5384CF34233629258BA878B12322891DEFF6B66BD70BFB62634E8AE781D082709A4B588AF91C528CDA28B73F
310
1C998EEF39EABBEFA97FBD6A7C7E9553F9D3D79FE442923C3C523610337627CB87ABE99D359D4CC6D6E4FACAB5E6ABF9D2726FC6A3C5F56271377BB88362213924694B38DD99FE47C48627A1E7D49F5A8BB5E1A74C0A599ED3B0F21F1E56366B89112D681E218F0915D0D6F17AD41FBA2A369DCF6335D62ABBD39779D5DDD1
310
11D4D8DE3CBB96B2E04FB8202E41051754A1AA8E8F76B4C6DFE810B580B1547F4B84911149794252234D024EF8BBE963A95AE27B3D310A9D5C215C7960FAEE415ED75694C6AFB17BCACA5D99A60A9AA65F217B0BFC53292ACB92BF283FAD0D3621576592CB5BED907C2FA8E9DF794E35E97BEA31BED21FEB401ABB94C44839
310
DCACBF0E1C5DA8DA5B2F4DFFD32AD86F543D9E565E7056502E157C00AD2671CD534549AB752FCA9CDA00677A313F04E51B22FF19E57B300579E3C97EB29F682D92935CEC18CF901B7B54FD8C51F362B56FC72FE0B3C1EAE335EDCCBF5AEC39ADB17DC238973F804BA5E6F6BFE7AF1FB32E523BE9F3BD571418E3631DCA4D48
310
5250CF639223210A9446CA30052EDF057BD35F8329C1ECD84552BF0DC8D18BE7BCE23BFE6BD960AB4A7DE79923A103BEBD80F911CBAA2C60DB19B01CF164A5583B772EE6D3FFA56666CBCDA74DC97724A48F9A58967497E489C4D979006FD7A05E227A1EBDD0F737C623387A9C844D3709995625106D157315F8B8392CD4E0
310
A0B9A720C4BE9829CEF37EA1E13111214D53925356365ADA634861B52519DD27A00AEB808EAF0628E6F435519D446F45CF2C9CF5214F0A15B2F6D06B79DA3EE3CBF7F56780D2F4E7EF73A0F5E5B02A38D07DC852C6B7C1FBB6664213E0C39E3EBA7FF4E1AD23EA2829407C85E586727488B751B2DB9502BC7B228A3FD68B6E
310
A65A22397E690AA8D158D7E404EC8CDA235CC3B7D1898680131CEC2CDF2638C65196279577750F15884AEE19F94199155B92B13297978469D4F8D358DF0AEF7631E28DC8F0D9F437D5D39A83B2231A1D52D543813A824EF8D44BCFF2FA6A31BD1E8DAD87F1CCB526B3879935BF59CDADD5C37479BB1CDD4CA7B3556B516589
310
EF352754B706114D9C885EC9131DE6EFEB43D99AFE2391C2F958179413D7CFEF6B1B6DB1E7600F00DE6E5C67454A339A4BA2E0FBA85ED26F045D454F463DBFCE484C2F90F2E5E3666003662ED8F755951A7D1BECD5B30B550B2785C8E7320B7292A4838DDA71BBC863ED7613CAF659337A3354231D4FF4A182A54904C2898C
310
98B28C4AD0CE056CCF332A80986E571EE9DBC305BB5FEB7E509220A58D25CF042D712A806AC0AD0C657FDEF80D2D9CEAA2EE4D1C76F60BFE74219A06527D6F82DF6412526107381E55E353090704D085B52408A8913C4ED159D79BDA71BB4BC506F4831350EB6F975CD22D69BF7AC49B91A2C0A9DDA3D5CA36AD20FC478E37
310
E61844E2352865EBCB61A275A65283CAAA9DD27703B4102F5AF51EF5F573B75CBB5AD38BC845F7A49F82A0966A49C2E3EA5EA0ECD326CD965F1DB402C6FA8B51A4658C5C5E2EC9E214602E55810345408596591009A82E7E7FFACA19EEA299B14A0081A705CB3296EBC14CDF658DCD336EA6D1136881AAEB87B81AB9EE53D5
310
F5EB8BC8362082DA24122F98680A4E7930C01A0079749CEA14382A0783E5EBA5A10F8C098456A03D6A4AEB6BB881E2513747552A5DB22C7EDAF83BD5528081A365F7FF06504B0304140006080000CC70623B000000000000000000000000350000006662782F41393633353835312D344632462D344230382D423046372D37
310
39314545314133324237412F76657274696365732E62696E504B0304140006080800CC70623BF270F1330600000004000000360000006662782F41393633353835312D344632462D344230382D423046372D3739314545314133324237412F747269616E676C65732E62696E636660600000504B0304140006080000CC7062
310
3B000000000000000000000000370000006662782F41393633353835312D344632462D344230382D423046372D3739314545314133324237412F617474726962757465732E62696E504B0304140006080800CC70623B08DA0BD19000000041010000360000006662782F41393633353835312D344632462D344230382D4230
310
46372D3739314545314133324237412F6469726563746F72792E786D6C858F410AC3201045AF22B36F53E9A60B35CBEEBAE80D244E44489C6234F4F835464A48035D0DF398FF9F8AF63D0E6CC63039F212F8F9020C7D47C6792B21C5FE7403D62A1188E2E60C98D7234A5830286103A55745067B9D86B8A3CF9C7F90C11DE6
310
07FB144396D7B6A82D282E9A152AD114D5EF2CB866EEE831B8EEA07A7BB5A8D7D61A2BAAEB7FD5F70921FF497D00504B0304140006080800CC70623BEDD1DC58FD000000A00100003B0000006662782F41393633353835312D344632462D344230382D423046372D3739314545314133324237412F7265736F75726365732F
310
636F72652E786D6C8D504B6E833010BD0A9A6D65B00922041947112427E8052C33A156828DFCA97AFC9A40A576D7CDCCE87D344F8F9FBFE667F689CE6B6B3A6039850C8DB2A336530731DC4903D95970676DF82583CCC8193B5861107C72362E3BA4AC096842428D1D7107A5F7182053CF7474E0D507CE32973124857FE48B
310
540F3961CEF244279DE03EB81420DB9EAC1384436FA353E879B1B182C7A8C75DA3C7F453DF353A1075D537A7BA6464B8F535A99AE14A9A2BBD90E350DD183B5CFABE3AF262350B1EF4FC9351399401471025A527C218A1E53BAB5A5AB765F5469B96525EACF23FA6B88CFF34456DC2A1DCE36E360F82A5202F42F062ED2BAD
310
579969AFDD8A6F504B010214000A0000080000CC70623B3DEE336E79000000790000001B00000000000000000000000000000000006175746F6465736B2D64657369676E2D7061636B6167652E786D6C504B01021400140006080800CC70623BD486FD9CA0000000F40000001300000000000000000000000000B20000005B
310
436F6E74656E745F54797065735D2E786D6C504B01021400140006080800CC70623B853B8169EB0000007C010000080000000000000000000000000083010000636F72652E786D6C504B01021400140006080800CC70623B55019EA25F0000007C000000070000000000000000000000000094020000636E782E786D6C504B
310
01021400140006080800CC70623BDBABAAF470010000D40300000C00000000000000000000000000180300006662782F636F72652E786D6C504B01021400140006080800CC70623B9C113CC27E0000009D0000000B00000000000000000000000000B20400006662782F636E782E786D6C504B01021400140006080800CC70
310
623B7DF2F77C2A010000120200003100000000000000000000000000590500006662782F41393633353835312D344632462D344230382D423046372D3739314545314133324237412F636F72652E786D6C504B01021400140006080800CC70623BAD7543B64E010000330300003000000000000000000000000000D2060000
310
6662782F41393633353835312D344632462D344230382D423046372D3739314545314133324237412F636E782E786D6C504B01021400140006080800CC70623BE75B7789680500003C10000034000000000000000000000000006E0800006662782F41393633353835312D344632462D344230382D423046372D3739314545
310
314133324237412F6F626A656374732E786D6C504B01021400140006080000CC70623B0000000000000000000000003500000000000000000000000000280E00006662782F41393633353835312D344632462D344230382D423046372D3739314545314133324237412F76657274696365732E62696E504B01021400140006
310
080800CC70623BF270F133060000000400000036000000000000000000000000007B0E00006662782F41393633353835312D344632462D344230382D423046372D3739314545314133324237412F747269616E676C65732E62696E504B01021400140006080000CC70623B0000000000000000000000003700000000000000
310
000000000000D50E00006662782F41393633353835312D344632462D344230382D423046372D3739314545314133324237412F617474726962757465732E62696E504B01021400140006080800CC70623B08DA0BD1900000004101000036000000000000000000000000002A0F00006662782F41393633353835312D344632
310
462D344230382D423046372D3739314545314133324237412F6469726563746F72792E786D6C504B01021400140006080800CC70623BEDD1DC58FD000000A00100003B000000000000000000000000000E1000006662782F41393633353835312D344632462D344230382D423046372D3739314545314133324237412F7265
310
736F75726365732F636F72652E786D6C504B0506000000000E000E0080040000641100000000
  0
XRECORD
  5
1F8
102
{ACAD_REACTORS
330
1F7
102
}
330
1F7
100
AcDbXrecord
280
     1
 70
     1
 90
429727718
  1
30362254-06B7-45E0-A893-8CFA70E3D6BC
310
504B03040A0000080000CC70623B3DEE336E79000000790000001B0000006175746F6465736B2D64657369676E2D7061636B6167652E786D6C3C3F786D6C2076657273696F6E3D22312E302220656E636F64696E673D227574662D3822203F3E3C666F726D6174733E3C666F726D61743E687474703A2F2F736368656D612E
310
6175746F6465736B2E636F6D2F64657369676E2D7061636B6167652F323030393C2F666F726D61743E3C2F666F726D6174733E504B0304140006080800CC70623BD486FD9CA0000000F4000000130000005B436F6E74656E745F54797065735D2E786D6C7D8EC10E82300C865F65E91D8A1E8C310C0EEA1BF002731658846E
310
D98AC1B77784ABF1D8FE5FBFBF75BBCE937A534CCEB38643598122B6FEE978D0B0485F9C41B54DDD7D022595594E1A469170414C76A4D9A4D207E29CF43ECE46F218070CC6BECC4078ACAA135ACF422C856C0E68EA1BF5669944DDD7BCDE7B1F8E415D77AECB980613C2E4AC91FC167A2B244592486606FC29C8FD7F045B9A
310
EF7053A7E60B504B0304140006080800CC70623B1EC5D7A3EB0000007C01000008000000636F72652E786D6C8D90416EC3201045AF82665B6103C6756C6122AB4D4ED00B204C5C94182C03558F5F9C3852BBEB6A467FFE9B197D71FC9E6FE8CBACC17AD7032D0820E3B41FAD9B7A48F1820F808E52ACDEC75F36404ECDA687
310
4D0629A6D5A76597B477D1B89855E747B38B2A041301E95B6E7A08FAD3CCAA50296647B8168BD2573599823EBB0CA76447F43862C7BCCF5EAC59410E4DDD9C7973C2755553CCCFA4C603E3040F1565ED3B1FDE4E432BCA0D9622DAF9795FAF464533826484B498524CD807E51D79ED187F21878E10516EF63F505AC67F42C9
310
BA58B1FDDD071640D2FCC87D2045B96591CB3DA85CB7DCE40F504B0304140006080800CC70623B55019EA25F0000007C00000007000000636E782E786D6C4DCB3B0E80201045D1AD90E915ED2CF8AC45050C11660C8261F98AB1B07AC9C97D42D718D865D3E909258CFD00CCE24AC6E326A164D74DC0B4128928FF32603847
310
2BA13128B1252AC747C6BAB984FC68F0B87FE8960A5C09FE86CFB69FBA01504B0304140006080800CC70623B8C9102E971010000D40300000C0000006662782F636F72652E786D6CC5535B6E833010BC8AE5DF0A6C08340F1947A84D4ED00B38C6A128602363A31CBFCB234A53A551FA553EC09AD9F5CE8C31DB9E9B1AF5CA
310
7695D1198E428A91D2D214952E33ECDD315861B4E5CC1AE3BE9561A445A3323CC098B3D21ADFCE9034DA29ED00D5A6503328BA4E398C640D8B0C77F253352214DE4145770A5B214FA2546114020D759C75CE8200340D19DE981F0F6746269C33EFAB6266AB02A655C74A59CCF365BADC27CB5D902ED22848F6340DF238A141
310
BE88E2F57B92BFEDF23523433367AE6A2EEAA455C2A902F398D2751045018D3FA264435F3771F242571B4A1919CA6F9A7C5B3CD9E42BED16F12C776AEB308F40C848FC700B1139D4891EF410CEC810227CC6846F8386402064270EF5C5C709A05E49676C024C61FC95EA45ED154CA5211D1FF4FB8291A913A68E9B83EBBB33
310
E2A7673CDE118E5AE8124C0807CB8377834E366998436B950D7A7746DAD846D4CFD978E0F04FD455FC5D49D2D4C6FE9722321F10997F0F32DC47FE05504B0304140006080800CC70623BFFEA85907E0000009D0000000B0000006662782F636E782E786D6C4DCCD10A83201886E15B91FFDC95D95A811AB6F23E625948A6C3
310
E9D8E5AF46073BFAE0E1E365ED67B3E8ADC3CB78C7815C7240DA3DFC64DCC221C519D7805AC182F7F1EF06C88D9BE6703008B6049F9E274D7A1E938DBB5AE3D6131B2589BA0D3D965551E0B2EA732C9B9A624AAEB41E3A557677029960D9AFB4EF11165F504B0304140006080800CC70623B4FEEA4082C0100001202000031
310
0000006662782F39464131463745442D413632322D343644302D413938332D3331353338454246344243312F636F72652E786D6C8D515B6EC32010BC0AE2AB55850DD871ED0813254D72825EC00192A2C460F1A872FC42ED48ED5F7E00CDCECCCEB26C731F6FE05B39AFADE921293004CA082BB5B9F43086336A21D870E6AC
310
0D7F68109861543DCC30E4ECE26C9C164858139409093556AA051CBC570102714B8F1E7AF1A5C6A11862480C7F2DA6415C878B2A4891CA89C7990F2E050073937C42DE1DB7E4F87ED8A36D4329AA9B3D46DBAEAD504556557BD81DEBDD0761E52CE42C462D17B996298E3E6BE59E35C962CE821E1FF18553435012728A7187
310
0841987E927A8D9B35ADDF70BBC6989599FE4F1427F9A4286A132ABAC49D651EF234CD5CE04CDA78BA3DC2A8FB645D00B9DF8B57E215725C60BCA2A463E54C4CE327C7A65E1C7DB02E7DEFCBF594B864C5CA6CDBD49C957943E9FA5D5FBAF336F90F504B0304140006080800CC70623BAD7543B64E01000033030000300000
310
006662782F39464131463745442D413632322D343644302D413938332D3331353338454246344243312F636E782E786D6CD593CD6EC32010845F0571AD6CE3D48AD20813A9873E410FBD12D82434182C7EAAE6EDBB2424CD25871E7B41D6EC30B3FA84F9E67BB2E40B4234DE8DB46F1925E094D7C6ED479AD3AE5951B2113C
310
789FEE6C943839C1488B4C05DF079FE72A69D8C96C13AAD6B8631503449F83828872B949AC57D26200B826A308D316B4064D6E46FCDA41C05550DC9E483A00797BFD207EFB092A45DE9514C1BBD22178396BD39D891265658C238DEA00936C654E5E433CB65A26D9F6EDB5EBC14EBF49A45CB856E66048291F6939A9A81BB5
310
C8917738143CA680F4AA299D66A042CEB3354A2684DC9D8D178FE0D9B8B41CAAD720F880EE7EF93C0C18769E099ECC04D5A102C8049A8A05632F4DDF376CF1DE0F6BB65C2F8627B65A33C6BB62177CEBBDAD973006829F89F22E814B54F4BC2BE347F8AA8F681390B50FA73F804400B5F542E796F19FF974E7F78DB802FE05
310
E207504B0304140006080800CC70623B16AB87BA640500003C100000340000006662782F39464131463745442D413632322D343644302D413938332D3331353338454246344243312F6F626A656374732E786D6CAD575B6FA33818FD2B887DE6924B3BED8A326A92B68A663B534DD4D13E548A0C38942D60649B369D5FBFC7
310
600890A493BDE42160637FD7F31D7FF63E6FB3D478A55C242CBF3247B66B1A340F5994E4F19559CA8D75611A9F7D8F33263BCB4C232719BD32D5B4E97B316765A1A722BA21652A07B3B7B33F0D11D29C9A46981221AE4C113ED38CD8A4942CA2E2C58E882476BCD9DA23BB5ED8171B73523C0F841684D35CC252CCE79062D4
310
468DFA43D7747CCF51DF7D4FFDEB5593E3AB9CCA9FBEFE241792E4E19EB28198C968BAB8199F5D5A67D3E9C49A9E8F47D6EC76B6B0469F26EEFC7C3EBFBCBEB98462213924694B38DD98FE1D62C393D073EA4FADC5DAF04326852CCF6958F90F0F2B9BB5C48816348F90C7840A68EB78EDF68723159BCEE7891A6B95DDE9D3
310
BCEAEEE8086A6C6F9E5D4B59F0175C10A7A0820BAA5055C7473B5AE3CFDD452D602CD5DF12616444529E90D448938013FE6EFA58AA96F85E4F8C42275708571E98FE6827AF6B2B4AE3D7D83D64E5A64C53054DD3AF90BD06FEA9149565C94FCA0F6B834DC85599E4F2423B24DF0B6AFA979E534DFA9E7A4CC6FA631D486393
310
921829879BF5D781A373557BCB85E97FB90DB62B558F8795179C15944B051F40AB495CF35451D26A4727654E6D8033BD98EF82F21D91FF8AF2DD9982BCF1643BDD4EB516C9492E368C67C88DED563FC36D5EACF66DFF057C3658BDBFA69DF9578B3DA735B64F18C7F20770A9D45CFCF7FCF563D6456A277DBEF78A02637CA2
310
43B90A490AEAB94F72244481D24819A6C0E59B606BFA4B3025981DBB48EAB701D97BF19C577CC77F2D1B6C55A9EF3C732474C0B727303F625995056C3B02963D9EAC146BE78EC5FCEC7FA999EBC5EACBAAE41B12D27B4D2C0BBA49F244E2ECDC81B76B502F113D8F5EE8FB1BE3111CDD4FC2AA9B844CAB1288B68AB90A7CDC
310
1C166AB0D3DC5310625FCC14E779BFD0709F8890A629C9292B1B2DED31A4B0DA928CEE135085754027E3018A397D4D5427D15BD1330B677DC8934285AC3DF45A9EB68FF8F2B8FC0A509AFEECFD0FF2DE25CC6047F7214B195F07EFEB9A094D800F7BFAE8FED187B78EA8A3A400F115961BCAD1215E47C966530AF0EE8128FE
310
58CEBB996A8964FFA529A046635D9353B0336A8F700DDF46271A024E70B0B37C9DE01847591E54DED53D54202AB947E4076556AC49C6CA5C9E1226B7F1A7B1BE15DEED62C41B91E1B3E9AFAAA735036547343A925075041DF0A9979E893B391F8FCFA6967B3EFB644DCF6E5CEBFAE272625DCC6FAF3FB93793C5F90CE1EF57
310
407342756B10D1C489E8953CD1617E5CEECAD6F4EF8914CE5D5D504E5C3F1F9736DA62CFC11E00BCDDB8CC8A9466349744C1F75EBDA4DF09BA8A9E8C7A7E9991989E20E5DBDD6A6003664ED8F7A04A8DBE0DF6EAD9B9AA858342E47399053949D2C146EDB85DE4B176BB0965FBAC19BD19AA918E27FA50C1D22402E144464C
310
59462568E704B6E71915404CB72B8FF4EDE184DDAF753F284990D2C6926782963815403548A70C657FDEF80D2D9CEAA2AE4C1C76F60BFE74219A06527D6582DF6412526107381E55E353090704D085B52408D0933C4ED159D79BDA71BB4BC506F4831350EB6F979CD22D69BF7AC49B91A2C0A9DDA3D5CA36AD20FC478E37E6
310
1844E2352865EBCB6EA275A652E3836BE04EFB400BF1A2556F515F1FBB35B2AB35BD889C744FFA1004B5544B121E57F70215746DD2F5E2C1412B602CBF19455AC6C8E5E9922C4E01E65215385004546899059180EAFCF7A707CE7017CD8CDB0410789AB32C63B91E5CEBBBACB17AC6CD347A022D5075FD106377347AAABA7E
310
7D11590744509B44E205134DC1290F06580320F78E537D3D73540E06CB970B431F185308AD40BBD794D6D77003C5A36E8EAA54BA64597CD8F83BD552A080A365F7FF06504B0304140006080000CC70623B000000000000000000000000350000006662782F39464131463745442D413632322D343644302D413938332D3331
310
353338454246344243312F76657274696365732E62696E504B0304140006080800CC70623BF270F1330600000004000000360000006662782F39464131463745442D413632322D343644302D413938332D3331353338454246344243312F747269616E676C65732E62696E636660600000504B0304140006080000CC70623B
310
000000000000000000000000370000006662782F39464131463745442D413632322D343644302D413938332D3331353338454246344243312F617474726962757465732E62696E504B0304140006080800CC70623B08DA0BD19000000041010000360000006662782F39464131463745442D413632322D343644302D413938
310
332D3331353338454246344243312F6469726563746F72792E786D6C858F410AC3201045AF22B36F53E9A60B35CBEEBAE80D244E44489C6234F4F835464A48035D0DF398FF9F8AF63D0E6CC63039F212F8F9020C7D47C6792B21C5FE7403D62A1188E2E60C98D7234A5830286103A55745067B9D86B8A3CF9C7F90C11DE607
310
FB144396D7B6A82D282E9A152AD114D5EF2CB866EEE831B8EEA07A7BB5A8D7D61A2BAAEB7FD5F70921FF497D00504B0304140006080800CC70623B0D6EF93BFE000000A00100003B0000006662782F39464131463745442D413632322D343644302D413938332D3331353338454246344243312F7265736F75726365732F63
310
6F72652E786D6C8D50596E833010BD0A9ADFCA60B334011947A8694ED00B586642AC041B79A97AFC9A40A5F6AF3F33A3B7689E1E3F7DCD8FEC139DD7D6F4C0720A191A65476DA61E62B892236427C19DB5E1970C322367EC618541F0C9D9B8EC90B226A009093576C41D94DE63804C3DD2D18357379C652E63480A7FCF17A9
310
EE72C29CE5894E3AC17D702940B63D59270887DE46A7D0F36263058F518FBB468FE9A7BE6A7420864373B8D4873369AA8691FA421B3294352543C5CAF65C0F6FEF43CB8BD52C78D0F34F46E550061C419494B6843142CB0F5677F4B52BEB177AEC28E5C52AFF638ACBF84F53D42654E51E77B379102C05791282176B5F693D
310
CB4C7BED567C03504B010214000A0000080000CC70623B3DEE336E79000000790000001B00000000000000000000000000000000006175746F6465736B2D64657369676E2D7061636B6167652E786D6C504B01021400140006080800CC70623BD486FD9CA0000000F40000001300000000000000000000000000B20000005B
310
436F6E74656E745F54797065735D2E786D6C504B01021400140006080800CC70623B1EC5D7A3EB0000007C010000080000000000000000000000000083010000636F72652E786D6C504B01021400140006080800CC70623B55019EA25F0000007C000000070000000000000000000000000094020000636E782E786D6C504B
310
01021400140006080800CC70623B8C9102E971010000D40300000C00000000000000000000000000180300006662782F636F72652E786D6C504B01021400140006080800CC70623BFFEA85907E0000009D0000000B00000000000000000000000000B30400006662782F636E782E786D6C504B01021400140006080800CC70
310
623B4FEEA4082C0100001202000031000000000000000000000000005A0500006662782F39464131463745442D413632322D343644302D413938332D3331353338454246344243312F636F72652E786D6C504B01021400140006080800CC70623BAD7543B64E010000330300003000000000000000000000000000D5060000
310
6662782F39464131463745442D413632322D343644302D413938332D3331353338454246344243312F636E782E786D6C504B01021400140006080800CC70623B16AB87BA640500003C1000003400000000000000000000000000710800006662782F39464131463745442D413632322D343644302D413938332D3331353338
310
454246344243312F6F626A656374732E786D6C504B01021400140006080000CC70623B0000000000000000000000003500000000000000000000000000270E00006662782F39464131463745442D413632322D343644302D413938332D3331353338454246344243312F76657274696365732E62696E504B01021400140006
310
080800CC70623BF270F133060000000400000036000000000000000000000000007A0E00006662782F39464131463745442D413632322D343644302D413938332D3331353338454246344243312F747269616E676C65732E62696E504B01021400140006080000CC70623B0000000000000000000000003700000000000000
310
000000000000D40E00006662782F39464131463745442D413632322D343644302D413938332D3331353338454246344243312F617474726962757465732E62696E504B01021400140006080800CC70623B08DA0BD190000000410100003600000000000000000000000000290F00006662782F39464131463745442D413632
310
322D343644302D413938332D3331353338454246344243312F6469726563746F72792E786D6C504B01021400140006080800CC70623B0D6EF93BFE000000A00100003B000000000000000000000000000D1000006662782F39464131463745442D413632322D343644302D413938332D3331353338454246344243312F7265
310
736F75726365732F636F72652E786D6C504B0506000000000E000E0080040000641100000000
  0
XRECORD
  5
175
102
{ACAD_REACTORS
330
173
102
}
330
173
100
AcDbXrecord
280
     1
270
     1
271
     1
  0
XRECORD
  5
174
102
{ACAD_REACTORS
330
173
102
}
330
173
100
AcDbXrecord
280
     1
270
     1
271
     1
  0
XRECORD
  5
1FB
102
{ACAD_REACTORS
330
173
102
}
330
173
100
AcDbXrecord
280
     1
 70
     0
 90
1673772943
  1
ECE7A1D2-D628-4531-984C-D00F80459256
310
504B03040A0000080000CC70623B3DEE336E79000000790000001B0000006175746F6465736B2D64657369676E2D7061636B6167652E786D6C3C3F786D6C2076657273696F6E3D22312E302220656E636F64696E673D227574662D3822203F3E3C666F726D6174733E3C666F726D61743E687474703A2F2F736368656D612E
310
6175746F6465736B2E636F6D2F64657369676E2D7061636B6167652F323030393C2F666F726D61743E3C2F666F726D6174733E504B0304140006080800CC70623BD486FD9CA0000000F4000000130000005B436F6E74656E745F54797065735D2E786D6C7D8EC10E82300C865F65E91D8A1E8C310C0EEA1BF002731658846E
310
D98AC1B77784ABF1D8FE5FBFBF75BBCE937A534CCEB38643598122B6FEE978D0B0485F9C41B54DDD7D022595594E1A469170414C76A4D9A4D207E29CF43ECE46F218070CC6BECC4078ACAA135ACF422C856C0E68EA1BF5669944DDD7BCDE7B1F8E415D77AECB980613C2E4AC91FC167A2B244592486606FC29C8FD7F045B9A
310
EF7053A7E60B504B0304140006080800CC70623BD9DDAED0EC0000007C01000008000000636F72652E786D6C8D90416EC3201045AF82665B61836D9CD8C2444DD39CA01740405C94182C03558F5F9C3852BBEB6A467FFE9B197D7EF89E6EE8CB2CC17A37002D0820E394D7D68D03A478C17B4007C117EFE32F1B20272733C0
310
2A83E0E3E2D3BC49CABB685CCCAAF3DA6CA20CC14440EA969B0182FA34932C648AD911AEC52CD5558EA6A0CF2EC329598D1E47ACCEFBECC59A050463A7EA5833865FEBDD0E37353BE3EE8DBDE3F6786A48D375FBF6CC78B9C282473B3DEFABC5C86834888A900E538A49F5419B9EB47DD5BC907D4F082F57FB1F28CDFA9F50
310
B22ED6D5F6EE030B20687EE43E10BC5CB3C8E51E54AE6B6EE207504B0304140006080800CC70623B55019EA25F0000007C00000007000000636E782E786D6C4DCB3B0E80201045D1AD90E915ED2CF8AC45050C11660C8261F98AB1B07AC9C97D42D718D865D3E909258CFD00CCE24AC6E326A164D74DC0B4128928FF326038
310
472BA13128B1252AC747C6BAB984FC68F0B87FE8960A5C09FE86CFB69FBA01504B0304140006080800CC70623BA24EB22D72010000D40300000C0000006662782F636F72652E786D6CC5535B6E833010BC8AE5DF0A6C5E49888CA3A6694ED00B38E05014B091B1518EDFE511A5A9D228FD2A1F60CDEC7A67C6986DCE4D8D7A
310
69BA4AAB0C073EC548AA5C17952A33ECECD15B61B4E1CC686DBF9561A44423333CC098B3D268D7CE50AE9595CA02AA74216750749DB418E5352C32DCE59FB211BE70162ABA93DF8AFC244AE9073ED050C759670D0840D390E18DF9F1706664C23973AE2A66B62A605A75ACA4C13C4976E1364A12EF355A2EBD384AF65EFA96
310
BC7B8BED2EA6719AAE16FB8491A199335B351775B991C2CA02F390D2D40B028F861F41BCA68B7518BFD0D59A524686F29B26D7164F36B94AD9289CE54E6D1DE6010819891F6E21228B3AD1831EC219194284CF98F06DD01008846CC5A1BEF83801D4CBDC6A1303536877A57A513B0953A94FC707FDBE6064EA84A9E3E6E0FA
310
EE8CF0E9198F7784A316AA0413C2C2F2E0ECA0934D1AE6D05A69BCDE9E91D2A611F573361E38FC1375157F5752AE6B6DFE4B11990F88CCBF0719EE23FF02504B0304140006080800CC70623B408A7D3B7C0000009D0000000B0000006662782F636E782E786D6C4DCCD10A83201886E15B91FFDC552A92A0064DBC8F581632
310
D3703A76F9ABD1C18E3E78F878E5F0D9027ABBFCF2292AE86E2D20171F69F6715550CB827B40839639A5F2770314A7CD293819B45C73AAFB45B35BA61ACAA1C1C7E7855C58C15BC331339661262CC762340413D68D77DA5B42298546CBE6573AF60CEB2F504B0304140006080800CC70623B449FB9BD290100001202000031
310
0000006662782F36394639363044362D344446342D343946362D394244322D3234314243333846323333332F636F72652E786D6C8D515B6EC32010BC0AE22B55850D98B871848994463E412FE002495162B07854397EA176A4F62F3F2C9A9D991D587EB84F37F0AD7D30CEF6905418026DA553C65E7A98E219ED203808EE9D
310
8B7F6810D871D23D2C3014FCE25D9A57483A1BB58D19B54EE9151C43D0110279CB971E06F9A5A7B11A53CC8C70ADE6515EC78BAE4895DB992778883E0700CB907242D17643D7E2538BD869608875438BBAE38922CAC8F1BDD90DB4691A5E2F42C153326A951B95E398B3D1FE599322163C9AE9115F7A3D46ADA0A018778810
310
84E907617BDCEE297BC5BB3DC6BC2EF47FA234AB2745C9D8D8D035EE220B50105E2F0DC1954B9FB747187D9F9D8FA0CCDB042D5FA0C015C65B42DF78BD10F3F3B363CB56C7109DCFDFBBB97E662ED92EB62D13BC2E1BCAE5777DB9966D8A1F504B0304140006080800CC70623BAD7543B64E01000033030000300000006662
310
782F36394639363044362D344446342D343946362D394244322D3234314243333846323333332F636E782E786D6CD593CD6EC32010845F0571AD6CE3D48AD20813A9873E410FBD12D82434182C7EAAE6EDBB2424CD25871E7B41D6EC30B3FA84F9E67BB2E40B4234DE8DB46F1925E094D7C6ED479AD3AE5951B2113C789FEE
310
6C943839C1488B4C05DF079FE72A69D8C96C13AAD6B8631503449F83828872B949AC57D26200B826A308D316B4064D6E46FCDA41C05550DC9E483A00797BFD207EFB092A45DE9514C1BBD22178396BD39D891265658C238DEA00936C654E5E433CB65A26D9F6EDB5EBC14EBF49A45CB856E66048291F6939A9A81BB5C89177
310
38143CA680F4AA299D66A042CEB3354A2684DC9D8D178FE0D9B8B41CAAD720F880EE7EF93C0C18769E099ECC04D5A102C8049A8A05632F4DDF376CF1DE0F6BB65C2F8627B65A33C6BB62177CEBBDAD973006829F89F22E814B54F4BC2BE347F8AA8F681390B50FA73F804400B5F542E796F19FF974E7F78DB802FE05E20750
310
4B0304140006080800CC70623B8D05915C650500003B100000340000006662782F36394639363044362D344446342D343946362D394244322D3234314243333846323333332F6F626A656374732E786D6CAD575B6FA33814FE2B887D06429276DA1565D4266D158D3A339A6846FB502932E050B66023DB74D2FDF5FB190C01
310
9276B2973C046C8ECFF53B17071F77456EBD502133CEAE6CDF9DD81665314F32965ED995DA3A17B6F5310C04E7AA47665B8C14F4CAD6DB7618A48257A5D94AE89654B91AEDDEDDFC61C998326A5B714EA4BCB265FC440BE2924AF184CA6737218AB8E976E7FA6E4338649B0A523E8D98964450A6A029F619B8588D52FE7039
310
B1BD30F0F4F730D0FF866AF6369557DB33949F31A9088B0F848DD8CCFCF9F2767A76E99CCDE733677E3EF59D9BBB9BA5E37F984D16E78BC5E5F5ED25044B25C0C96822E8D60EEFE11B91C581D77CEA34368A1F5329E68CD1B8B61F16D63A1B8E092D294B10C78C4A48EB593D192E7DED9BDEE7995E1B91FDEDD3ACEA9FE831
310
6A756F9F7D4D79F4274C90A7A04248AA51D5F8C718DAE06FB2F75AC4796EBE65D22A88A22223B995679120E2D50E41AA49C260C046A35368846B0BECD0DFF3EBEB8AD4F835768F69B9ADF25C43D30E6B646F807FAA64AD59F61715C7A54127C4AACA98BA3006A9D792DAE165E0D59B61A01FB3A9F9D838D2DAE62445C86166
310
F37564E842E7DE6A69879FEEA2DD5AE7E371E1A5E025154AC307D06A03D73EB5978C58FFA4C8E9033066E0F3BD53BEC1F39F91BE7B55103791EDE6BBB991A2046172CB4581D8B893FA674DDA17A77B3B7C413D1B511FD2743BFF8A38F03A658705E3ADF8015C3A3417FF3D7E439FF591DA0B5F18BC20C1B8981957AE6392A3
310
F43C640C01D1A0B4728E2DD4F26DB4B3C3152A252A3B4E913CEC1C72F012782FF88EFF8637AA552DBEF76408E8A8DE9E50F9E1CB3A2DA0DB1B6039A893B56063DC5B3E3FFB5F72E67AB9FEB4AEC496C4F4C1149625DD662C53E89D7BF0F6151A046260D1337DFDC94502430F83B0EE07A130A224BCAD7DAE1D9FB6CD422FF6
310
920702629C4BB9AE79C12F243C6432A6794E18E5552BA56B431AAB5D91317302B2B071E86C3A42B1A02F999E24061403B5D0EB639195DA655DD3EBEAB4FB862DDF579F014AD0E73C22F99E28DA57FB98E75C6CA2D74D53086D600F4786E0FE3144B771A8A7B900F03594DB8A633CBC49B2EDB69228BB479CF863B5E807AAAB
310
23872F6DFEB4129B949CA33823F58830E86D65621E10047D9DB34D862E8EAC3C2ABC2F7B2C40D67CDFE01F5545B92105AF983AC54D93D69E56FB8E797F88913F898A9FEC705D3F9D1B54EC8426FB500D40A03BD0119B06E1B95DDC7EB8F6975367793EBD70E66733DFB9BC982F9CE564727731999F5D4ECFCE3B8D6A4DC2A0
310
6D50FD148437D110834A64C6CDDF57FBACB5C307A2A477DFE4939736CFEF2B175371E0E10CF0DD1D5C15654E0BCA14D1E87DD02FF93782A162C0A3D95F1524A52770F972BF1EE9809D13CE7DD599467F8ECE9ADD85CE85A34CD45355448C64F9E8A031DC2D596ACC6E5DD93D9B82DE2EF5CAF81363A8E47996A0DE24564A79
310
4115AACE09C55E14540231FDA13C319787134EBF34E3A022514E5B4D9E0826E25C02D5805B15ABE1BEF51B26383D445DD9E875EE33FE4C22DA16427D65A3BCA92CA6D28DD01DF5DC53330704308475351050232CCD31583787BA75774AFB06E5070DD0C8EF484E19968C5D83BA5B90B244D31E54D55A372320FE4786B7EA58
310
44E135AA5467CB7EA333A61683CC6A8C3257034C10CF46F40EF9F5BE59BE5BD30C3C72D235E95D10345C1D45445A5F0BB47E46A5EBE5570F9380B5FA629579952296A773720405982B9DE04011506178964401AA8BDF1FBF0A8EAB6861DD6580C0E38217056766716DAEB2D6FA0917D3E4116581EADB879C4E7CFFB11EFACD
310
3D641311495D92C8676CB409A72D18610D803CE8A626049E8EC1887CB5B44CC39883690DDA8399B4B9855B481E7D71D4A9D22F96E5BB73BF5793020C02137BF837504B0304140006080000CC70623B000000000000000000000000350000006662782F36394639363044362D344446342D343946362D394244322D32343142
310
43333846323333332F76657274696365732E62696E504B0304140006080800CC70623BF270F1330600000004000000360000006662782F36394639363044362D344446342D343946362D394244322D3234314243333846323333332F747269616E676C65732E62696E636660600000504B0304140006080000CC70623B0000
310
00000000000000000000370000006662782F36394639363044362D344446342D343946362D394244322D3234314243333846323333332F617474726962757465732E62696E504B0304140006080800CC70623B08DA0BD19000000041010000360000006662782F36394639363044362D344446342D343946362D394244322D
310
3234314243333846323333332F6469726563746F72792E786D6C858F410AC3201045AF22B36F53E9A60B35CBEEBAE80D244E44489C6234F4F835464A48035D0DF398FF9F8AF63D0E6CC63039F212F8F9020C7D47C6792B21C5FE7403D62A1188E2E60C98D7234A5830286103A55745067B9D86B8A3CF9C7F90C11DE607FB14
310
4396D7B6A82D282E9A152AD114D5EF2CB866EEE831B8EEA07A7BB5A8D7D61A2BAAEB7FD5F70921FF497D00504B0304140006080800CC70623BCA768048FE000000A00100003B0000006662782F36394639363044362D344446342D343946362D394244322D3234314243333846323333332F7265736F75726365732F636F72
310
652E786D6C8D50596E833010BD0A9ADFCA60D600328E9AA639412F609909B1126CE4A5EAF16B0295DABFFECC8CDEA2797AECF8353F924FB44E193D409E5248504B332A3D0D10FC95B4901C39B3C6F85F3248B49871801506CE266BC2B243D2688FDA47549B11775038871E12F988C7004EDE7016A9083E2ADC3D5D84BC8B09
310
D33C8D74D471E6BC8D0192EDC93A815B742658898E651BCB59086ADC356A8C3FD555A1055ED7E7E254D615792D0F075295F585746FF53B694EE78A565DD736979A65AB9933AFE69F8CD2A2F038022F28ED489E135A7CE4554F9BBEA85E68DB53CAB255FEC71496F19FA6A0B42F8B3DEE6673C0F318E4497096AD7DC5F52C33
310
EEB55BFE0D504B010214000A0000080000CC70623B3DEE336E79000000790000001B00000000000000000000000000000000006175746F6465736B2D64657369676E2D7061636B6167652E786D6C504B01021400140006080800CC70623BD486FD9CA0000000F40000001300000000000000000000000000B20000005B436F
310
6E74656E745F54797065735D2E786D6C504B01021400140006080800CC70623BD9DDAED0EC0000007C010000080000000000000000000000000083010000636F72652E786D6C504B01021400140006080800CC70623B55019EA25F0000007C000000070000000000000000000000000095020000636E782E786D6C504B0102
310
1400140006080800CC70623BA24EB22D72010000D40300000C00000000000000000000000000190300006662782F636F72652E786D6C504B01021400140006080800CC70623B408A7D3B7C0000009D0000000B00000000000000000000000000B50400006662782F636E782E786D6C504B01021400140006080800CC70623B
310
449FB9BD290100001202000031000000000000000000000000005A0500006662782F36394639363044362D344446342D343946362D394244322D3234314243333846323333332F636F72652E786D6C504B01021400140006080800CC70623BAD7543B64E010000330300003000000000000000000000000000D20600006662
310
782F36394639363044362D344446342D343946362D394244322D3234314243333846323333332F636E782E786D6C504B01021400140006080800CC70623B8D05915C650500003B10000034000000000000000000000000006E0800006662782F36394639363044362D344446342D343946362D394244322D32343142433338
310
46323333332F6F626A656374732E786D6C504B01021400140006080000CC70623B0000000000000000000000003500000000000000000000000000250E00006662782F36394639363044362D344446342D343946362D394244322D3234314243333846323333332F76657274696365732E62696E504B010214001400060808
310
00CC70623BF270F13306000000040000003600000000000000000000000000780E00006662782F36394639363044362D344446342D343946362D394244322D3234314243333846323333332F747269616E676C65732E62696E504B01021400140006080000CC70623B00000000000000000000000037000000000000000000
310
00000000D20E00006662782F36394639363044362D344446342D343946362D394244322D3234314243333846323333332F617474726962757465732E62696E504B01021400140006080800CC70623B08DA0BD190000000410100003600000000000000000000000000270F00006662782F36394639363044362D344446342D
310
343946362D394244322D3234314243333846323333332F6469726563746F72792E786D6C504B01021400140006080800CC70623BCA768048FE000000A00100003B000000000000000000000000000B1000006662782F36394639363044362D344446342D343946362D394244322D3234314243333846323333332F7265736F
310
75726365732F636F72652E786D6C504B0506000000000E000E0080040000621100000000
  0
XRECORD
  5
176
102
{ACAD_REACTORS
330
173
102
}
330
173
100
AcDbXrecord
280
     1
270
     1
271
     1
  0
XRECORD
  5
177
102
{ACAD_REACTORS
330
173
102
}
330
173
100
AcDbXrecord
280
     1
270
     1
271
     1
  0
CELLSTYLEMAP
  5
352BA
102
{ACAD_REACTORS
330
162
102
}
330
162
100
AcDbCellStyleMap
 90
        3
300
CELLSTYLE
  1
TABLEFORMAT_BEGIN
 90
        5
170
     1
 91
        0
 92
    32768
 62
   257
 93
        1
300
CONTENTFORMAT
  1
CONTENTFORMAT_BEGIN
 90
        0
 91
        0
 92
      512
 93
        0
300

 40
0.0
140
1.0
 94
        5
 62
     0
340
11
144
6.0
309
CONTENTFORMAT_END
171
     1
301
MARGIN
  1
CELLMARGIN_BEGIN
 40
1.5
 40
1.5
 40
1.5
 40
1.5
 40
4.5
 40
4.5
309
CELLMARGIN_END
 94
        6
 95
        1
302
GRIDFORMAT
  1
GRIDFORMAT_BEGIN
 90
        0
 91
        1
 62
     0
 92
       -2
340
14
 93
        0
 40
1.125
309
GRIDFORMAT_END
 95
        2
302
GRIDFORMAT
  1
GRIDFORMAT_BEGIN
 90
        0
 91
        1
 62
     0
 92
       -2
340
14
 93
        0
 40
1.125
309
GRIDFORMAT_END
 95
        4
302
GRIDFORMAT
  1
GRIDFORMAT_BEGIN
 90
        0
 91
        1
 62
     0
 92
       -2
340
14
 93
        0
 40
1.125
309
GRIDFORMAT_END
 95
        8
302
GRIDFORMAT
  1
GRIDFORMAT_BEGIN
 90
        0
 91
        1
 62
     0
 92
       -2
340
14
 93
        0
 40
1.125
309
GRIDFORMAT_END
 95
       16
302
GRIDFORMAT
  1
GRIDFORMAT_BEGIN
 90
        0
 91
        1
 62
     0
 92
       -2
340
14
 93
        0
 40
1.125
309
GRIDFORMAT_END
 95
       32
302
GRIDFORMAT
  1
GRIDFORMAT_BEGIN
 90
        0
 91
        1
 62
     0
 92
       -2
340
14
 93
        0
 40
1.125
309
GRIDFORMAT_END
309
TABLEFORMAT_END
  1
CELLSTYLE_BEGIN
 90
        1
 91
        1
300
_TITLE
309
CELLSTYLE_END
300
CELLSTYLE
  1
TABLEFORMAT_BEGIN
 90
        5
170
     1
 91
        0
 92
        0
 62
   257
 93
        1
300
CONTENTFORMAT
  1
CONTENTFORMAT_BEGIN
 90
        0
 91
        0
 92
      512
 93
        0
300

 40
0.0
140
1.0
 94
        5
 62
     0
340
11
144
4.5
309
CONTENTFORMAT_END
171
     1
301
MARGIN
  1
CELLMARGIN_BEGIN
 40
1.5
 40
1.5
 40
1.5
 40
1.5
 40
4.5
 40
4.5
309
CELLMARGIN_END
 94
        6
 95
        1
302
GRIDFORMAT
  1
GRIDFORMAT_BEGIN
 90
        0
 91
        1
 62
     0
 92
       -2
340
14
 93
        0
 40
1.125
309
GRIDFORMAT_END
 95
        2
302
GRIDFORMAT
  1
GRIDFORMAT_BEGIN
 90
        0
 91
        1
 62
     0
 92
       -2
340
14
 93
        0
 40
1.125
309
GRIDFORMAT_END
 95
        4
302
GRIDFORMAT
  1
GRIDFORMAT_BEGIN
 90
        0
 91
        1
 62
     0
 92
       -2
340
14
 93
        0
 40
1.125
309
GRIDFORMAT_END
 95
        8
302
GRIDFORMAT
  1
GRIDFORMAT_BEGIN
 90
        0
 91
        1
 62
     0
 92
       -2
340
14
 93
        0
 40
1.125
309
GRIDFORMAT_END
 95
       16
302
GRIDFORMAT
  1
GRIDFORMAT_BEGIN
 90
        0
 91
        1
 62
     0
 92
       -2
340
14
 93
        0
 40
1.125
309
GRIDFORMAT_END
 95
       32
302
GRIDFORMAT
  1
GRIDFORMAT_BEGIN
 90
        0
 91
        1
 62
     0
 92
       -2
340
14
 93
        0
 40
1.125
309
GRIDFORMAT_END
309
TABLEFORMAT_END
  1
CELLSTYLE_BEGIN
 90
        2
 91
        1
300
_HEADER
309
CELLSTYLE_END
300
CELLSTYLE
  1
TABLEFORMAT_BEGIN
 90
        5
170
     1
 91
        0
 92
        0
 62
   257
 93
        1
300
CONTENTFORMAT
  1
CONTENTFORMAT_BEGIN
 90
        0
 91
        0
 92
      512
 93
        0
300

 40
0.0
140
1.0
 94
        2
 62
     0
340
11
144
4.5
309
CONTENTFORMAT_END
171
     1
301
MARGIN
  1
CELLMARGIN_BEGIN
 40
1.5
 40
1.5
 40
1.5
 40
1.5
 40
4.5
 40
4.5
309
CELLMARGIN_END
 94
        6
 95
        1
302
GRIDFORMAT
  1
GRIDFORMAT_BEGIN
 90
        0
 91
        1
 62
     0
 92
       -2
340
14
 93
        0
 40
1.125
309
GRIDFORMAT_END
 95
        2
302
GRIDFORMAT
  1
GRIDFORMAT_BEGIN
 90
        0
 91
        1
 62
     0
 92
       -2
340
14
 93
        0
 40
1.125
309
GRIDFORMAT_END
 95
        4
302
GRIDFORMAT
  1
GRIDFORMAT_BEGIN
 90
        0
 91
        1
 62
     0
 92
       -2
340
14
 93
        0
 40
1.125
309
GRIDFORMAT_END
 95
        8
302
GRIDFORMAT
  1
GRIDFORMAT_BEGIN
 90
        0
 91
        1
 62
     0
 92
       -2
340
14
 93
        0
 40
1.125
309
GRIDFORMAT_END
 95
       16
302
GRIDFORMAT
  1
GRIDFORMAT_BEGIN
 90
        0
 91
        1
 62
     0
 92
       -2
340
14
 93
        0
 40
1.125
309
GRIDFORMAT_END
 95
       32
302
GRIDFORMAT
  1
GRIDFORMAT_BEGIN
 90
        0
 91
        1
 62
     0
 92
       -2
340
14
 93
        0
 40
1.125
309
GRIDFORMAT_END
309
TABLEFORMAT_END
  1
CELLSTYLE_BEGIN
 90
        3
 91
        2
300
_DATA
309
CELLSTYLE_END
  0
ENDSEC
  0
SECTION
  2
ACDSDATA
 70
     2
 71
     8
  0
ACDSSCHEMA
 90
        0
  1
AcDb_Thumbnail_Schema
  2
AcDbDs::ID
280
    10
 91
        8
  2
Thumbnail_Data
280
    15
 91
        0
101
ACDSRECORD
 95
        0
 90
        1
  2
AcDbDs::TreatedAsObjectData
280
     1
291
     1
101
ACDSRECORD
 95
        0
 90
        2
  2
AcDbDs::Legacy
280
     1
291
     1
101
ACDSRECORD
  1
AcDbDs::ID
 90
        3
  2
AcDs:Indexable
280
     1
291
     1
101
ACDSRECORD
  1
AcDbDs::ID
 90
        4
  2
AcDbDs::HandleAttribute
280
     7
282
     1
  0
ACDSSCHEMA
 90
        1
  1
AcDbDs::TreatedAsObjectDataSchema
  2
AcDbDs::TreatedAsObjectData
280
     1
 91
        0
  0
ACDSSCHEMA
 90
        2
  1
AcDbDs::LegacySchema
  2
AcDbDs::Legacy
280
     1
 91
        0
  0
ACDSSCHEMA
 90
        3
  1
AcDbDs::IndexedPropertySchema
  2
AcDs:Indexable
280
     1
 91
        0
  0
ACDSSCHEMA
 90
        4
  1
AcDbDs::HandleAttributeSchema
  2
AcDbDs::HandleAttribute
280
     7
 91
        1
284
     1
  0
ACDSSCHEMA
 90
        5
  1
AcDb3DSolid_ASM_Data
  2
AcDbDs::ID
280
    10
 91
        8
  2
ASM_Data
280
    15
 91
        0
101
ACDSRECORD
 95
        5
 90
        1
  2
AcDbDs::TreatedAsObjectData
280
     1
291
     1
101
ACDSRECORD
 95
        5
 90
        2
  2
AcDbDs::Legacy
280
     1
291
     1
101
ACDSRECORD
  1
AcDbDs::ID
 90
        3
  2
AcDs:Indexable
280
     1
291
     1
101
ACDSRECORD
  1
AcDbDs::ID
 90
        4
  2
AcDbDs::HandleAttribute
280
     7
282
     1
  0
ACDSRECORD
 90
        0
  2
AcDbDs::ID
280
    10
320
D3
  2
Thumbnail_Data
280
    15
 94
     1675
310
89504E470D0A1A0A0000000D4948445200000100000000B5080300000087DCD12600000300504C5445FFFFFFFFFFFFFFFFFF0000000000000000000000000000000000000000000000000000330000660000990000CC0000FF0033000033330033660033990033CC0033FF0066000066330066660066990066CC0066FF0099
310
000099330099660099990099CC0099FF00CC0000CC3300CC6600CC9900CCCC00CCFF00FF0000FF3300FF6600FF9900FFCC00FFFF3300003300333300663300993300CC3300FF3333003333333333663333993333CC3333FF3366003366333366663366993366CC3366FF3399003399333399663399993399CC3399FF33CC00
310
33CC3333CC6633CC9933CCCC33CCFF33FF0033FF3333FF6633FF9933FFCC33FFFF6600006600336600666600996600CC6600FF6633006633336633666633996633CC6633FF6666006666336666666666996666CC6666FF6699006699336699666699996699CC6699FF66CC0066CC3366CC6666CC9966CCCC66CCFF66FF0066
310
FF3366FF6666FF9966FFCC66FFFF9900009900339900669900999900CC9900FF9933009933339933669933999933CC9933FF9966009966339966669966999966CC9966FF9999009999339999669999999999CC9999FF99CC0099CC3399CC6699CC9999CCCC99CCFF99FF0099FF3399FF6699FF9999FFCC99FFFFCC0000CC00
310
33CC0066CC0099CC00CCCC00FFCC3300CC3333CC3366CC3399CC33CCCC33FFCC6600CC6633CC6666CC6699CC66CCCC66FFCC9900CC9933CC9966CC9999CC99CCCC99FFCCCC00CCCC33CCCC66CCCC99CCCCCCCCCCFFCCFF00CCFF33CCFF66CCFF99CCFFCCCCFFFFFF0000FF0033FF0066FF0099FF00CCFF00FFFF3300FF3333
310
FF3366FF3399FF33CCFF33FFFF6600FF6633FF6666FF6699FF66CCFF66FFFF9900FF9933FF9966FF9999FF99CCFF99FFFFCC00FFCC33FFCC66FFCC99FFCCCCFFCCFFFFFF00FFFF33FFFF66FFFF99FFFFCCFFFFFF0000000D0D0D1A1A1A2828283535354343435050505D5D5D6B6B6B787878868686939393A1A1A1AEAEAEBB
310
BBBBC9C9C9D6D6D6E4E4E4F1F1F1FFFFFF000000000000000000000000000000000000000000000000000000000000AD4AB4E40000033F4944415478DAED9CDB72AB300C00F5FF9FA9E7F3D23F386D32F8221B708BE518BCCC34439286C062AD642544FE2DBE080064E10500000000004A00FABD3CF476F511D00640570F01
310
0010028B0310001002481000840012040021800401609A04775ABA8780DE3CDA2F4B1000EB007870080800902000902000902000902000902000902000902000902000902000902000902000902000902000902000902000902000902000902000C8024810008400122CB7A82AAA6B03D8FD1AFE1A2170ABE3F790E04F08C8
310
DA009AAE4A797808CC4820DF99DFEDDBDD01680CCC6D6FF27B9DD3E07BC3DB8ACE72F2DB01742984668AFD1A80EB97CDEDBDD7CFCBC328786F2D3E16FF343C9752F3192FAFDA2C3FE40E23A0390B345DBFE86A8CCD014995EA1702B30208EFE12DC1D308B16F9CEC9C38A58C08A0CD01BD01E4D4EDDDED6478573CD601EA18
310
021270EBAC9383F72E8D91A0CC09C02D0DDE0380EF5C404C253CEF7CC84D827A9336D9A02CF0C938F77380EE579DAF2413A25F35AD82C79D5BCD129DE607ADB11EEF2C4129E6C2E166980CD3AA578B07BC0164ACB779F1D8D68039D5B57990E78FA8A829BCC2EFB50ECB86B61D5303703402E4BA03543706F96C7758FC4B36
310
02249D0FFB03B0D13E3C0B1400C2C90855897F087C320BEE86406C0E463DF5CF02DE7DAD739DAA98FE828656551C017E59E0E8A974742469325F93644DCBE36ECB276AFBE036395C1E01279F0D26FEDF2A015B11D4006CFA887B1A57420EFFFA6AB1D761E6756C8818E59AA697EC77C35A478074AC280602386F07CAC14379
310
3DD98F804B08C4CE5FDEF352538D1A09649AD0D7304F271315261F0670BEC5789C520C61D9FDBC2605607FFCFF17129C0040D280AD8C926ADB3409A46F00F11F5300B38740E5A8544E01C83980E4D5EFD1719F86C89F6AD90A00CD9F7B3480838FD8070098E16B72FB497F1A00E20AA0ADDBB12480015D61BE290A80C50170
310
BD0012040012040012040012040012040012040012040012040012040012040012040012040012040012040012040012040012040012040012240B204100100248B07CEDCD96EE001EB15C0981672E00580C8002000902000902000902000902000902E00080F9859767DDAEED0001000000008002C0E2CBF200FE037899C1
310
77CC5D0C0F0000000049454E44AE426082608244AE426082
  0
ACDSRECORD
 90
        0
  2
AcDbDs::ID
280
    10
320
22
  2
Thumbnail_Data
280
    15
 94
     1874
310
89504E470D0A1A0A0000000D4948445200000100000000970803000000CDB8751B00000300504C5445212830FFFFFF2128300000000000000000000000000000000000000000000000000000330000660000990000CC0000FF0033000033330033660033990033CC0033FF0066000066330066660066990066CC0066FF0099
310
000099330099660099990099CC0099FF00CC0000CC3300CC6600CC9900CCCC00CCFF00FF0000FF3300FF6600FF9900FFCC00FFFF3300003300333300663300993300CC3300FF3333003333333333663333993333CC3333FF3366003366333366663366993366CC3366FF3399003399333399663399993399CC3399FF33CC00
310
33CC3333CC6633CC9933CCCC33CCFF33FF0033FF3333FF6633FF9933FFCC33FFFF6600006600336600666600996600CC6600FF6633006633336633666633996633CC6633FF6666006666336666666666996666CC6666FF6699006699336699666699996699CC6699FF66CC0066CC3366CC6666CC9966CCCC66CCFF66FF0066
310
FF3366FF6666FF9966FFCC66FFFF9900009900339900669900999900CC9900FF9933009933339933669933999933CC9933FF9966009966339966669966999966CC9966FF9999009999339999669999999999CC9999FF99CC0099CC3399CC6699CC9999CCCC99CCFF99FF0099FF3399FF6699FF9999FFCC99FFFFCC0000CC00
310
33CC0066CC0099CC00CCCC00FFCC3300CC3333CC3366CC3399CC33CCCC33FFCC6600CC6633CC6666CC6699CC66CCCC66FFCC9900CC9933CC9966CC9999CC99CCCC99FFCCCC00CCCC33CCCC66CCCC99CCCCCCCCCCFFCCFF00CCFF33CCFF66CCFF99CCFFCCCCFFFFFF0000FF0033FF0066FF0099FF00CCFF00FFFF3300FF3333
310
FF3366FF3399FF33CCFF33FFFF6600FF6633FF6666FF6699FF66CCFF66FFFF9900FF9933FF9966FF9999FF99CCFF99FFFFCC00FFCC33FFCC66FFCC99FFCCCCFFCCFFFFFF00FFFF33FFFF66FFFF99FFFFCCFFFFFF0000000D0D0D1A1A1A2828283535354343435050505D5D5D6B6B6B787878868686939393A1A1A1AEAEAEBB
310
BBBBC9C9C9D6D6D6E4E4E4F1F1F1FFFFFF0000000000000000000000000000000000000000000000000000000000002E4550F10000015E4944415478DAEDD9DB4EC330100540FFFFDFF661DF29B96E9CA44508A4263B83C06054814FEC8D9DB6060000000000000000000000000000F715CF8FD2E3FF6606507C09FC86006E
310
94C09B54DABD03D80F5E0D281D401340C56D41D1619F85516F27D4D2F21F4A40540AE2A00414AB85914218B601D5EE863980483FD65B0205D7FF5A046BDE00FE7EEF3FAF9DBEBDD62E60FA9C9BB528A44AF9B3F612D5246F01964B1607BD7D00F38B37ED34A3E2F19802F8FC85150727C2F6EA41C01AC4FE147936033EF9C9
310
CA7891C701B5F14BDB0EB79B01EDDDD4DF2534FE91E7A4481527A6AECF5920F39D60BB76D7193EF72FFFFDD00C4388B47D3CA901570B60DFDB62FFDB6954735FBF04D20CB850005DCDEA7AA33F4577012C831B8796A6C64100D7DF70AE4B60C92AD6FEE52D97936A7AC393E436981C40BA53E6EFEE7EBCD89E2BA3D033977D
310
11A4EA11CBF50700000000000000000000000000807FF005B0A190B8D9977B340000000049454E44AE4260829C00A15D6F670EB78021256E762ACEB1251AB8A89ADC6082C8F3F19AE09AC4CCCC63BE2F40B086500905A71D0F9AE0EDF364B3D5755B21A64E63C0C9020CE5919AFFE26DD75BDDD8DE71482A69F8D817408F8F
310
011301E635C33B07A7023863EB7B0949725F80CF4E28F4B8FBCC0430B1A55BB3B7BBBD2C70A516BB25B924540C028877BCBCBA505B335D65D0E877206F0A50A4F332358D2641566FDF9C4FB3C09D36382E47094E6F870100000000000000000000000000000000002EC00FA354142E8825828D0000000049454E44AE426082
310
EEEA80606A56EF04AF53E0E418B0B3E0D44BAEFA1BF4AF738026626F0E681E56DF2E06B432AE4C80B2AA2F73802780B802C8F5027488018900E514B84C80B3778251010672809F0B489E48877281DB3960CB062B07E89A281FC806EFE700717E2C14FDB980DCDD01CDFE9DBB831DD401DB895FD1B1F2EF74D445F4B0D78674
310
8039C6EF15B9AB03BA2FB9236D852F5870C6DA0AF79E66B603AE3E1AEEAC40E500955FF93330039E08996D7BBF4860C5FDFB7A1A8933A30A601D237E24D00200000000000000000000000000000000000000C017F20F9864B448AE790F7A0000000049454E44AE4260824E44AE4260829298DBEF11C0D60890674712400248
310
0009200124800490001240024800092001248004900012400248000920013E5400FFF67B01FBFA9B21D3DDA06E871B6BC204B832B8DBECF4E719983030DF2152FE2EFCDF0C3337BAAD47E6037B846C5F8FD0F95DE12E31F77A97984D7489ED6D14F4EABA10018EFF8AE0A06FC1FDFF4603784B1E41BB5374827377A7682592
310
A316D019EDD5B1739CF766C41EDFB16D9CDBC440BCE6D39C77C7C5EE4B8A7F00E7C3A7E171CEDBA3E2F498BB39054110044110044110044110044110044110044110044110044110FE30FE01E4A7F11F03AE71B00000000049454E44AE426082
  0
ENDSEC
  0
EOF
